  0
SECTION
  2
HEADER
  9
$ACADVER
  1
AC1015
  9
$ACADMAINTVER
 70
     6
  9
$DWGCODEPAGE
  3
ANSI_1252
  9
$INSBASE
 10
0.0
 20
0.0
 30
0.0
  9
$EXTMIN
 10
0.0
 20
0.0
 30
0.0
  9
$EXTMAX
 10
594.0
 20
420.0
 30
0.0
  9
$LIMMIN
 10
0.0
 20
0.0
  9
$LIMMAX
 10
594.0
 20
420.0
  9
$ORTHOMODE
 70
     0
  9
$REGENMODE
 70
     1
  9
$FILLMODE
 70
     1
  9
$QTEXTMODE
 70
     0
  9
$MIRRTEXT
 70
     1
  9
$LTSCALE
 40
1.0
  9
$ATTMODE
 70
     1
  9
$TEXTSIZE
 40
0.2
  9
$TRACEWID
 40
0.05
  9
$TEXTSTYLE
  7
Standard
  9
$CLAYER
  8
0
  9
$CELTYPE
  6
ByLayer
  9
$CECOLOR
 62
   256
  9
$CELTSCALE
 40
25.4
  9
$DISPSILH
 70
     0
  9
$DIMSCALE
 40
1.0
  9
$DIMASZ
 40
0.18
  9
$DIMEXO
 40
0.0625
  9
$DIMDLI
 40
0.38
  9
$DIMRND
 40
0.0
  9
$DIMDLE
 40
0.0
  9
$DIMEXE
 40
0.18
  9
$DIMTP
 40
0.0
  9
$DIMTM
 40
0.0
  9
$DIMTXT
 40
0.18
  9
$DIMCEN
 40
0.09
  9
$DIMTSZ
 40
0.0
  9
$DIMTOL
 70
     0
  9
$DIMLIM
 70
     0
  9
$DIMTIH
 70
     1
  9
$DIMTOH
 70
     1
  9
$DIMSE1
 70
     0
  9
$DIMSE2
 70
     0
  9
$DIMTAD
 70
     0
  9
$DIMZIN
 70
     0
  9
$DIMBLK
  1

  9
$DIMASO
 70
     1
  9
$DIMSHO
 70
     1
  9
$DIMPOST
  1

  9
$DIMAPOST
  1

  9
$DIMALT
 70
     0
  9
$DIMALTD
 70
     2
  9
$DIMALTF
 40
25.4
  9
$DIMLFAC
 40
1.0
  9
$DIMTOFL
 70
     0
  9
$DIMTVP
 40
0.0
  9
$DIMTIX
 70
     0
  9
$DIMSOXD
 70
     0
  9
$DIMSAH
 70
     0
  9
$DIMBLK1
  1

  9
$DIMBLK2
  1

  9
$DIMSTYLE
  2
Standard
  9
$DIMCLRD
 70
     0
  9
$DIMCLRE
 70
     0
  9
$DIMCLRT
 70
     0
  9
$DIMTFAC
 40
1.0
  9
$DIMGAP
 40
0.09
  9
$DIMJUST
 70
     0
  9
$DIMSD1
 70
     0
  9
$DIMSD2
 70
     0
  9
$DIMTOLJ
 70
     1
  9
$DIMTZIN
 70
     0
  9
$DIMALTZ
 70
     0
  9
$DIMALTTZ
 70
     0
  9
$DIMUPT
 70
     0
  9
$DIMDEC
 70
     4
  9
$DIMTDEC
 70
     4
  9
$DIMALTU
 70
     2
  9
$DIMALTTD
 70
     2
  9
$DIMTXSTY
  7
Standard
  9
$DIMAUNIT
 70
     0
  9
$DIMADEC
 70
     0
  9
$DIMALTRND
 40
0.0
  9
$DIMAZIN
 70
     0
  9
$DIMDSEP
 70
    46
  9
$DIMATFIT
 70
     3
  9
$DIMFRAC
 70
     0
  9
$DIMLDRBLK
  1

  9
$DIMLUNIT
 70
     2
  9
$DIMLWD
 70
    -2
  9
$DIMLWE
 70
    -2
  9
$DIMTMOVE
 70
     0
  9
$LUNITS
 70
     2
  9
$LUPREC
 70
     4
  9
$SKETCHINC
 40
0.1
  9
$FILLETRAD
 40
0.5
  9
$AUNITS
 70
     0
  9
$AUPREC
 70
     0
  9
$MENU
  1
.
  9
$ELEVATION
 40
0.0
  9
$PELEVATION
 40
0.0
  9
$THICKNESS
 40
0.0
  9
$LIMCHECK
 70
     0
  9
$CHAMFERA
 40
0.5
  9
$CHAMFERB
 40
0.5
  9
$CHAMFERC
 40
1.0
  9
$CHAMFERD
 40
0.0
  9
$SKPOLY
 70
     0
  9
$TDCREATE
 40
2454896.416484653
  9
$TDUCREATE
 40
2454896.416484653
  9
$TDUPDATE
 40
2454896.416484664
  9
$TDUUPDATE
 40
2454896.416484664
  9
$TDINDWG
 40
0.0000000116
  9
$TDUSRTIMER
 40
0.0000000116
  9
$USRTIMER
 70
     1
  9
$ANGBASE
 50
0.0
  9
$ANGDIR
 70
     0
  9
$PDMODE
 70
     0
  9
$PDSIZE
 40
0.0
  9
$PLINEWID
 40
0.0
  9
$SPLFRAME
 70
     0
  9
$SPLINETYPE
 70
     6
  9
$SPLINESEGS
 70
     8
  9
$HANDSEED
  5
445
  9
$SURFTAB1
 70
     6
  9
$SURFTAB2
 70
     6
  9
$SURFTYPE
 70
     6
  9
$SURFU
 70
     6
  9
$SURFV
 70
     6
  9
$UCSBASE
  2

  9
$UCSNAME
  2

  9
$UCSORG
 10
0.0
 20
0.0
 30
0.0
  9
$UCSXDIR
 10
1.0
 20
0.0
 30
0.0
  9
$UCSYDIR
 10
0.0
 20
1.0
 30
0.0
  9
$UCSORTHOREF
  2

  9
$UCSORTHOVIEW
 70
     0
  9
$UCSORGTOP
 10
0.0
 20
0.0
 30
0.0
  9
$UCSORGBOTTOM
 10
0.0
 20
0.0
 30
0.0
  9
$UCSORGLEFT
 10
0.0
 20
0.0
 30
0.0
  9
$UCSORGRIGHT
 10
0.0
 20
0.0
 30
0.0
  9
$UCSORGFRONT
 10
0.0
 20
0.0
 30
0.0
  9
$UCSORGBACK
 10
0.0
 20
0.0
 30
0.0
  9
$PUCSBASE
  2

  9
$PUCSNAME
  2

  9
$PUCSORG
 10
0.0
 20
0.0
 30
0.0
  9
$PUCSXDIR
 10
1.0
 20
0.0
 30
0.0
  9
$PUCSYDIR
 10
0.0
 20
1.0
 30
0.0
  9
$PUCSORTHOREF
  2

  9
$PUCSORTHOVIEW
 70
     0
  9
$PUCSORGTOP
 10
0.0
 20
0.0
 30
0.0
  9
$PUCSORGBOTTOM
 10
0.0
 20
0.0
 30
0.0
  9
$PUCSORGLEFT
 10
0.0
 20
0.0
 30
0.0
  9
$PUCSORGRIGHT
 10
0.0
 20
0.0
 30
0.0
  9
$PUCSORGFRONT
 10
0.0
 20
0.0
 30
0.0
  9
$PUCSORGBACK
 10
0.0
 20
0.0
 30
0.0
  9
$USERI1
 70
     0
  9
$USERI2
 70
     0
  9
$USERI3
 70
     0
  9
$USERI4
 70
     0
  9
$USERI5
 70
     0
  9
$USERR1
 40
0.0
  9
$USERR2
 40
0.0
  9
$USERR3
 40
0.0
  9
$USERR4
 40
0.0
  9
$USERR5
 40
0.0
  9
$WORLDVIEW
 70
     1
  9
$SHADEDGE
 70
     3
  9
$SHADEDIF
 70
    70
  9
$TILEMODE
 70
     1
  9
$MAXACTVP
 70
    64
  9
$PINSBASE
 10
0.0
 20
0.0
 30
0.0
  9
$PLIMCHECK
 70
     0
  9
$PEXTMIN
 10
0.0
 20
0.0
 30
0.0
  9
$PEXTMAX
 10
594.0
 20
420.0
 30
0.0
  9
$PLIMMIN
 10
0.0
 20
0.0
  9
$PLIMMAX
 10
594.0
 20
420.0
  9
$UNITMODE
 70
     0
  9
$VISRETAIN
 70
     1
  9
$PLINEGEN
 70
     0
  9
$PSLTSCALE
 70
     1
  9
$TREEDEPTH
 70
  3020
  9
$CMLSTYLE
  2
Standard
  9
$CMLJUST
 70
     0
  9
$CMLSCALE
 40
1.0
  9
$PROXYGRAPHICS
 70
     1
  9
$MEASUREMENT
 70
     1
  9
$CELWEIGHT
370
    -1
  9
$ENDCAPS
280
     0
  9
$JOINSTYLE
280
     0
  9
$LWDISPLAY
290
     0
  9
$INSUNITS
 70
     1
  9
$HYPERLINKBASE
  1

  9
$STYLESHEET
  1

  9
$XEDIT
290
     1
  9
$CEPSNTYPE
380
     0
  9
$PSTYLEMODE
290
     1
  9
$FINGERPRINTGUID
  2
{2FCBB455-18B8-489D-A3C1-4CA2D7C82310}
  9
$VERSIONGUID
  2
{FAEB1C32-E019-11D5-929B-00C0DF256EC4}
  9
$EXTNAMES
290
     1
  9
$PSVPSCALE
 40
0.0
  9
$OLESTARTUP
290
     0
  0
ENDSEC
  0
SECTION
  2
CLASSES
  0
CLASS
  1
ACDBDICTIONARYWDFLT
  2
AcDbDictionaryWithDefault
  3
ObjectDBX Classes
 90
        0
280
     0
281
     0
  0
CLASS
  1
ACDBPLACEHOLDER
  2
AcDbPlaceHolder
  3
ObjectDBX Classes
 90
        0
280
     0
281
     0
  0
CLASS
  1
LAYOUT
  2
AcDbLayout
  3
ObjectDBX Classes
 90
        0
280
     0
281
     0
  0
ENDSEC
  0
SECTION
  2
TABLES
  0
TABLE
  2
VPORT
  5
8
330
0
100
AcDbSymbolTable
 70
     1
  0
VPORT
  5
29
330
8
100
AcDbSymbolTableRecord
100
AcDbViewportTableRecord
  2
*Active
 70
     0
 10
0.0
 20
0.0
 11
1.0
 21
1.0
 12
10.4299065421
 22
4.5
 13
0.0
 23
0.0
 14
0.5
 24
0.5
 15
0.5
 25
0.5
 16
0.0
 26
0.0
 36
1.0
 17
0.0
 27
0.0
 37
0.0
 40
9.0
 41
1.9729729729
 42
50.0
 43
0.0
 44
0.0
 50
0.0
 51
0.0
 71
     0
 72
   100
 73
     1
 74
     3
 75
     0
 76
     0
 77
     0
 78
     0
281
     0
 65
     1
110
0.0
120
0.0
130
0.0
111
1.0
121
0.0
131
0.0
112
0.0
122
1.0
132
0.0
 79
     0
146
0.0
  0
ENDTAB
  0
TABLE
  2
LTYPE
  5
5
330
0
100
AcDbSymbolTable
 70
     3
  0
LTYPE
  5
14
330
5
100
AcDbSymbolTableRecord
100
AcDbLinetypeTableRecord
  2
ByBlock
 70
     0
  3

 72
    65
 73
     0
 40
0.0
  0
LTYPE
  5
15
330
5
100
AcDbSymbolTableRecord
100
AcDbLinetypeTableRecord
  2
ByLayer
 70
     0
  3

 72
    65
 73
     0
 40
0.0
  0
LTYPE
  5
16
330
5
100
AcDbSymbolTableRecord
100
AcDbLinetypeTableRecord
  2
Continuous
 70
     0
  3
Solid line
 72
    65
 73
     0
 40
0.0
  0
LTYPE
  5
60
330
5
100
AcDbSymbolTableRecord
100
AcDbLinetypeTableRecord
  2
CENTER2
 70
     0
  3
___ _ ___ _ ___ _ ___ _ ___ _ ___ _ ___ _ ___ _
 72
    65
 73
     4
 40
1.125
 49
0.75
 74
     4
 75
     0
340
0
 46
0.0
 50
0.0
 44
0.0
 45
0.0
 49
-0.125
 74
     4
 75
     0
340
0
 46
0.0
 50
0.0
 44
0.0
 45
0.0
 49
0.125
 74
     4
 75
     0
340
0
 46
0.0
 50
0.0
 44
0.0
 45
0.0
 49
-0.125
 74
     4
 75
     0
340
0
 46
0.0
 50
0.0
 44
0.0
 45
0.0
  0
LTYPE
  5
E0
330
5
100
AcDbSymbolTableRecord
100
AcDbLinetypeTableRecord
  2
HIDDEN2
 70
     0
  3
_ _ _ _ _ _ _ _ _ _ _ _ _ _ _ _ _ _ _ _ _ _ _ _
 72
    65
 73
     2
 40
0.1875
 49
0.125
 74
     4
 75
     0
340
0
 46
0.0
 50
0.0
 44
0.0
 45
0.0
 49
-0.0625
 74
     4
 75
     0
340
0
 46
0.0
 50
0.0
 44
0.0
 45
0.0
  0
ENDTAB
  0
TABLE
  2
LAYER
  5
2
330
0
100
AcDbSymbolTable
 70
     6
  0
LAYER
  5
10
330
2
100
AcDbSymbolTableRecord
100
AcDbLayerTableRecord
  2
0
 70
     0
 62
     7
  6
Continuous
370
    -3
390
F
  0
LAYER
  5
2A
330
2
100
AcDbSymbolTableRecord
100
AcDbLayerTableRecord
  2
Default
 70
     0
 62
     7
  6
Continuous
370
    -3
390
F
  0
LAYER
  5
5F
330
2
100
AcDbSymbolTableRecord
100
AcDbLayerTableRecord
  2
DV1_Default
 70
     0
 62
     7
  6
Continuous
370
    -3
390
F
  0
LAYER
  5
13B
330
2
100
AcDbSymbolTableRecord
100
AcDbLayerTableRecord
  2
DV2_Default
 70
     0
 62
     7
  6
Continuous
370
    -3
390
F
  0
LAYER
  5
219
330
2
100
AcDbSymbolTableRecord
100
AcDbLayerTableRecord
  2
DV3_Default
 70
     0
 62
     7
  6
Continuous
370
    -3
390
F
  0
LAYER
  5
434
330
2
100
AcDbSymbolTableRecord
100
AcDbLayerTableRecord
  2
BORDER
 70
     0
 62
     7
  6
Continuous
370
    -3
390
F
  0
ENDTAB
  0
TABLE
  2
STYLE
  5
3
330
0
100
AcDbSymbolTable
 70
     3
  0
STYLE
  5
11
330
3
100
AcDbSymbolTableRecord
100
AcDbTextStyleTableRecord
  2
Standard
 70
     0
 40
0.0
 41
1.0
 50
0.0
 71
     0
 42
0.2
  3
txt
  4

  0
STYLE
  5
31
330
3
100
AcDbSymbolTableRecord
100
AcDbTextStyleTableRecord
  2
SEACAD_arial_ttf
 70
     0
 40
0.2
 41
1.0
 50
0.0
 71
     0
 42
0.2
  3
arial.ttf
  4

  0
STYLE
  5
4F
330
3
100
AcDbSymbolTableRecord
100
AcDbTextStyleTableRecord
  2
SEACAD_semeca1_ttf
 70
     0
 40
0.2
 41
1.0
 50
0.0
 71
     0
 42
0.2
  3
semeca1.ttf
  4

  0
ENDTAB
  0
TABLE
  2
VIEW
  5
6
330
0
100
AcDbSymbolTable
 70
     0
  0
ENDTAB
  0
TABLE
  2
UCS
  5
7
330
0
100
AcDbSymbolTable
 70
     0
  0
ENDTAB
  0
TABLE
  2
APPID
  5
9
330
0
100
AcDbSymbolTable
 70
     1
  0
APPID
  5
12
330
9
100
AcDbSymbolTableRecord
100
AcDbRegAppTableRecord
  2
ACAD
 70
     0
  0
ENDTAB
  0
TABLE
  2
DIMSTYLE
  5
A
330
0
100
AcDbSymbolTable
 70
     1
100
AcDbDimStyleTable
  0
DIMSTYLE
105
27
330
A
100
AcDbSymbolTableRecord
100
AcDbDimStyleTableRecord
  2
Standard
 70
     0
340
11
  0
ENDTAB
  0
TABLE
  2
BLOCK_RECORD
  5
1
330
0
100
AcDbSymbolTable
 70
    40
  0
BLOCK_RECORD
  5
1F
330
1
100
AcDbSymbolTableRecord
100
AcDbBlockTableRecord
  2
*Model_Space
340
22
  0
BLOCK_RECORD
  5
1B
330
1
100
AcDbSymbolTableRecord
100
AcDbBlockTableRecord
  2
*Paper_Space
340
1E
  0
BLOCK_RECORD
  5
2B
330
1
100
AcDbSymbolTableRecord
100
AcDbBlockTableRecord
  2
SEANNOT_GROUP
340
0
102
{BLKREFS
331
2C
102
}
  0
BLOCK_RECORD
  5
36
330
1
100
AcDbSymbolTableRecord
100
AcDbBlockTableRecord
  2
SEANNOT_GROUP1
340
0
102
{BLKREFS
331
37
102
}
  0
BLOCK_RECORD
  5
3F
330
1
100
AcDbSymbolTableRecord
100
AcDbBlockTableRecord
  2
SEANNOT_GROUP2
340
0
102
{BLKREFS
331
40
102
}
  0
BLOCK_RECORD
  5
49
330
1
100
AcDbSymbolTableRecord
100
AcDbBlockTableRecord
  2
SEANNOT_GROUP3
340
0
102
{BLKREFS
331
4A
102
}
  0
BLOCK_RECORD
  5
54
330
1
100
AcDbSymbolTableRecord
100
AcDbBlockTableRecord
  2
SEANNOT_GROUP4
340
0
102
{BLKREFS
331
55
102
}
  0
BLOCK_RECORD
  5
5D
330
1
100
AcDbSymbolTableRecord
100
AcDbBlockTableRecord
  2
SE
340
0
102
{BLKREFS
331
5E
102
}
  0
BLOCK_RECORD
  5
139
330
1
100
AcDbSymbolTableRecord
100
AcDbBlockTableRecord
  2
SE1
340
0
102
{BLKREFS
331
13A
102
}
  0
BLOCK_RECORD
  5
217
330
1
100
AcDbSymbolTableRecord
100
AcDbBlockTableRecord
  2
SE2
340
0
102
{BLKREFS
331
218
102
}
  0
BLOCK_RECORD
  5
2BA
330
1
100
AcDbSymbolTableRecord
100
AcDbBlockTableRecord
  2
GDimGGroup
340
0
102
{BLKREFS
331
2BB
102
}
  0
BLOCK_RECORD
  5
2C7
330
1
100
AcDbSymbolTableRecord
100
AcDbBlockTableRecord
  2
GDimGGroup1
340
0
102
{BLKREFS
331
2C8
102
}
  0
BLOCK_RECORD
  5
2D3
330
1
100
AcDbSymbolTableRecord
100
AcDbBlockTableRecord
  2
GDimGGroup2
340
0
102
{BLKREFS
331
2D4
102
}
  0
BLOCK_RECORD
  5
2DF
330
1
100
AcDbSymbolTableRecord
100
AcDbBlockTableRecord
  2
GDimGGroup3
340
0
102
{BLKREFS
331
2E0
102
}
  0
BLOCK_RECORD
  5
2EB
330
1
100
AcDbSymbolTableRecord
100
AcDbBlockTableRecord
  2
GDimGGroup4
340
0
102
{BLKREFS
331
2EC
102
}
  0
BLOCK_RECORD
  5
2F7
330
1
100
AcDbSymbolTableRecord
100
AcDbBlockTableRecord
  2
GDimGGroup5
340
0
102
{BLKREFS
331
2F8
102
}
  0
BLOCK_RECORD
  5
303
330
1
100
AcDbSymbolTableRecord
100
AcDbBlockTableRecord
  2
GDimGGroup6
340
0
102
{BLKREFS
331
304
102
}
  0
BLOCK_RECORD
  5
30F
330
1
100
AcDbSymbolTableRecord
100
AcDbBlockTableRecord
  2
GDimGGroup7
340
0
102
{BLKREFS
331
310
102
}
  0
BLOCK_RECORD
  5
31B
330
1
100
AcDbSymbolTableRecord
100
AcDbBlockTableRecord
  2
GDimGGroup8
340
0
102
{BLKREFS
331
31C
102
}
  0
BLOCK_RECORD
  5
327
330
1
100
AcDbSymbolTableRecord
100
AcDbBlockTableRecord
  2
GDimGGroup9
340
0
102
{BLKREFS
331
328
102
}
  0
BLOCK_RECORD
  5
333
330
1
100
AcDbSymbolTableRecord
100
AcDbBlockTableRecord
  2
GDimGGroup10
340
0
102
{BLKREFS
331
334
102
}
  0
BLOCK_RECORD
  5
340
330
1
100
AcDbSymbolTableRecord
100
AcDbBlockTableRecord
  2
GDimGGroup11
340
0
102
{BLKREFS
331
341
102
}
  0
BLOCK_RECORD
  5
34B
330
1
100
AcDbSymbolTableRecord
100
AcDbBlockTableRecord
  2
GDimGGroup12
340
0
102
{BLKREFS
331
34C
102
}
  0
BLOCK_RECORD
  5
356
330
1
100
AcDbSymbolTableRecord
100
AcDbBlockTableRecord
  2
GDimGGroup13
340
0
102
{BLKREFS
331
357
102
}
  0
BLOCK_RECORD
  5
362
330
1
100
AcDbSymbolTableRecord
100
AcDbBlockTableRecord
  2
GDimGGroup14
340
0
102
{BLKREFS
331
363
102
}
  0
BLOCK_RECORD
  5
36E
330
1
100
AcDbSymbolTableRecord
100
AcDbBlockTableRecord
  2
GDimGGroup15
340
0
102
{BLKREFS
331
36F
102
}
  0
BLOCK_RECORD
  5
37A
330
1
100
AcDbSymbolTableRecord
100
AcDbBlockTableRecord
  2
GDimGGroup16
340
0
102
{BLKREFS
331
37B
102
}
  0
BLOCK_RECORD
  5
386
330
1
100
AcDbSymbolTableRecord
100
AcDbBlockTableRecord
  2
GDimGGroup17
340
0
102
{BLKREFS
331
387
102
}
  0
BLOCK_RECORD
  5
394
330
1
100
AcDbSymbolTableRecord
100
AcDbBlockTableRecord
  2
GDimGGroup18
340
0
102
{BLKREFS
331
395
102
}
  0
BLOCK_RECORD
  5
3A2
330
1
100
AcDbSymbolTableRecord
100
AcDbBlockTableRecord
  2
GDimGGroup19
340
0
102
{BLKREFS
331
3A3
102
}
  0
BLOCK_RECORD
  5
3AF
330
1
100
AcDbSymbolTableRecord
100
AcDbBlockTableRecord
  2
GDimGGroup20
340
0
102
{BLKREFS
331
3B0
102
}
  0
BLOCK_RECORD
  5
3BC
330
1
100
AcDbSymbolTableRecord
100
AcDbBlockTableRecord
  2
GDimGGroup21
340
0
102
{BLKREFS
331
3BD
102
}
  0
BLOCK_RECORD
  5
3CA
330
1
100
AcDbSymbolTableRecord
100
AcDbBlockTableRecord
  2
GDimGGroup22
340
0
102
{BLKREFS
331
3CB
102
}
  0
BLOCK_RECORD
  5
3D7
330
1
100
AcDbSymbolTableRecord
100
AcDbBlockTableRecord
  2
GDimGGroup23
340
0
102
{BLKREFS
331
3D8
102
}
  0
BLOCK_RECORD
  5
3E3
330
1
100
AcDbSymbolTableRecord
100
AcDbBlockTableRecord
  2
GDimGGroup24
340
0
102
{BLKREFS
331
3E4
102
}
  0
BLOCK_RECORD
  5
3EF
330
1
100
AcDbSymbolTableRecord
100
AcDbBlockTableRecord
  2
GDimGGroup25
340
0
102
{BLKREFS
331
3F0
102
}
  0
BLOCK_RECORD
  5
3FB
330
1
100
AcDbSymbolTableRecord
100
AcDbBlockTableRecord
  2
GDimGGroup26
340
0
102
{BLKREFS
331
3FC
102
}
  0
BLOCK_RECORD
  5
409
330
1
100
AcDbSymbolTableRecord
100
AcDbBlockTableRecord
  2
GDimGGroup27
340
0
102
{BLKREFS
331
40A
102
}
  0
BLOCK_RECORD
  5
415
330
1
100
AcDbSymbolTableRecord
100
AcDbBlockTableRecord
  2
GDimGGroup28
340
0
102
{BLKREFS
331
416
102
}
  0
BLOCK_RECORD
  5
41F
330
1
100
AcDbSymbolTableRecord
100
AcDbBlockTableRecord
  2
GDimGGroup29
340
0
102
{BLKREFS
331
420
102
}
  0
BLOCK_RECORD
  5
42A
330
1
100
AcDbSymbolTableRecord
100
AcDbBlockTableRecord
  2
GDimGGroup30
340
0
102
{BLKREFS
331
42B
102
}
  0
ENDTAB
  0
ENDSEC
  0
SECTION
  2
BLOCKS
  0
BLOCK
  5
20
330
1F
100
AcDbEntity
  8
0
100
AcDbBlockBegin
  2
*Model_Space
 70
     0
 71
     0
 10
0.0
 20
0.0
 30
0.0
  3
*Model_Space
  1

  0
ENDBLK
  5
21
330
1F
100
AcDbEntity
  8
0
100
AcDbBlockEnd
  0
BLOCK
  5
1C
330
1B
100
AcDbEntity
 67
     1
  8
0
100
AcDbBlockBegin
  2
*Paper_Space
 70
     0
 71
     0
 10
0.0
 20
0.0
 30
0.0
  3
*Paper_Space
  1

  0
ENDBLK
  5
1D
330
1B
100
AcDbEntity
 67
     1
  8
0
100
AcDbBlockEnd
  0
BLOCK
  5
34
330
2B
100
AcDbEntity
  8
0
100
AcDbBlockBegin
  2
SEANNOT_GROUP
 70
     0
 71
     0
 10
0.0
 20
0.0
 30
0.0
  3
SEANNOT_GROUP
  1

  0
LWPOLYLINE
  5
2D
330
2B
100
AcDbEntity
  8
Default
  6
Continuous
 62
     7
 48
25.4
100
AcDbPolyline
 90
        2
 70
     0
 43
0.0
 10
255.1632912956
 20
400.9282001344
 10
215.5568634239
 20
383.5554922972
  0
HATCH
  5
2E
330
2B
100
AcDbEntity
  8
Default
  6
Continuous
 62
     7
 48
25.4
100
AcDbHatch
 10
0.0
 20
0.0
 30
0.0
210
0.0
220
0.0
230
1.0
  2
SOLID
 70
     1
 71
     0
 91
        1
 92
        1
 93
        3
 72
     1
 10
218.9521731903165
 20
385.7727693651897
 11
215.5568634238687
 21
383.5554922971517
 72
     1
 10
215.5568634238687
 20
383.5554922971517
 11
219.4877598196019
 21
384.5517350048262
 72
     1
 10
219.4877598196019
 20
384.5517350048262
 11
218.9521731903165
 21
385.7727693651897
 97
        0
 75
     0
 76
     1
 98
        0
  0
LWPOLYLINE
  5
2F
330
2B
100
AcDbEntity
  8
Default
  6
Continuous
 62
     7
 48
25.4
370
    20
100
AcDbPolyline
 90
        4
 70
     1
 43
0.00025
 10
218.9521731903
 20
385.7727693652
 10
215.5568634239
 20
383.5554922972
 10
219.4877598196
 20
384.5517350048
 10
218.9521731903
 20
385.7727693652
  0
LINE
  5
30
330
2B
100
AcDbEntity
  8
Default
  6
Continuous
 62
     7
 48
25.4
100
AcDbLine
 10
255.1632912956
 20
400.9282001344
 30
0.0
 11
327.0038710057
 21
400.9282001344
 31
0.0
  0
TEXT
  5
32
330
2B
100
AcDbEntity
  8
Default
  6
Continuous
 62
     7
 48
25.4
100
AcDbText
 10
255.1632912956
 20
401.9282001344
 30
0.0
 40
4.0
  1
SERRATION PITCH 1.5X60
  7
SEACAD_arial_ttf
 11
255.1632912956
 21
405.9282001344
 31
0.0
100
AcDbText
 73
     3
  0
TEXT
  5
33
330
2B
100
AcDbEntity
  8
Default
  6
Continuous
 62
     7
 48
25.4
100
AcDbText
 10
325.3372043391
 20
401.9282001344
 30
0.0
 40
4.0
  1
°
  7
SEACAD_arial_ttf
 11
325.3372043391
 21
405.9282001344
 31
0.0
100
AcDbText
 73
     3
  0
ENDBLK
  5
35
330
2B
100
AcDbEntity
  8
0
100
AcDbBlockEnd
  0
BLOCK
  5
3D
330
36
100
AcDbEntity
  8
0
100
AcDbBlockBegin
  2
SEANNOT_GROUP1
 70
     0
 71
     0
 10
0.0
 20
0.0
 30
0.0
  3
SEANNOT_GROUP1
  1

  0
LWPOLYLINE
  5
38
330
36
100
AcDbEntity
  8
Default
  6
Continuous
 62
     7
 48
25.4
100
AcDbPolyline
 90
        2
 70
     0
 43
0.0
 10
167.2747769557
 20
364.8588474328
 10
159.8785464243
 20
326.1841732662
  0
HATCH
  5
39
330
36
100
AcDbEntity
  8
Default
  6
Continuous
 62
     7
 48
25.4
100
AcDbHatch
 10
0.0
 20
0.0
 30
0.0
210
0.0
220
0.0
230
1.0
  2
SOLID
 70
     1
 71
     0
 91
        1
 92
        1
 93
        3
 72
     1
 10
159.9750988616701
 20
330.2381988745472
 11
159.8785464243265
 21
326.1841732661641
 72
     1
 10
159.8785464243265
 20
326.1841732661641
 11
161.2846989272352
 21
329.9877480511718
 72
     1
 10
161.2846989272352
 20
329.9877480511718
 11
159.9750988616701
 21
330.2381988745472
 97
        0
 75
     0
 76
     1
 98
        0
  0
LWPOLYLINE
  5
3A
330
36
100
AcDbEntity
  8
Default
  6
Continuous
 62
     7
 48
25.4
370
    20
100
AcDbPolyline
 90
        4
 70
     1
 43
0.00025
 10
159.9750988617
 20
330.2381988745
 10
159.8785464243
 20
326.1841732662
 10
161.2846989272
 20
329.9877480512
 10
159.9750988617
 20
330.2381988745
  0
LINE
  5
3B
330
36
100
AcDbEntity
  8
Default
  6
Continuous
 62
     7
 48
25.4
100
AcDbLine
 10
167.2747769557
 20
364.8588474328
 30
0.0
 11
206.1443421731
 21
364.8588474328
 31
0.0
  0
TEXT
  5
3C
330
36
100
AcDbEntity
  8
Default
  6
Continuous
 62
     7
 48
25.4
100
AcDbText
 10
167.2747769557
 20
365.8588474328
 30
0.0
 40
4.0
  1
MAX M130X2.0
  7
SEACAD_arial_ttf
 11
167.2747769557
 21
369.8588474328
 31
0.0
100
AcDbText
 73
     3
  0
ENDBLK
  5
3E
330
36
100
AcDbEntity
  8
0
100
AcDbBlockEnd
  0
BLOCK
  5
47
330
3F
100
AcDbEntity
  8
0
100
AcDbBlockBegin
  2
SEANNOT_GROUP2
 70
     0
 71
     0
 10
0.0
 20
0.0
 30
0.0
  3
SEANNOT_GROUP2
  1

  0
LWPOLYLINE
  5
41
330
3F
100
AcDbEntity
  8
Default
  6
Continuous
 62
     7
 48
25.4
100
AcDbPolyline
 90
        2
 70
     0
 43
0.0
 10
112.6405318523
 20
206.2820658644
 10
135.12200492
 20
229.6603686222
  0
HATCH
  5
42
330
3F
100
AcDbEntity
  8
Default
  6
Continuous
 62
     7
 48
25.4
100
AcDbHatch
 10
0.0
 20
0.0
 30
0.0
210
0.0
220
0.0
230
1.0
  2
SOLID
 70
     1
 71
     0
 91
        1
 92
        1
 93
        3
 72
     1
 10
132.8299516580708
 20
226.3150827075115
 11
135.122004920006
 21
229.6603686222033
 72
     1
 10
135.122004920006
 20
229.6603686222033
 11
131.8688888350322
 21
227.239277598663
 72
     1
 10
131.8688888350322
 20
227.239277598663
 11
132.8299516580708
 21
226.3150827075115
 97
        0
 75
     0
 76
     1
 98
        0
  0
LWPOLYLINE
  5
43
330
3F
100
AcDbEntity
  8
Default
  6
Continuous
 62
     7
 48
25.4
370
    20
100
AcDbPolyline
 90
        4
 70
     1
 43
0.00025
 10
132.8299516581
 20
226.3150827075
 10
135.12200492
 20
229.6603686222
 10
131.868888835
 20
227.2392775987
 10
132.8299516581
 20
226.3150827075
  0
LINE
  5
44
330
3F
100
AcDbEntity
  8
Default
  6
Continuous
 62
     7
 48
25.4
100
AcDbLine
 10
112.6405318523
 20
206.2820658644
 30
0.0
 11
96.8144448957
 21
206.2820658644
 31
0.0
  0
LINE
  5
45
330
3F
100
AcDbEntity
  8
Default
  6
Continuous
 62
     7
 48
25.4
100
AcDbLine
 10
138.8867707985
 20
229.6603686222
 30
0.0
 11
133.12200492
 21
229.6603686222
 31
0.0
  0
TEXT
  5
46
330
3F
100
AcDbEntity
  8
Default
  6
Continuous
 62
     7
 48
25.4
100
AcDbText
 10
96.8144448957
 20
207.2820658644
 30
0.0
 40
4.0
  1
6-M20
  7
SEACAD_arial_ttf
 11
96.8144448957
 21
211.2820658644
 31
0.0
100
AcDbText
 73
     3
  0
ENDBLK
  5
48
330
3F
100
AcDbEntity
  8
0
100
AcDbBlockEnd
  0
BLOCK
  5
52
330
49
100
AcDbEntity
  8
0
100
AcDbBlockBegin
  2
SEANNOT_GROUP3
 70
     0
 71
     0
 10
0.0
 20
0.0
 30
0.0
  3
SEANNOT_GROUP3
  1

  0
LWPOLYLINE
  5
4B
330
49
100
AcDbEntity
  8
Default
  6
Continuous
 62
     7
 48
25.4
100
AcDbPolyline
 90
        2
 70
     0
 43
0.0
 10
238.6441185066
 20
257.9256089884
 10
238.6441185066
 20
234.9103686222
  0
HATCH
  5
4C
330
49
100
AcDbEntity
  8
Default
  6
Continuous
 62
     7
 48
25.4
100
AcDbHatch
 10
0.0
 20
0.0
 30
0.0
210
0.0
220
0.0
230
1.0
  2
SOLID
 70
     1
 71
     0
 91
        1
 92
        1
 93
        3
 72
     1
 10
237.9774518083177
 20
238.9103688121931
 11
238.6441185066493
 21
234.9103686222033
 72
     1
 10
238.6441185066493
 20
234.9103686222033
 11
239.3107852049809
 21
238.9103688121931
 72
     1
 10
239.3107852049809
 20
238.9103688121931
 11
237.9774518083177
 21
238.9103688121931
 97
        0
 75
     0
 76
     1
 98
        0
  0
LWPOLYLINE
  5
4D
330
49
100
AcDbEntity
  8
Default
  6
Continuous
 62
     7
 48
25.4
370
    20
100
AcDbPolyline
 90
        4
 70
     1
 43
0.00025
 10
237.9774518083
 20
238.9103688122
 10
238.6441185066
 20
234.9103686222
 10
239.310785205
 20
238.9103688122
 10
237.9774518083
 20
238.9103688122
  0
LINE
  5
4E
330
49
100
AcDbEntity
  8
Default
  6
Continuous
 62
     7
 48
25.4
100
AcDbLine
 10
229.3170962636
 20
234.9103686222
 30
0.0
 11
240.6441185066
 21
234.9103686222
 31
0.0
  0
TEXT
  5
50
330
49
100
AcDbEntity
  8
Default
  6
Continuous
 62
     7
 48
25.4
100
AcDbText
 10
240.0441185066
 20
255.9256089884
 30
0.0
 40
4.0
  1
O
  7
SEACAD_semeca1_ttf
 11
240.0441185066
 21
259.9256089884
 31
0.0
100
AcDbText
 73
     3
  0
TEXT
  5
51
330
49
100
AcDbEntity
  8
Default
  6
Continuous
 62
     7
 48
25.4
100
AcDbText
 10
244.6055220154
 20
255.9256089884
 30
0.0
 40
4.0
  1
235
  7
SEACAD_arial_ttf
 11
244.6055220154
 21
259.9256089884
 31
0.0
100
AcDbText
 73
     3
  0
ENDBLK
  5
53
330
49
100
AcDbEntity
  8
0
100
AcDbBlockEnd
  0
BLOCK
  5
5B
330
54
100
AcDbEntity
  8
0
100
AcDbBlockBegin
  2
SEANNOT_GROUP4
 70
     0
 71
     0
 10
0.0
 20
0.0
 30
0.0
  3
SEANNOT_GROUP4
  1

  0
LWPOLYLINE
  5
56
330
54
100
AcDbEntity
  8
Default
  6
Continuous
 62
     7
 48
25.4
100
AcDbPolyline
 90
        2
 70
     0
 43
0.0
 10
135.8813241174
 20
374.7499353133
 10
147.540462072
 20
355.0457041385
  0
HATCH
  5
57
330
54
100
AcDbEntity
  8
Default
  6
Continuous
 62
     7
 48
25.4
100
AcDbHatch
 10
0.0
 20
0.0
 30
0.0
210
0.0
220
0.0
230
1.0
  2
SOLID
 70
     1
 71
     0
 91
        1
 92
        1
 93
        3
 72
     1
 10
144.9297579764135
 20
358.1487139889848
 11
147.5404620719561
 21
355.045704138517
 72
     1
 10
147.5404620719561
 20
355.045704138517
 11
146.0772586898378
 21
358.8276985685949
 72
     1
 10
146.0772586898378
 20
358.8276985685949
 11
144.9297579764135
 21
358.1487139889848
 97
        0
 75
     0
 76
     1
 98
        0
  0
LWPOLYLINE
  5
58
330
54
100
AcDbEntity
  8
Default
  6
Continuous
 62
     7
 48
25.4
370
    20
100
AcDbPolyline
 90
        4
 70
     1
 43
0.00025
 10
144.9297579764
 20
358.148713989
 10
147.540462072
 20
355.0457041385
 10
146.0772586898
 20
358.8276985686
 10
144.9297579764
 20
358.148713989
  0
LINE
  5
59
330
54
100
AcDbEntity
  8
Default
  6
Continuous
 62
     7
 48
25.4
100
AcDbLine
 10
135.8813241174
 20
374.7499353133
 30
0.0
 11
120.0552371609
 21
374.7499353133
 31
0.0
  0
TEXT
  5
5A
330
54
100
AcDbEntity
  8
Default
  6
Continuous
 62
     7
 48
25.4
100
AcDbText
 10
120.0552371609
 20
375.7499353133
 30
0.0
 40
4.0
  1
3-M10
  7
SEACAD_arial_ttf
 11
120.0552371609
 21
379.7499353133
 31
0.0
100
AcDbText
 73
     3
  0
ENDBLK
  5
5C
330
54
100
AcDbEntity
  8
0
100
AcDbBlockEnd
  0
BLOCK
  5
137
330
5D
100
AcDbEntity
  8
0
100
AcDbBlockBegin
  2
SE
 70
     0
 71
     0
 10
0.0
 20
0.0
 30
0.0
  3
SE
  1

  0
LINE
  5
61
330
5D
100
AcDbEntity
  8
DV1_Default
  6
CENTER2
 62
     7
 48
25.4
100
AcDbLine
 10
118.0124546578
 20
293.6603686222
 30
0.0
 11
240.6120648361
 21
293.6603686222
 31
0.0
  0
LINE
  5
62
330
5D
100
AcDbEntity
  8
DV1_Default
  6
Continuous
 62
     7
 48
25.4
100
AcDbLine
 10
213.3867707985
 20
388.9103686222
 30
0.0
 11
147.8867707985
 21
388.9103686222
 31
0.0
  0
LINE
  5
63
330
5D
100
AcDbEntity
  8
DV1_Default
  6
Continuous
 62
     7
 48
25.4
100
AcDbLine
 10
213.3867707985
 20
333.8353686222
 30
0.0
 11
213.3867707985
 21
293.6603686222
 31
0.0
  0
LINE
  5
64
330
5D
100
AcDbEntity
  8
DV1_Default
  6
Continuous
 62
     7
 48
25.4
100
AcDbLine
 10
213.3867707985
 20
293.6603686222
 30
0.0
 11
213.3867707985
 21
199.4103686222
 31
0.0
  0
LINE
  5
65
330
5D
100
AcDbEntity
  8
DV1_Default
  6
Continuous
 62
     7
 48
25.4
100
AcDbLine
 10
146.8867707985
 20
368.6603686222
 30
0.0
 11
146.8867707985
 21
387.9103686222
 31
0.0
  0
LINE
  5
66
330
5D
100
AcDbEntity
  8
DV1_Default
  6
Continuous
 62
     7
 48
25.4
100
AcDbLine
 10
149.8867707985
 20
240.1603686222
 30
0.0
 11
149.8867707985
 21
293.6603686222
 31
0.0
  0
LINE
  5
67
330
5D
100
AcDbEntity
  8
DV1_Default
  6
CENTER2
 62
     7
 48
25.4
100
AcDbLine
 10
229.3170962636
 20
234.9103686222
 30
0.0
 11
116.3300962646
 21
234.9103686222
 31
0.0
  0
LINE
  5
68
330
5D
100
AcDbEntity
  8
DV1_Default
  6
Continuous
 62
     7
 48
25.4
100
AcDbLine
 10
176.907169383
 20
293.6603686222
 30
0.0
 11
176.907169383
 21
260.0362951153
 31
0.0
  0
LINE
  5
69
330
5D
100
AcDbEntity
  8
DV1_Default
  6
Continuous
 62
     7
 48
25.4
100
AcDbLine
 10
176.907169383
 20
260.0362951153
 30
0.0
 11
173.907169383
 21
260.0362951153
 31
0.0
  0
LINE
  5
6A
330
5D
100
AcDbEntity
  8
DV1_Default
  6
Continuous
 62
     7
 48
25.4
100
AcDbLine
 10
173.907169383
 20
260.0362951153
 30
0.0
 11
173.907169383
 21
257.5362951153
 31
0.0
  0
LINE
  5
6B
330
5D
100
AcDbEntity
  8
DV1_Default
  6
Continuous
 62
     7
 48
25.4
100
AcDbLine
 10
173.907169383
 20
257.5362951153
 30
0.0
 11
169.907169383
 21
257.5362951153
 31
0.0
  0
LINE
  5
6C
330
5D
100
AcDbEntity
  8
DV1_Default
  6
Continuous
 62
     7
 48
25.4
100
AcDbLine
 10
169.907169383
 20
258.9103686222
 30
0.0
 11
169.907169383
 21
257.5362951153
 31
0.0
  0
LINE
  5
6D
330
5D
100
AcDbEntity
  8
DV1_Default
  6
Continuous
 62
     7
 48
25.4
100
AcDbLine
 10
155.3867707985
 20
261.1603686222
 30
0.0
 11
174.8867707985
 21
261.1603686222
 31
0.0
  0
LINE
  5
6E
330
5D
100
AcDbEntity
  8
DV1_Default
  6
Continuous
 62
     7
 48
25.4
100
AcDbLine
 10
174.907169383
 20
261.1603686222
 30
0.0
 11
174.907169383
 21
262.1603686222
 31
0.0
  0
LINE
  5
6F
330
5D
100
AcDbEntity
  8
DV1_Default
  6
Continuous
 62
     7
 48
25.4
100
AcDbLine
 10
174.907169383
 20
261.1603686222
 30
0.0
 11
174.907169383
 21
293.6603686222
 31
0.0
  0
LINE
  5
70
330
5D
100
AcDbEntity
  8
DV1_Default
  6
Continuous
 62
     7
 48
25.4
100
AcDbLine
 10
174.907169383
 20
261.1603686222
 30
0.0
 11
171.907169383
 21
261.1603686222
 31
0.0
  0
LINE
  5
71
330
5D
100
AcDbEntity
  8
DV1_Default
  6
Continuous
 62
     7
 48
25.4
100
AcDbLine
 10
171.907169383
 20
261.1603686222
 30
0.0
 11
171.907169383
 21
293.6603686222
 31
0.0
  0
LINE
  5
72
330
5D
100
AcDbEntity
  8
DV1_Default
  6
Continuous
 62
     7
 48
25.4
100
AcDbLine
 10
176.907169383
 20
260.0362951153
 30
0.0
 11
177.407169383
 21
260.0362951153
 31
0.0
  0
LINE
  5
73
330
5D
100
AcDbEntity
  8
DV1_Default
  6
Continuous
 62
     7
 48
25.4
100
AcDbLine
 10
177.407169383
 20
260.0362951153
 30
0.0
 11
177.407169383
 21
263.2853686222
 31
0.0
  0
LINE
  5
74
330
5D
100
AcDbEntity
  8
DV1_Default
  6
Continuous
 62
     7
 48
25.4
100
AcDbLine
 10
213.3867707985
 20
293.6603686222
 30
0.0
 11
213.3867707985
 21
253.4853686222
 31
0.0
  0
LINE
  5
75
330
5D
100
AcDbEntity
  8
DV1_Default
  6
Continuous
 62
     7
 48
25.4
100
AcDbLine
 10
213.3867707985
 20
253.4853686222
 30
0.0
 11
208.3867707985
 21
253.4853686222
 31
0.0
  0
LINE
  5
76
330
5D
100
AcDbEntity
  8
DV1_Default
  6
Continuous
 62
     7
 48
25.4
100
AcDbLine
 10
208.3867707985
 20
262.7853686222
 30
0.0
 11
208.3867707985
 21
258.9853686222
 31
0.0
  0
LINE
  5
77
330
5D
100
AcDbEntity
  8
DV1_Default
  6
Continuous
 62
     7
 48
25.4
100
AcDbLine
 10
177.407169383
 20
263.2853686222
 30
0.0
 11
178.407169383
 21
264.2853686222
 31
0.0
  0
LINE
  5
78
330
5D
100
AcDbEntity
  8
DV1_Default
  6
Continuous
 62
     7
 48
25.4
100
AcDbLine
 10
177.407169383
 20
263.2853686222
 30
0.0
 11
177.407169383
 21
293.6603686222
 31
0.0
  0
LINE
  5
79
330
5D
100
AcDbEntity
  8
DV1_Default
  6
Continuous
 62
     7
 48
25.4
100
AcDbLine
 10
178.407169383
 20
264.2853686222
 30
0.0
 11
178.407169383
 21
293.6603686222
 31
0.0
  0
LINE
  5
7A
330
5D
100
AcDbEntity
  8
DV1_Default
  6
Continuous
 62
     7
 48
25.4
100
AcDbLine
 10
213.3867707985
 20
253.4853686222
 30
0.0
 11
213.3867707985
 21
254.4853686222
 31
0.0
  0
LINE
  5
7B
330
5D
100
AcDbEntity
  8
DV1_Default
  6
Continuous
 62
     7
 48
25.4
100
AcDbLine
 10
213.3867707985
 20
254.4853686222
 30
0.0
 11
210.3867707985
 21
254.4853686222
 31
0.0
  0
LINE
  5
7C
330
5D
100
AcDbEntity
  8
DV1_Default
  6
Continuous
 62
     7
 48
25.4
100
AcDbLine
 10
210.3867707985
 20
254.4853686222
 30
0.0
 11
210.3867707985
 21
260.4853686222
 31
0.0
  0
LINE
  5
7D
330
5D
100
AcDbEntity
  8
DV1_Default
  6
Continuous
 62
     7
 48
25.4
100
AcDbLine
 10
210.3867707985
 20
260.4853686222
 30
0.0
 11
213.3867707985
 21
260.4853686222
 31
0.0
  0
LINE
  5
7E
330
5D
100
AcDbEntity
  8
DV1_Default
  6
CENTER2
 62
     7
 48
25.4
100
AcDbLine
 10
215.9650249704
 20
257.4853686222
 30
0.0
 11
201.1328933472
 21
257.4853686222
 31
0.0
  0
LINE
  5
7F
330
5D
100
AcDbEntity
  8
DV1_Default
  6
Continuous
 62
     7
 48
25.4
100
AcDbLine
 10
213.3867707985
 20
242.9103686222
 30
0.0
 11
199.8867707985
 21
242.9103686222
 31
0.0
  0
LINE
  5
80
330
5D
100
AcDbEntity
  8
DV1_Default
  6
Continuous
 62
     7
 48
25.4
100
AcDbLine
 10
199.8867707985
 20
242.9103686222
 30
0.0
 11
199.8867707985
 21
226.9103686222
 31
0.0
  0
LINE
  5
81
330
5D
100
AcDbEntity
  8
DV1_Default
  6
Continuous
 62
     7
 48
25.4
100
AcDbLine
 10
199.8867707985
 20
226.9103686222
 30
0.0
 11
213.3867707985
 21
226.9103686222
 31
0.0
  0
LINE
  5
82
330
5D
100
AcDbEntity
  8
DV1_Default
  6
Continuous
 62
     7
 48
25.4
100
AcDbLine
 10
199.8867707985
 20
229.6603686222
 30
0.0
 11
138.8867707985
 21
229.6603686222
 31
0.0
  0
LINE
  5
83
330
5D
100
AcDbEntity
  8
DV1_Default
  6
Continuous
 62
     7
 48
25.4
100
AcDbLine
 10
199.8867707985
 20
240.757148319
 30
0.0
 11
149.8867707985
 21
240.757148319
 31
0.0
  0
LINE
  5
84
330
5D
100
AcDbEntity
  8
DV1_Default
  6
Continuous
 62
     7
 48
25.4
100
AcDbLine
 10
149.8867707985
 20
240.6603686222
 30
0.0
 11
149.8867707985
 21
243.1603686222
 31
0.0
  0
LINE
  5
85
330
5D
100
AcDbEntity
  8
DV1_Default
  6
Continuous
 62
     7
 48
25.4
100
AcDbLine
 10
199.8867707985
 20
242.4103686222
 30
0.0
 11
209.1367707985
 21
242.4103686222
 31
0.0
  0
LINE
  5
86
330
5D
100
AcDbEntity
  8
DV1_Default
  6
Continuous
 62
     7
 48
25.4
100
AcDbLine
 10
209.8867707985
 20
241.6603686222
 30
0.0
 11
209.8867707985
 21
228.1603686222
 31
0.0
  0
LINE
  5
87
330
5D
100
AcDbEntity
  8
DV1_Default
  6
Continuous
 62
     7
 48
25.4
100
AcDbLine
 10
209.1367707985
 20
227.4103686222
 30
0.0
 11
199.8867707985
 21
227.4103686222
 31
0.0
  0
LINE
  5
88
330
5D
100
AcDbEntity
  8
DV1_Default
  6
Continuous
 62
     7
 48
25.4
100
AcDbLine
 10
162.4698093422
 20
240.1603686222
 30
0.0
 11
162.4698093422
 21
229.6603686222
 31
0.0
  0
LINE
  5
89
330
5D
100
AcDbEntity
  8
DV1_Default
  6
Continuous
 62
     7
 48
25.4
100
AcDbLine
 10
162.4698093422
 20
239.6603686222
 30
0.0
 11
138.8867707985
 21
239.6603686222
 31
0.0
  0
LINE
  5
8A
330
5D
100
AcDbEntity
  8
DV1_Default
  6
Continuous
 62
     7
 48
25.4
100
AcDbLine
 10
162.4698093422
 20
230.2853502857
 30
0.0
 11
138.8867707985
 21
230.2853502857
 31
0.0
  0
LINE
  5
8B
330
5D
100
AcDbEntity
  8
DV1_Default
  6
Continuous
 62
     7
 48
25.4
100
AcDbLine
 10
146.8867707985
 20
218.6603686222
 30
0.0
 11
146.8867707985
 21
199.4103686222
 31
0.0
  0
LINE
  5
8C
330
5D
100
AcDbEntity
  8
DV1_Default
  6
Continuous
 62
     7
 48
25.4
100
AcDbLine
 10
149.8867707985
 20
218.6603686222
 30
0.0
 11
149.8867707985
 21
229.6603686222
 31
0.0
  0
LINE
  5
8D
330
5D
100
AcDbEntity
  8
DV1_Default
  6
Continuous
 62
     7
 48
25.4
100
AcDbLine
 10
176.907169383
 20
293.6603686222
 30
0.0
 11
176.907169383
 21
327.2844421291
 31
0.0
  0
LINE
  5
8E
330
5D
100
AcDbEntity
  8
DV1_Default
  6
Continuous
 62
     7
 48
25.4
100
AcDbLine
 10
176.907169383
 20
327.2844421291
 30
0.0
 11
173.907169383
 21
327.2844421291
 31
0.0
  0
LINE
  5
8F
330
5D
100
AcDbEntity
  8
DV1_Default
  6
Continuous
 62
     7
 48
25.4
100
AcDbLine
 10
173.907169383
 20
327.2844421291
 30
0.0
 11
173.907169383
 21
329.7844421291
 31
0.0
  0
LINE
  5
90
330
5D
100
AcDbEntity
  8
DV1_Default
  6
Continuous
 62
     7
 48
25.4
100
AcDbLine
 10
173.907169383
 20
329.7844421291
 30
0.0
 11
169.907169383
 21
329.7844421291
 31
0.0
  0
LINE
  5
91
330
5D
100
AcDbEntity
  8
DV1_Default
  6
Continuous
 62
     7
 48
25.4
100
AcDbLine
 10
169.907169383
 20
328.4103686222
 30
0.0
 11
169.907169383
 21
329.7844421291
 31
0.0
  0
LINE
  5
92
330
5D
100
AcDbEntity
  8
DV1_Default
  6
Continuous
 62
     7
 48
25.4
100
AcDbLine
 10
174.907169383
 20
326.1603686222
 30
0.0
 11
174.907169383
 21
325.1603686222
 31
0.0
  0
LINE
  5
93
330
5D
100
AcDbEntity
  8
DV1_Default
  6
Continuous
 62
     7
 48
25.4
100
AcDbLine
 10
174.907169383
 20
326.1603686222
 30
0.0
 11
174.907169383
 21
293.6603686222
 31
0.0
  0
LINE
  5
94
330
5D
100
AcDbEntity
  8
DV1_Default
  6
Continuous
 62
     7
 48
25.4
100
AcDbLine
 10
171.907169383
 20
326.1603686222
 30
0.0
 11
171.907169383
 21
293.6603686222
 31
0.0
  0
LINE
  5
95
330
5D
100
AcDbEntity
  8
DV1_Default
  6
Continuous
 62
     7
 48
25.4
100
AcDbLine
 10
176.907169383
 20
327.2844421291
 30
0.0
 11
177.407169383
 21
327.2844421291
 31
0.0
  0
LINE
  5
96
330
5D
100
AcDbEntity
  8
DV1_Default
  6
Continuous
 62
     7
 48
25.4
100
AcDbLine
 10
177.407169383
 20
327.2844421291
 30
0.0
 11
177.407169383
 21
324.0353686222
 31
0.0
  0
LINE
  5
97
330
5D
100
AcDbEntity
  8
DV1_Default
  6
Continuous
 62
     7
 48
25.4
100
AcDbLine
 10
177.407169383
 20
324.0353686222
 30
0.0
 11
178.407169383
 21
323.0353686222
 31
0.0
  0
LINE
  5
98
330
5D
100
AcDbEntity
  8
DV1_Default
  6
Continuous
 62
     7
 48
25.4
100
AcDbLine
 10
177.407169383
 20
324.0353686222
 30
0.0
 11
177.407169383
 21
293.6603686222
 31
0.0
  0
LINE
  5
99
330
5D
100
AcDbEntity
  8
DV1_Default
  6
Continuous
 62
     7
 48
25.4
100
AcDbLine
 10
178.407169383
 20
323.0353686222
 30
0.0
 11
178.407169383
 21
293.6603686222
 31
0.0
  0
LINE
  5
9A
330
5D
100
AcDbEntity
  8
DV1_Default
  6
Continuous
 62
     7
 48
25.4
100
AcDbLine
 10
213.3867707985
 20
333.8353686222
 30
0.0
 11
213.3867707985
 21
332.8353686222
 31
0.0
  0
LINE
  5
9B
330
5D
100
AcDbEntity
  8
DV1_Default
  6
Continuous
 62
     7
 48
25.4
100
AcDbLine
 10
149.8867707985
 20
293.6603686222
 30
0.0
 11
149.8867707985
 21
350.4103686222
 31
0.0
  0
LINE
  5
9C
330
5D
100
AcDbEntity
  8
DV1_Default
  6
Continuous
 62
     7
 48
25.4
100
AcDbLine
 10
210.3867707985
 20
260.4853686222
 30
0.0
 11
210.3867707985
 21
259.9853686222
 31
0.0
  0
LINE
  5
9D
330
5D
100
AcDbEntity
  8
DV1_Default
  6
Continuous
 62
     7
 48
25.4
100
AcDbLine
 10
210.3867707985
 20
259.9853686222
 30
0.0
 11
212.6367707985
 21
259.9853686222
 31
0.0
  0
LINE
  5
9E
330
5D
100
AcDbEntity
  8
DV1_Default
  6
Continuous
 62
     7
 48
25.4
100
AcDbLine
 10
212.8867707985
 20
259.7353686222
 30
0.0
 11
212.8867707985
 21
255.2353686222
 31
0.0
  0
LINE
  5
9F
330
5D
100
AcDbEntity
  8
DV1_Default
  6
Continuous
 62
     7
 48
25.4
100
AcDbLine
 10
212.6367707985
 20
254.9853686222
 30
0.0
 11
210.3867707985
 21
254.9853686222
 31
0.0
  0
LINE
  5
A0
330
5D
100
AcDbEntity
  8
DV1_Default
  6
Continuous
 62
     7
 48
25.4
100
AcDbLine
 10
212.8867707985
 20
259.7353686222
 30
0.0
 11
212.6367707985
 21
259.9853686222
 31
0.0
  0
LINE
  5
A1
330
5D
100
AcDbEntity
  8
DV1_Default
  6
Continuous
 62
     7
 48
25.4
100
AcDbLine
 10
212.6367707985
 20
254.9853686222
 30
0.0
 11
212.8867707985
 21
255.2353686222
 31
0.0
  0
LINE
  5
A2
330
5D
100
AcDbEntity
  8
DV1_Default
  6
Continuous
 62
     7
 48
25.4
100
AcDbLine
 10
212.6367707985
 20
259.9853686222
 30
0.0
 11
212.6367707985
 21
254.9853686222
 31
0.0
  0
LINE
  5
A3
330
5D
100
AcDbEntity
  8
DV1_Default
  6
Continuous
 62
     7
 48
25.4
100
AcDbLine
 10
210.3867707985
 20
260.4853686222
 30
0.0
 11
210.3867707985
 21
257.4853686222
 31
0.0
  0
LINE
  5
A4
330
5D
100
AcDbEntity
  8
DV1_Default
  6
Continuous
 62
     7
 48
25.4
100
AcDbLine
 10
210.3867707985
 20
257.4853686222
 30
0.0
 11
210.3867707985
 21
258.9853686222
 31
0.0
  0
LINE
  5
A5
330
5D
100
AcDbEntity
  8
DV1_Default
  6
Continuous
 62
     7
 48
25.4
100
AcDbLine
 10
210.3867707985
 20
258.9853686222
 30
0.0
 11
202.8867707985
 21
258.9853686222
 31
0.0
  0
LINE
  5
A6
330
5D
100
AcDbEntity
  8
DV1_Default
  6
Continuous
 62
     7
 48
25.4
100
AcDbLine
 10
202.8867707985
 20
258.9853686222
 30
0.0
 11
202.8867707985
 21
255.9853686222
 31
0.0
  0
LINE
  5
A7
330
5D
100
AcDbEntity
  8
DV1_Default
  6
Continuous
 62
     7
 48
25.4
100
AcDbLine
 10
202.8867707985
 20
255.9853686222
 30
0.0
 11
210.3867707985
 21
255.9853686222
 31
0.0
  0
LINE
  5
A8
330
5D
100
AcDbEntity
  8
DV1_Default
  6
Continuous
 62
     7
 48
25.4
100
AcDbLine
 10
210.3867707985
 20
258.7767066976
 30
0.0
 11
202.8867707985
 21
258.7767066976
 31
0.0
  0
LINE
  5
A9
330
5D
100
AcDbEntity
  8
DV1_Default
  6
Continuous
 62
     7
 48
25.4
100
AcDbLine
 10
210.3867707985
 20
256.1716199256
 30
0.0
 11
202.8867707985
 21
256.1716199256
 31
0.0
  0
LINE
  5
AA
330
5D
100
AcDbEntity
  8
DV1_Default
  6
Continuous
 62
     7
 48
25.4
100
AcDbLine
 10
216.3867707985
 20
389.9103686222
 30
0.0
 11
248.3867707985
 21
389.9103686222
 31
0.0
  0
LINE
  5
AB
330
5D
100
AcDbEntity
  8
DV1_Default
  6
Continuous
 62
     7
 48
25.4
100
AcDbLine
 10
213.3867707985
 20
388.9103686222
 30
0.0
 11
215.3867707985
 21
388.9103686222
 31
0.0
  0
LINE
  5
AC
330
5D
100
AcDbEntity
  8
DV1_Default
  6
CENTER2
 62
     7
 48
25.4
100
AcDbLine
 10
204.1897025894
 20
349.9103686222
 30
0.0
 11
248.3867707985
 21
349.9103686222
 31
0.0
  0
LINE
  5
AD
330
5D
100
AcDbEntity
  8
DV1_Default
  6
Continuous
 62
     7
 48
25.4
100
AcDbLine
 10
219.3867707985
 20
307.4103686222
 30
0.0
 11
219.3867707985
 21
344.9103686222
 31
0.0
  0
LINE
  5
AE
330
5D
100
AcDbEntity
  8
DV1_Default
  6
Continuous
 62
     7
 48
25.4
100
AcDbLine
 10
215.3867707985
 20
307.9103686222
 30
0.0
 11
215.3867707985
 21
333.8353686222
 31
0.0
  0
LINE
  5
AF
330
5D
100
AcDbEntity
  8
DV1_Default
  6
Continuous
 62
     7
 48
25.4
100
AcDbLine
 10
215.3867707985
 20
388.9103686222
 30
0.0
 11
215.7403241891
 21
388.5568152316
 31
0.0
  0
LINE
  5
B0
330
5D
100
AcDbEntity
  8
DV1_Default
  6
Continuous
 62
     7
 48
25.4
100
AcDbLine
 10
216.0938775797
 20
334.5424754034
 30
0.0
 11
216.0938775797
 21
388.203261841
 31
0.0
  0
LINE
  5
B1
330
5D
100
AcDbEntity
  8
DV1_Default
  6
Continuous
 62
     7
 48
25.4
100
AcDbLine
 10
215.3867707985
 20
388.9103686222
 30
0.0
 11
216.0938775797
 21
388.203261841
 31
0.0
  0
LINE
  5
B2
330
5D
100
AcDbEntity
  8
DV1_Default
  6
Continuous
 62
     7
 48
25.4
100
AcDbLine
 10
215.3867707985
 20
388.9103686222
 30
0.0
 11
215.3867707985
 21
333.8353686222
 31
0.0
  0
LINE
  5
B3
330
5D
100
AcDbEntity
  8
DV1_Default
  6
Continuous
 62
     7
 48
25.4
100
AcDbLine
 10
215.3867707985
 20
388.9103686222
 30
0.0
 11
216.3867707985
 21
389.9103686222
 31
0.0
  0
LINE
  5
B4
330
5D
100
AcDbEntity
  8
DV1_Default
  6
Continuous
 62
     7
 48
25.4
100
AcDbLine
 10
216.0938775797
 20
334.5424754034
 30
0.0
 11
216.0938775797
 21
307.4103686222
 31
0.0
  0
LINE
  5
B5
330
5D
100
AcDbEntity
  8
DV1_Default
  6
Continuous
 62
     7
 48
25.4
100
AcDbLine
 10
216.0938775797
 20
381.7023879566
 30
0.0
 11
218.8438775797
 21
381.7023879566
 31
0.0
  0
LINE
  5
B6
330
5D
100
AcDbEntity
  8
DV1_Default
  6
Continuous
 62
     7
 48
25.4
100
AcDbLine
 10
218.8438775797
 20
381.7023879566
 30
0.0
 11
218.8438775797
 21
337.8237971715
 31
0.0
  0
LINE
  5
B7
330
5D
100
AcDbEntity
  8
DV1_Default
  6
Continuous
 62
     7
 48
25.4
100
AcDbLine
 10
218.8438775797
 20
337.8237971715
 30
0.0
 11
216.0938775797
 21
337.8237971715
 31
0.0
  0
LINE
  5
B8
330
5D
100
AcDbEntity
  8
DV1_Default
  6
Continuous
 62
     7
 48
25.4
100
AcDbLine
 10
248.3867707985
 20
378.9103686222
 30
0.0
 11
230.3867707985
 21
378.9103686222
 31
0.0
  0
LINE
  5
B9
330
5D
100
AcDbEntity
  8
DV1_Default
  6
Continuous
 62
     7
 48
25.4
100
AcDbLine
 10
230.3867707985
 20
378.9103686222
 30
0.0
 11
230.3867707985
 21
363.9103686222
 31
0.0
  0
LINE
  5
BA
330
5D
100
AcDbEntity
  8
DV1_Default
  6
Continuous
 62
     7
 48
25.4
100
AcDbLine
 10
230.3867707985
 20
363.9103686222
 30
0.0
 11
248.3867707985
 21
363.9103686222
 31
0.0
  0
LINE
  5
BB
330
5D
100
AcDbEntity
  8
DV1_Default
  6
Continuous
 62
     7
 48
25.4
100
AcDbLine
 10
230.3867707985
 20
376.4103686222
 30
0.0
 11
219.3867707985
 21
376.4103686222
 31
0.0
  0
LINE
  5
BC
330
5D
100
AcDbEntity
  8
DV1_Default
  6
Continuous
 62
     7
 48
25.4
100
AcDbLine
 10
230.3867707985
 20
366.4103686222
 30
0.0
 11
219.3867707985
 21
366.4103686222
 31
0.0
  0
LINE
  5
BD
330
5D
100
AcDbEntity
  8
DV1_Default
  6
Continuous
 62
     7
 48
25.4
100
AcDbLine
 10
219.3867707985
 20
375.9103686222
 30
0.0
 11
220.3867707985
 21
375.9103686222
 31
0.0
  0
LINE
  5
BE
330
5D
100
AcDbEntity
  8
DV1_Default
  6
Continuous
 62
     7
 48
25.4
100
AcDbLine
 10
220.3867707985
 20
366.9103686222
 30
0.0
 11
219.3867707985
 21
366.9103686222
 31
0.0
  0
LINE
  5
BF
330
5D
100
AcDbEntity
  8
DV1_Default
  6
Continuous
 62
     7
 48
25.4
100
AcDbLine
 10
220.3867707985
 20
375.9103686222
 30
0.0
 11
220.3867707985
 21
366.9103686222
 31
0.0
  0
LINE
  5
C0
330
5D
100
AcDbEntity
  8
DV1_Default
  6
CENTER2
 62
     7
 48
25.4
100
AcDbLine
 10
248.3867707985
 20
371.4103686222
 30
0.0
 11
204.6687376371
 21
371.4103686222
 31
0.0
  0
LINE
  5
C1
330
5D
100
AcDbEntity
  8
DV1_Default
  6
Continuous
 62
     7
 48
25.4
100
AcDbLine
 10
230.3867707985
 20
378.4103686222
 30
0.0
 11
239.8867707985
 21
378.4103686222
 31
0.0
  0
LINE
  5
C2
330
5D
100
AcDbEntity
  8
DV1_Default
  6
Continuous
 62
     7
 48
25.4
100
AcDbLine
 10
240.3867707985
 20
377.9103686222
 30
0.0
 11
240.3867707985
 21
364.9103686222
 31
0.0
  0
LINE
  5
C3
330
5D
100
AcDbEntity
  8
DV1_Default
  6
Continuous
 62
     7
 48
25.4
100
AcDbLine
 10
239.8867707985
 20
364.4103686222
 30
0.0
 11
230.3867707985
 21
364.4103686222
 31
0.0
  0
LINE
  5
C4
330
5D
100
AcDbEntity
  8
DV1_Default
  6
Continuous
 62
     7
 48
25.4
100
AcDbLine
 10
239.8867707985
 20
378.4103686222
 30
0.0
 11
240.3867707985
 21
377.9103686222
 31
0.0
  0
LINE
  5
C5
330
5D
100
AcDbEntity
  8
DV1_Default
  6
Continuous
 62
     7
 48
25.4
100
AcDbLine
 10
239.8867707985
 20
364.4103686222
 30
0.0
 11
240.3867707985
 21
364.9103686222
 31
0.0
  0
LINE
  5
C6
330
5D
100
AcDbEntity
  8
DV1_Default
  6
Continuous
 62
     7
 48
25.4
100
AcDbLine
 10
239.8867707985
 20
378.4103686222
 30
0.0
 11
239.8867707985
 21
364.4103686222
 31
0.0
  0
LINE
  5
C7
330
5D
100
AcDbEntity
  8
DV1_Default
  6
Continuous
 62
     7
 48
25.4
100
AcDbLine
 10
219.3867707985
 20
376.4103686222
 30
0.0
 11
219.3867707985
 21
389.9103686222
 31
0.0
  0
LINE
  5
C8
330
5D
100
AcDbEntity
  8
DV1_Default
  6
Continuous
 62
     7
 48
25.4
100
AcDbLine
 10
219.3867707985
 20
376.9103686222
 30
0.0
 11
230.3867707985
 21
376.9103686222
 31
0.0
  0
LINE
  5
C9
330
5D
100
AcDbEntity
  8
DV1_Default
  6
Continuous
 62
     7
 48
25.4
100
AcDbLine
 10
219.3867707985
 20
375.9103686222
 30
0.0
 11
218.8438775797
 21
375.9103686222
 31
0.0
  0
LINE
  5
CA
330
5D
100
AcDbEntity
  8
DV1_Default
  6
Continuous
 62
     7
 48
25.4
100
AcDbLine
 10
219.3867707985
 20
366.9103686222
 30
0.0
 11
218.8438775797
 21
366.9103686222
 31
0.0
  0
LINE
  5
CB
330
5D
100
AcDbEntity
  8
DV1_Default
  6
Continuous
 62
     7
 48
25.4
100
AcDbLine
 10
219.3867707985
 20
365.9103686222
 30
0.0
 11
230.3867707985
 21
365.9103686222
 31
0.0
  0
LINE
  5
CC
330
5D
100
AcDbEntity
  8
DV1_Default
  6
Continuous
 62
     7
 48
25.4
100
AcDbLine
 10
248.3867707985
 20
342.4103686222
 30
0.0
 11
230.3867707985
 21
342.4103686222
 31
0.0
  0
LINE
  5
CD
330
5D
100
AcDbEntity
  8
DV1_Default
  6
Continuous
 62
     7
 48
25.4
100
AcDbLine
 10
230.3867707985
 20
342.4103686222
 30
0.0
 11
230.3867707985
 21
357.4103686222
 31
0.0
  0
LINE
  5
CE
330
5D
100
AcDbEntity
  8
DV1_Default
  6
Continuous
 62
     7
 48
25.4
100
AcDbLine
 10
230.3867707985
 20
357.4103686222
 30
0.0
 11
248.3867707985
 21
357.4103686222
 31
0.0
  0
LINE
  5
CF
330
5D
100
AcDbEntity
  8
DV1_Default
  6
Continuous
 62
     7
 48
25.4
100
AcDbLine
 10
230.3867707985
 20
344.9103686222
 30
0.0
 11
219.3867707985
 21
344.9103686222
 31
0.0
  0
LINE
  5
D0
330
5D
100
AcDbEntity
  8
DV1_Default
  6
Continuous
 62
     7
 48
25.4
100
AcDbLine
 10
230.3867707985
 20
354.9103686222
 30
0.0
 11
219.3867707985
 21
354.9103686222
 31
0.0
  0
LINE
  5
D1
330
5D
100
AcDbEntity
  8
DV1_Default
  6
Continuous
 62
     7
 48
25.4
100
AcDbLine
 10
219.3867707985
 20
345.4103686222
 30
0.0
 11
220.3867707985
 21
345.4103686222
 31
0.0
  0
LINE
  5
D2
330
5D
100
AcDbEntity
  8
DV1_Default
  6
Continuous
 62
     7
 48
25.4
100
AcDbLine
 10
220.3867707985
 20
354.4103686222
 30
0.0
 11
219.3867707985
 21
354.4103686222
 31
0.0
  0
LINE
  5
D3
330
5D
100
AcDbEntity
  8
DV1_Default
  6
Continuous
 62
     7
 48
25.4
100
AcDbLine
 10
220.3867707985
 20
345.4103686222
 30
0.0
 11
220.3867707985
 21
354.4103686222
 31
0.0
  0
LINE
  5
D4
330
5D
100
AcDbEntity
  8
DV1_Default
  6
Continuous
 62
     7
 48
25.4
100
AcDbLine
 10
230.3867707985
 20
349.9103686222
 30
0.0
 11
230.3867707985
 21
342.9103686222
 31
0.0
  0
LINE
  5
D5
330
5D
100
AcDbEntity
  8
DV1_Default
  6
Continuous
 62
     7
 48
25.4
100
AcDbLine
 10
230.3867707985
 20
342.9103686222
 30
0.0
 11
239.8867707985
 21
342.9103686222
 31
0.0
  0
LINE
  5
D6
330
5D
100
AcDbEntity
  8
DV1_Default
  6
Continuous
 62
     7
 48
25.4
100
AcDbLine
 10
240.3867707985
 20
343.4103686222
 30
0.0
 11
240.3867707985
 21
356.4103686222
 31
0.0
  0
LINE
  5
D7
330
5D
100
AcDbEntity
  8
DV1_Default
  6
Continuous
 62
     7
 48
25.4
100
AcDbLine
 10
239.8867707985
 20
356.9103686222
 30
0.0
 11
230.3867707985
 21
356.9103686222
 31
0.0
  0
LINE
  5
D8
330
5D
100
AcDbEntity
  8
DV1_Default
  6
Continuous
 62
     7
 48
25.4
100
AcDbLine
 10
239.8867707985
 20
342.9103686222
 30
0.0
 11
240.3867707985
 21
343.4103686222
 31
0.0
  0
LINE
  5
D9
330
5D
100
AcDbEntity
  8
DV1_Default
  6
Continuous
 62
     7
 48
25.4
100
AcDbLine
 10
239.8867707985
 20
356.9103686222
 30
0.0
 11
240.3867707985
 21
356.4103686222
 31
0.0
  0
LINE
  5
DA
330
5D
100
AcDbEntity
  8
DV1_Default
  6
Continuous
 62
     7
 48
25.4
100
AcDbLine
 10
239.8867707985
 20
342.9103686222
 30
0.0
 11
239.8867707985
 21
356.9103686222
 31
0.0
  0
LINE
  5
DB
330
5D
100
AcDbEntity
  8
DV1_Default
  6
Continuous
 62
     7
 48
25.4
100
AcDbLine
 10
219.3867707985
 20
344.4103686222
 30
0.0
 11
230.3867707985
 21
344.4103686222
 31
0.0
  0
LINE
  5
DC
330
5D
100
AcDbEntity
  8
DV1_Default
  6
Continuous
 62
     7
 48
25.4
100
AcDbLine
 10
219.3867707985
 20
345.4103686222
 30
0.0
 11
218.8438775797
 21
345.4103686222
 31
0.0
  0
LINE
  5
DD
330
5D
100
AcDbEntity
  8
DV1_Default
  6
Continuous
 62
     7
 48
25.4
100
AcDbLine
 10
219.3867707985
 20
354.4103686222
 30
0.0
 11
218.8438775797
 21
354.4103686222
 31
0.0
  0
LINE
  5
DE
330
5D
100
AcDbEntity
  8
DV1_Default
  6
Continuous
 62
     7
 48
25.4
100
AcDbLine
 10
219.3867707985
 20
355.4103686222
 30
0.0
 11
230.3867707985
 21
355.4103686222
 31
0.0
  0
LINE
  5
DF
330
5D
100
AcDbEntity
  8
DV1_Default
  6
Continuous
 62
     7
 48
25.4
100
AcDbLine
 10
219.3867707985
 20
354.9103686222
 30
0.0
 11
219.3867707985
 21
366.4103686222
 31
0.0
  0
LINE
  5
E1
330
5D
100
AcDbEntity
  8
DV1_Default
  6
HIDDEN2
 62
     7
 48
25.4
100
AcDbLine
 10
213.3867707985
 20
388.9103686222
 30
0.0
 11
213.3867707985
 21
333.8353686222
 31
0.0
  0
LINE
  5
E2
330
5D
100
AcDbEntity
  8
DV1_Default
  6
Continuous
 62
     7
 48
25.4
100
AcDbLine
 10
208.3867707985
 20
324.5353686222
 30
0.0
 11
208.3867707985
 21
334.6603686222
 31
0.0
  0
LINE
  5
E3
330
5D
100
AcDbEntity
  8
DV1_Default
  6
Continuous
 62
     7
 48
25.4
100
AcDbLine
 10
208.3867707985
 20
334.6603686222
 30
0.0
 11
215.3867707985
 21
334.6603686222
 31
0.0
  0
LINE
  5
E4
330
5D
100
AcDbEntity
  8
DV1_Default
  6
Continuous
 62
     7
 48
25.4
100
AcDbLine
 10
215.3867707985
 20
334.6603686222
 30
0.0
 11
216.0938775797
 21
335.3674754034
 31
0.0
  0
LINE
  5
E5
330
5D
100
AcDbEntity
  8
DV1_Default
  6
Continuous
 62
     7
 48
25.4
100
AcDbLine
 10
149.8867707985
 20
229.1603686222
 30
0.0
 11
199.8867707985
 21
229.1603686222
 31
0.0
  0
LINE
  5
E6
330
5D
100
AcDbEntity
  8
DV1_Default
  6
Continuous
 62
     7
 48
25.4
100
AcDbLine
 10
248.3867707985
 20
389.9103686222
 30
0.0
 11
248.3867707985
 21
307.4103686222
 31
0.0
  0
LINE
  5
E7
330
5D
100
AcDbEntity
  8
DV1_Default
  6
Continuous
 62
     7
 48
25.4
100
AcDbLine
 10
215.8867707985
 20
307.4103686222
 30
0.0
 11
215.3867707985
 21
307.9103686222
 31
0.0
  0
LINE
  5
E8
330
5D
100
AcDbEntity
  8
DV1_Default
  6
Continuous
 62
     7
 48
25.4
100
AcDbLine
 10
215.8867707985
 20
307.4103686222
 30
0.0
 11
248.3867707985
 21
307.4103686222
 31
0.0
  0
LINE
  5
E9
330
5D
100
AcDbEntity
  8
DV1_Default
  6
Continuous
 62
     7
 48
25.4
100
AcDbLine
 10
138.8867707985
 20
240.1603686222
 30
0.0
 11
199.8867707985
 21
240.1603686222
 31
0.0
  0
LINE
  5
EA
330
5D
100
AcDbEntity
  8
DV1_Default
  6
Continuous
 62
     7
 48
25.4
100
AcDbLine
 10
174.907169383
 20
326.1603686222
 30
0.0
 11
174.907169383
 21
325.1603686222
 31
0.0
  0
LINE
  5
EB
330
5D
100
AcDbEntity
  8
DV1_Default
  6
Continuous
 62
     7
 48
25.4
100
AcDbLine
 10
176.907169383
 20
327.2844421291
 30
0.0
 11
177.407169383
 21
327.2844421291
 31
0.0
  0
LINE
  5
EC
330
5D
100
AcDbEntity
  8
DV1_Default
  6
Continuous
 62
     7
 48
25.4
100
AcDbLine
 10
177.407169383
 20
327.2844421291
 30
0.0
 11
177.407169383
 21
324.0353686222
 31
0.0
  0
LINE
  5
ED
330
5D
100
AcDbEntity
  8
DV1_Default
  6
Continuous
 62
     7
 48
25.4
100
AcDbLine
 10
177.407169383
 20
324.0353686222
 30
0.0
 11
178.407169383
 21
323.0353686222
 31
0.0
  0
LINE
  5
EE
330
5D
100
AcDbEntity
  8
DV1_Default
  6
Continuous
 62
     7
 48
25.4
100
AcDbLine
 10
156.3867707985
 20
258.9103686222
 30
0.0
 11
169.907169383
 21
258.9103686222
 31
0.0
  0
LINE
  5
EF
330
5D
100
AcDbEntity
  8
DV1_Default
  6
Continuous
 62
     7
 48
25.4
100
AcDbLine
 10
156.3867707985
 20
328.4103686222
 30
0.0
 11
169.907169383
 21
328.4103686222
 31
0.0
  0
LINE
  5
F0
330
5D
100
AcDbEntity
  8
DV1_Default
  6
Continuous
 62
     7
 48
25.4
100
AcDbLine
 10
171.907169383
 20
326.1603686222
 30
0.0
 11
155.3867707985
 21
326.1603686222
 31
0.0
  0
LINE
  5
F1
330
5D
100
AcDbEntity
  8
DV1_Default
  6
Continuous
 62
     7
 48
25.4
100
AcDbLine
 10
155.3867707985
 20
325.1603686222
 30
0.0
 11
171.907169383
 21
325.1603686222
 31
0.0
  0
LINE
  5
F2
330
5D
100
AcDbEntity
  8
DV1_Default
  6
Continuous
 62
     7
 48
25.4
100
AcDbLine
 10
155.3867707985
 20
259.9103686222
 30
0.0
 11
155.3867707985
 21
327.4103686222
 31
0.0
  0
LINE
  5
F3
330
5D
100
AcDbEntity
  8
DV1_Default
  6
Continuous
 62
     7
 48
25.4
100
AcDbLine
 10
155.3867707985
 20
259.9103686222
 30
0.0
 11
156.3867707985
 21
258.9103686222
 31
0.0
  0
LINE
  5
F4
330
5D
100
AcDbEntity
  8
DV1_Default
  6
Continuous
 62
     7
 48
25.4
100
AcDbLine
 10
155.3867707985
 20
327.4103686222
 30
0.0
 11
156.3867707985
 21
328.4103686222
 31
0.0
  0
LINE
  5
F5
330
5D
100
AcDbEntity
  8
DV1_Default
  6
Continuous
 62
     7
 48
25.4
100
AcDbLine
 10
155.3867707985
 20
308.6603686222
 30
0.0
 11
171.907169383
 21
308.6603686222
 31
0.0
  0
LINE
  5
F6
330
5D
100
AcDbEntity
  8
DV1_Default
  6
Continuous
 62
     7
 48
25.4
100
AcDbLine
 10
155.3867707985
 20
278.6603686222
 30
0.0
 11
171.907169383
 21
278.6603686222
 31
0.0
  0
LINE
  5
F7
330
5D
100
AcDbEntity
  8
DV1_Default
  6
Continuous
 62
     7
 48
25.4
100
AcDbLine
 10
155.3867707985
 20
262.1603686222
 30
0.0
 11
171.907169383
 21
262.1603686222
 31
0.0
  0
LINE
  5
F8
330
5D
100
AcDbEntity
  8
DV1_Default
  6
Continuous
 62
     7
 48
25.4
100
AcDbLine
 10
212.3867707985
 20
198.4103686222
 30
0.0
 11
147.8867707985
 21
198.4103686222
 31
0.0
  0
LINE
  5
F9
330
5D
100
AcDbEntity
  8
DV1_Default
  6
Continuous
 62
     7
 48
25.4
100
AcDbLine
 10
138.8867707985
 20
240.1603686222
 30
0.0
 11
138.8867707985
 21
368.1603686222
 31
0.0
  0
LINE
  5
FA
330
5D
100
AcDbEntity
  8
DV1_Default
  6
Continuous
 62
     7
 48
25.4
100
AcDbLine
 10
138.8867707985
 20
240.1603686222
 30
0.0
 11
125.6367707985
 21
240.1603686222
 31
0.0
  0
LINE
  5
FB
330
5D
100
AcDbEntity
  8
DV1_Default
  6
Continuous
 62
     7
 48
25.4
100
AcDbLine
 10
124.8867707985
 20
239.4103686222
 30
0.0
 11
124.8867707985
 21
230.4103686222
 31
0.0
  0
LINE
  5
FC
330
5D
100
AcDbEntity
  8
DV1_Default
  6
Continuous
 62
     7
 48
25.4
100
AcDbLine
 10
125.6367707985
 20
229.6603686222
 30
0.0
 11
138.8867707985
 21
229.6603686222
 31
0.0
  0
LINE
  5
FD
330
5D
100
AcDbEntity
  8
DV1_Default
  6
Continuous
 62
     7
 48
25.4
100
AcDbLine
 10
138.8867707985
 20
230.2853502857
 30
0.0
 11
125.011789135
 21
230.2853502857
 31
0.0
  0
LINE
  5
FE
330
5D
100
AcDbEntity
  8
DV1_Default
  6
Continuous
 62
     7
 48
25.4
100
AcDbLine
 10
138.8867707985
 20
239.6603686222
 30
0.0
 11
125.1367707985
 21
239.6603686222
 31
0.0
  0
LINE
  5
FF
330
5D
100
AcDbEntity
  8
DV1_Default
  6
Continuous
 62
     7
 48
25.4
100
AcDbLine
 10
124.8867707985
 20
230.4103686222
 30
0.0
 11
125.6367707985
 21
229.6603686222
 31
0.0
  0
LINE
  5
100
330
5D
100
AcDbEntity
  8
DV1_Default
  6
Continuous
 62
     7
 48
25.4
100
AcDbLine
 10
124.8867707985
 20
239.4103686222
 30
0.0
 11
125.6367707985
 21
240.1603686222
 31
0.0
  0
LINE
  5
101
330
5D
100
AcDbEntity
  8
DV1_Default
  6
Continuous
 62
     7
 48
25.4
100
AcDbLine
 10
125.6367707985
 20
240.1603686222
 30
0.0
 11
125.6367707985
 21
229.6603686222
 31
0.0
  0
LINE
  5
102
330
5D
100
AcDbEntity
  8
DV1_Default
  6
Continuous
 62
     7
 48
25.4
100
AcDbLine
 10
209.8867707985
 20
228.1603686222
 30
0.0
 11
209.1367707985
 21
227.4103686222
 31
0.0
  0
LINE
  5
103
330
5D
100
AcDbEntity
  8
DV1_Default
  6
Continuous
 62
     7
 48
25.4
100
AcDbLine
 10
209.1367707985
 20
242.4103686222
 30
0.0
 11
209.8867707985
 21
241.6603686222
 31
0.0
  0
LINE
  5
104
330
5D
100
AcDbEntity
  8
DV1_Default
  6
Continuous
 62
     7
 48
25.4
100
AcDbLine
 10
209.1367707985
 20
242.4103686222
 30
0.0
 11
209.1367707985
 21
227.4103686222
 31
0.0
  0
LINE
  5
105
330
5D
100
AcDbEntity
  8
DV1_Default
  6
Continuous
 62
     7
 48
25.4
100
AcDbLine
 10
139.3867707985
 20
368.6603686222
 30
0.0
 11
149.8867707985
 21
368.6603686222
 31
0.0
  0
LINE
  5
106
330
5D
100
AcDbEntity
  8
DV1_Default
  6
Continuous
 62
     7
 48
25.4
100
AcDbLine
 10
149.8867707985
 20
218.6603686222
 30
0.0
 11
139.3867707985
 21
218.6603686222
 31
0.0
  0
LINE
  5
107
330
5D
100
AcDbEntity
  8
DV1_Default
  6
Continuous
 62
     7
 48
25.4
100
AcDbLine
 10
138.8867707985
 20
342.8776186222
 30
0.0
 11
146.9091323435
 21
341.8925964825
 31
0.0
  0
LINE
  5
108
330
5D
100
AcDbEntity
  8
DV1_Default
  6
Continuous
 62
     7
 48
25.4
100
AcDbLine
 10
146.9091323435
 20
341.8925964825
 30
0.0
 11
149.8867707985
 21
341.8925964825
 31
0.0
  0
LINE
  5
109
330
5D
100
AcDbEntity
  8
DV1_Default
  6
Continuous
 62
     7
 48
25.4
100
AcDbLine
 10
138.8867707985
 20
244.4431186222
 30
0.0
 11
146.9091323435
 21
245.4281407619
 31
0.0
  0
LINE
  5
10A
330
5D
100
AcDbEntity
  8
DV1_Default
  6
Continuous
 62
     7
 48
25.4
100
AcDbLine
 10
146.9091323435
 20
245.4281407619
 30
0.0
 11
149.8867707985
 21
245.4281407619
 31
0.0
  0
LINE
  5
10B
330
5D
100
AcDbEntity
  8
DV1_Default
  6
Continuous
 62
     7
 48
25.4
100
AcDbLine
 10
162.4698093422
 20
258.9103686222
 30
0.0
 11
162.4698093422
 21
243.9103686222
 31
0.0
  0
LINE
  5
10C
330
5D
100
AcDbEntity
  8
DV1_Default
  6
Continuous
 62
     7
 48
25.4
100
AcDbLine
 10
149.8867707985
 20
243.9103686222
 30
0.0
 11
185.565053609
 21
243.9103686222
 31
0.0
  0
LINE
  5
10D
330
5D
100
AcDbEntity
  8
DV1_Default
  6
Continuous
 62
     7
 48
25.4
100
AcDbLine
 10
155.3867707985
 20
326.1603686222
 30
0.0
 11
171.907169383
 21
326.1603686222
 31
0.0
  0
LINE
  5
10E
330
5D
100
AcDbEntity
  8
DV1_Default
  6
Continuous
 62
     7
 48
25.4
100
AcDbLine
 10
174.907169383
 20
326.1603686222
 30
0.0
 11
174.907169383
 21
325.1603686222
 31
0.0
  0
LINE
  5
10F
330
5D
100
AcDbEntity
  8
DV1_Default
  6
Continuous
 62
     7
 48
25.4
100
AcDbLine
 10
174.907169383
 20
326.1603686222
 30
0.0
 11
171.907169383
 21
326.1603686222
 31
0.0
  0
LINE
  5
110
330
5D
100
AcDbEntity
  8
DV1_Default
  6
Continuous
 62
     7
 48
25.4
100
AcDbLine
 10
176.907169383
 20
327.2844421291
 30
0.0
 11
177.407169383
 21
327.2844421291
 31
0.0
  0
LINE
  5
111
330
5D
100
AcDbEntity
  8
DV1_Default
  6
Continuous
 62
     7
 48
25.4
100
AcDbLine
 10
177.407169383
 20
327.2844421291
 30
0.0
 11
177.407169383
 21
324.0353686222
 31
0.0
  0
LINE
  5
112
330
5D
100
AcDbEntity
  8
DV1_Default
  6
Continuous
 62
     7
 48
25.4
100
AcDbLine
 10
177.407169383
 20
324.0353686222
 30
0.0
 11
178.407169383
 21
323.0353686222
 31
0.0
  0
LINE
  5
113
330
5D
100
AcDbEntity
  8
DV1_Default
  6
Continuous
 62
     7
 48
25.4
100
AcDbLine
 10
155.3867707985
 20
327.4103686222
 30
0.0
 11
156.3867707985
 21
328.4103686222
 31
0.0
  0
LINE
  5
114
330
5D
100
AcDbEntity
  8
DV1_Default
  6
Continuous
 62
     7
 48
25.4
100
AcDbLine
 10
155.3867707985
 20
325.1603686222
 30
0.0
 11
171.907169383
 21
325.1603686222
 31
0.0
  0
LINE
  5
115
330
5D
100
AcDbEntity
  8
DV1_Default
  6
Continuous
 62
     7
 48
25.4
100
AcDbLine
 10
162.4698093422
 20
328.4103686222
 30
0.0
 11
162.4698093422
 21
343.4103686222
 31
0.0
  0
LINE
  5
116
330
5D
100
AcDbEntity
  8
DV1_Default
  6
Continuous
 62
     7
 48
25.4
100
AcDbLine
 10
149.8867707985
 20
343.4103686222
 30
0.0
 11
185.565053609
 21
343.4103686222
 31
0.0
  0
LINE
  5
117
330
5D
100
AcDbEntity
  8
DV1_Default
  6
Continuous
 62
     7
 48
25.4
100
AcDbLine
 10
146.9091323435
 20
341.8925964825
 30
0.0
 11
146.9091323435
 21
245.4281407619
 31
0.0
  0
LINE
  5
118
330
5D
100
AcDbEntity
  8
DV1_Default
  6
Continuous
 62
     7
 48
25.4
100
AcDbLine
 10
138.8867707985
 20
219.1603686222
 30
0.0
 11
138.8867707985
 21
229.6603686222
 31
0.0
  0
LINE
  5
119
330
5D
100
AcDbEntity
  8
DV1_Default
  6
Continuous
 62
     7
 48
25.4
100
AcDbLine
 10
138.8867707985
 20
356.9103686222
 30
0.0
 11
144.3867707985
 21
356.9103686222
 31
0.0
  0
LINE
  5
11A
330
5D
100
AcDbEntity
  8
DV1_Default
  6
Continuous
 62
     7
 48
25.4
100
AcDbLine
 10
144.3867707985
 20
356.9103686222
 30
0.0
 11
144.3867707985
 21
347.9103686222
 31
0.0
  0
LINE
  5
11B
330
5D
100
AcDbEntity
  8
DV1_Default
  6
Continuous
 62
     7
 48
25.4
100
AcDbLine
 10
144.3867707985
 20
347.9103686222
 30
0.0
 11
138.8867707985
 21
347.9103686222
 31
0.0
  0
LINE
  5
11C
330
5D
100
AcDbEntity
  8
DV1_Default
  6
Continuous
 62
     7
 48
25.4
100
AcDbLine
 10
139.3867707985
 20
356.4103686222
 30
0.0
 11
144.3867707985
 21
356.4103686222
 31
0.0
  0
LINE
  5
11D
330
5D
100
AcDbEntity
  8
DV1_Default
  6
Continuous
 62
     7
 48
25.4
100
AcDbLine
 10
144.3867707985
 20
356.4103686222
 30
0.0
 11
144.3867707985
 21
348.4103686222
 31
0.0
  0
LINE
  5
11E
330
5D
100
AcDbEntity
  8
DV1_Default
  6
Continuous
 62
     7
 48
25.4
100
AcDbLine
 10
144.3867707985
 20
348.4103686222
 30
0.0
 11
139.3867707985
 21
348.4103686222
 31
0.0
  0
LINE
  5
11F
330
5D
100
AcDbEntity
  8
DV1_Default
  6
Continuous
 62
     7
 48
25.4
100
AcDbLine
 10
139.3867707985
 20
348.4103686222
 30
0.0
 11
139.3867707985
 21
356.4103686222
 31
0.0
  0
LINE
  5
120
330
5D
100
AcDbEntity
  8
DV1_Default
  6
CENTER2
 62
     7
 48
25.4
100
AcDbLine
 10
163.4531674191
 20
352.4103686222
 30
0.0
 11
132.7602203734
 21
352.4103686222
 31
0.0
  0
LINE
  5
121
330
5D
100
AcDbEntity
  8
DV1_Default
  6
Continuous
 62
     7
 48
25.4
100
AcDbLine
 10
144.3867707985
 20
354.9103686222
 30
0.0
 11
149.8867707985
 21
354.9103686222
 31
0.0
  0
LINE
  5
122
330
5D
100
AcDbEntity
  8
DV1_Default
  6
Continuous
 62
     7
 48
25.4
100
AcDbLine
 10
144.3867707985
 20
354.9103686222
 30
0.0
 11
144.3867707985
 21
349.9103686222
 31
0.0
  0
LINE
  5
123
330
5D
100
AcDbEntity
  8
DV1_Default
  6
Continuous
 62
     7
 48
25.4
100
AcDbLine
 10
144.3867707985
 20
349.9103686222
 30
0.0
 11
159.3867707985
 21
349.9103686222
 31
0.0
  0
LINE
  5
124
330
5D
100
AcDbEntity
  8
DV1_Default
  6
Continuous
 62
     7
 48
25.4
100
AcDbLine
 10
159.3867707985
 20
349.9103686222
 30
0.0
 11
159.3867707985
 21
354.9103686222
 31
0.0
  0
LINE
  5
125
330
5D
100
AcDbEntity
  8
DV1_Default
  6
Continuous
 62
     7
 48
25.4
100
AcDbLine
 10
159.3867707985
 20
354.9103686222
 30
0.0
 11
149.8867707985
 21
354.9103686222
 31
0.0
  0
LINE
  5
126
330
5D
100
AcDbEntity
  8
DV1_Default
  6
Continuous
 62
     7
 48
25.4
100
AcDbLine
 10
144.3867707985
 20
354.9103686222
 30
0.0
 11
144.3867707985
 21
354.4103686222
 31
0.0
  0
LINE
  5
127
330
5D
100
AcDbEntity
  8
DV1_Default
  6
Continuous
 62
     7
 48
25.4
100
AcDbLine
 10
144.3867707985
 20
354.4103686222
 30
0.0
 11
159.3867707985
 21
354.4103686222
 31
0.0
  0
LINE
  5
128
330
5D
100
AcDbEntity
  8
DV1_Default
  6
Continuous
 62
     7
 48
25.4
100
AcDbLine
 10
159.3867707985
 20
349.9103686222
 30
0.0
 11
159.3867707985
 21
350.4103686222
 31
0.0
  0
LINE
  5
129
330
5D
100
AcDbEntity
  8
DV1_Default
  6
Continuous
 62
     7
 48
25.4
100
AcDbLine
 10
159.3867707985
 20
350.4103686222
 30
0.0
 11
144.3867707985
 21
350.4103686222
 31
0.0
  0
LINE
  5
12A
330
5D
100
AcDbEntity
  8
DV1_Default
  6
Continuous
 62
     7
 48
25.4
100
AcDbLine
 10
149.8867707985
 20
354.4103686222
 30
0.0
 11
149.8867707985
 21
368.6603686222
 31
0.0
  0
LINE
  5
12B
330
5D
100
AcDbEntity
  8
DV1_Default
  6
Continuous
 62
     7
 48
25.4
100
AcDbLine
 10
138.8867707985
 20
368.1603686222
 30
0.0
 11
139.3867707985
 21
368.6603686222
 31
0.0
  0
LINE
  5
12C
330
5D
100
AcDbEntity
  8
DV1_Default
  6
Continuous
 62
     7
 48
25.4
100
AcDbLine
 10
139.3867707985
 20
218.6603686222
 30
0.0
 11
138.8867707985
 21
219.1603686222
 31
0.0
  0
LINE
  5
12D
330
5D
100
AcDbEntity
  8
DV1_Default
  6
Continuous
 62
     7
 48
25.4
100
AcDbLine
 10
147.8867707985
 20
198.4103686222
 30
0.0
 11
146.8867707985
 21
199.4103686222
 31
0.0
  0
LINE
  5
12E
330
5D
100
AcDbEntity
  8
DV1_Default
  6
Continuous
 62
     7
 48
25.4
100
AcDbLine
 10
146.8867707985
 20
387.9103686222
 30
0.0
 11
147.8867707985
 21
388.9103686222
 31
0.0
  0
LINE
  5
12F
330
5D
100
AcDbEntity
  8
DV1_Default
  6
Continuous
 62
     7
 48
25.4
100
AcDbLine
 10
212.3867707985
 20
198.4103686222
 30
0.0
 11
213.3867707985
 21
199.4103686222
 31
0.0
  0
LINE
  5
130
330
5D
100
AcDbEntity
  8
DV1_Default
  6
Continuous
 62
     7
 48
25.4
100
AcDbLine
 10
156.3867707985
 20
293.6603686222
 30
0.0
 11
155.3867707985
 21
293.6603686222
 31
0.0
  0
LINE
  5
131
330
5D
100
AcDbEntity
  8
DV1_Default
  6
Continuous
 62
     7
 48
25.4
100
AcDbLine
 10
155.3867707985
 20
293.6603686222
 30
0.0
 11
174.8867707985
 21
293.6603686222
 31
0.0
  0
LINE
  5
132
330
5D
100
AcDbEntity
  8
DV1_Default
  6
Continuous
 62
     7
 48
25.4
100
AcDbLine
 10
177.407169383
 20
324.5353686222
 30
0.0
 11
208.3867707985
 21
324.5353686222
 31
0.0
  0
LINE
  5
133
330
5D
100
AcDbEntity
  8
DV1_Default
  6
Continuous
 62
     7
 48
25.4
100
AcDbLine
 10
208.3867707985
 20
262.7853686222
 30
0.0
 11
177.407169383
 21
262.7853686222
 31
0.0
  0
LINE
  5
134
330
5D
100
AcDbEntity
  8
DV1_Default
  6
Continuous
 62
     7
 48
25.4
100
AcDbLine
 10
178.407169383
 20
323.0353686222
 30
0.0
 11
213.3867707985
 21
323.0353686222
 31
0.0
  0
LINE
  5
135
330
5D
100
AcDbEntity
  8
DV1_Default
  6
Continuous
 62
     7
 48
25.4
100
AcDbLine
 10
178.407169383
 20
264.2853686222
 30
0.0
 11
213.3867707985
 21
264.2853686222
 31
0.0
  0
LINE
  5
136
330
5D
100
AcDbEntity
  8
DV1_Default
  6
Continuous
 62
     7
 48
25.4
100
AcDbLine
 10
208.3867707985
 20
255.9853686222
 30
0.0
 11
208.3867707985
 21
253.4853686222
 31
0.0
  0
ENDBLK
  5
138
330
5D
100
AcDbEntity
  8
0
100
AcDbBlockEnd
  0
BLOCK
  5
215
330
139
100
AcDbEntity
  8
0
100
AcDbBlockBegin
  2
SE1
 70
     0
 71
     0
 10
0.0
 20
0.0
 30
0.0
  3
SE1
  1

  0
LINE
  5
13C
330
139
100
AcDbEntity
  8
DV2_Default
  6
CENTER2
 62
     7
 48
25.4
100
AcDbLine
 10
329.0940057603
 20
291.9416635387
 30
0.0
 11
538.447798854
 21
291.9416635387
 31
0.0
  0
LINE
  5
13D
330
139
100
AcDbEntity
  8
DV2_Default
  6
CENTER2
 62
     7
 48
25.4
100
AcDbLine
 10
434.9573763507
 20
398.682087255
 30
0.0
 11
434.9573763507
 21
182.9381347792
 31
0.0
  0
LINE
  5
13E
330
139
100
AcDbEntity
  8
DV2_Default
  6
CENTER2
 62
     7
 48
25.4
100
AcDbLine
 10
434.9573763507
 20
291.9416635387
 30
0.0
 11
530.2328329181
 21
236.9343530424
 31
0.0
  0
LINE
  5
13F
330
139
100
AcDbEntity
  8
DV2_Default
  6
CENTER2
 62
     7
 48
25.4
100
AcDbLine
 10
434.9573763507
 20
291.9416635387
 30
0.0
 11
340.8344872769
 21
237.5997881951
 31
0.0
  0
LINE
  5
140
330
139
100
AcDbEntity
  8
DV2_Default
  6
CENTER2
 62
     7
 48
25.4
100
AcDbLine
 10
483.9781120349
 20
305.0767300777
 30
0.0
 11
499.4329252555
 21
309.2178347993
 31
0.0
  0
LINE
  5
141
330
139
100
AcDbEntity
  8
DV2_Default
  6
CENTER2
 62
     7
 48
25.4
100
AcDbLine
 10
470.8430454959
 20
327.8273326839
 30
0.0
 11
482.1567539949
 21
339.1410411829
 31
0.0
  0
CIRCLE
  5
142
330
139
100
AcDbEntity
  8
DV2_Default
  6
Continuous
 62
     7
 48
25.4
100
AcDbCircle
 10
491.7055186452
 20
307.1472824385
 30
0.0
 40
8.0
  0
CIRCLE
  5
143
330
139
100
AcDbEntity
  8
DV2_Default
  6
Continuous
 62
     7
 48
25.4
100
AcDbCircle
 10
491.7055186452
 20
307.1472824385
 30
0.0
 40
5.249999999999999
  0
CIRCLE
  5
144
330
139
100
AcDbEntity
  8
DV2_Default
  6
Continuous
 62
     7
 48
25.4
100
AcDbCircle
 10
476.4998997454
 20
333.4841869334
 30
0.0
 40
8.0
  0
CIRCLE
  5
145
330
139
100
AcDbEntity
  8
DV2_Default
  6
Continuous
 62
     7
 48
25.4
100
AcDbCircle
 10
476.4998997454
 20
333.4841869334
 30
0.0
 40
5.249999999999999
  0
ARC
  5
146
330
139
100
AcDbEntity
  8
DV2_Default
  6
CENTER2
 62
     7
 48
25.4
100
AcDbCircle
 10
434.9573763507
 20
291.9416635387
 30
0.0
 40
58.75000000000001
100
AcDbArc
 50
7.1919811195
 51
52.8080188805
  0
LINE
  5
147
330
139
100
AcDbEntity
  8
DV2_Default
  6
CENTER2
 62
     7
 48
25.4
100
AcDbLine
 10
470.8430454959
 20
327.8273326839
 30
0.0
 11
482.1567539949
 21
339.1410411829
 31
0.0
  0
CIRCLE
  5
148
330
139
100
AcDbEntity
  8
DV2_Default
  6
Continuous
 62
     7
 48
25.4
100
AcDbCircle
 10
469.2718913296
 20
301.136210116
 30
0.0
 40
3.75
  0
CIRCLE
  5
149
330
139
100
AcDbEntity
  8
DV2_Default
  6
Continuous
 62
     7
 48
25.4
100
AcDbCircle
 10
469.2718913296
 20
301.136210116
 30
0.0
 40
3.5
  0
LINE
  5
14A
330
139
100
AcDbEntity
  8
DV2_Default
  6
Continuous
 62
     7
 48
25.4
100
AcDbLine
 10
467.4607804053
 20
300.6509244064
 30
0.0
 11
468.7866056201
 21
299.3250991917
 31
0.0
  0
LINE
  5
14B
330
139
100
AcDbEntity
  8
DV2_Default
  6
Continuous
 62
     7
 48
25.4
100
AcDbLine
 10
468.7866056201
 20
299.3250991917
 30
0.0
 11
470.5977165444
 21
299.8103849013
 31
0.0
  0
LINE
  5
14C
330
139
100
AcDbEntity
  8
DV2_Default
  6
Continuous
 62
     7
 48
25.4
100
AcDbLine
 10
470.5977165444
 20
299.8103849013
 30
0.0
 11
471.0830022539
 21
301.6214958256
 31
0.0
  0
LINE
  5
14D
330
139
100
AcDbEntity
  8
DV2_Default
  6
Continuous
 62
     7
 48
25.4
100
AcDbLine
 10
471.0830022539
 20
301.6214958256
 30
0.0
 11
469.7571770392
 21
302.9473210403
 31
0.0
  0
LINE
  5
14E
330
139
100
AcDbEntity
  8
DV2_Default
  6
Continuous
 62
     7
 48
25.4
100
AcDbLine
 10
469.7571770392
 20
302.9473210403
 30
0.0
 11
467.9460661149
 21
302.4620353307
 31
0.0
  0
LINE
  5
14F
330
139
100
AcDbEntity
  8
DV2_Default
  6
Continuous
 62
     7
 48
25.4
100
AcDbLine
 10
467.9460661149
 20
302.4620353307
 30
0.0
 11
467.4607804053
 21
300.6509244064
 31
0.0
  0
CIRCLE
  5
150
330
139
100
AcDbEntity
  8
DV2_Default
  6
Continuous
 62
     7
 48
25.4
100
AcDbCircle
 10
460.0773447524
 20
317.0616319404
 30
0.0
 40
3.75
  0
CIRCLE
  5
151
330
139
100
AcDbEntity
  8
DV2_Default
  6
Continuous
 62
     7
 48
25.4
100
AcDbCircle
 10
460.0773447524
 20
317.0616319404
 30
0.0
 40
3.5
  0
LINE
  5
152
330
139
100
AcDbEntity
  8
DV2_Default
  6
Continuous
 62
     7
 48
25.4
100
AcDbLine
 10
458.7515195376
 20
315.7358067256
 30
0.0
 11
460.5626304619
 21
315.2505210161
 31
0.0
  0
LINE
  5
153
330
139
100
AcDbEntity
  8
DV2_Default
  6
Continuous
 62
     7
 48
25.4
100
AcDbLine
 10
460.5626304619
 20
315.2505210161
 30
0.0
 11
461.8884556767
 21
316.5763462308
 31
0.0
  0
LINE
  5
154
330
139
100
AcDbEntity
  8
DV2_Default
  6
Continuous
 62
     7
 48
25.4
100
AcDbLine
 10
461.8884556767
 20
316.5763462308
 30
0.0
 11
461.4031699671
 21
318.3874571551
 31
0.0
  0
LINE
  5
155
330
139
100
AcDbEntity
  8
DV2_Default
  6
Continuous
 62
     7
 48
25.4
100
AcDbLine
 10
461.4031699671
 20
318.3874571551
 30
0.0
 11
459.5920590428
 21
318.8727428647
 31
0.0
  0
LINE
  5
156
330
139
100
AcDbEntity
  8
DV2_Default
  6
Continuous
 62
     7
 48
25.4
100
AcDbLine
 10
459.5920590428
 20
318.8727428647
 30
0.0
 11
458.2662338281
 21
317.5469176499
 31
0.0
  0
LINE
  5
157
330
139
100
AcDbEntity
  8
DV2_Default
  6
Continuous
 62
     7
 48
25.4
100
AcDbLine
 10
458.2662338281
 20
317.5469176499
 30
0.0
 11
458.7515195376
 21
315.7358067256
 31
0.0
  0
LINE
  5
158
330
139
100
AcDbEntity
  8
DV2_Default
  6
CENTER2
 62
     7
 48
25.4
100
AcDbLine
 10
483.9781120349
 20
305.0767300777
 30
0.0
 11
499.4329252555
 21
309.2178347993
 31
0.0
  0
LINE
  5
159
330
139
100
AcDbEntity
  8
DV2_Default
  6
CENTER2
 62
     7
 48
25.4
100
AcDbLine
 10
465.6496694811
 20
300.1656386969
 30
0.0
 11
472.8941131782
 21
302.1067815351
 31
0.0
  0
LINE
  5
15A
330
139
100
AcDbEntity
  8
DV2_Default
  6
CENTER2
 62
     7
 48
25.4
100
AcDbLine
 10
457.4256943229
 20
314.4099815109
 30
0.0
 11
462.7289951818
 21
319.7132823698
 31
0.0
  0
ARC
  5
15B
330
139
100
AcDbEntity
  8
DV2_Default
  6
CENTER2
 62
     7
 48
25.4
100
AcDbCircle
 10
434.9573763507
 20
291.9416635387
 30
0.0
 40
35.525
100
AcDbArc
 50
38.9490765948
 51
51.0509234052
  0
ARC
  5
15C
330
139
100
AcDbEntity
  8
DV2_Default
  6
CENTER2
 62
     7
 48
25.4
100
AcDbCircle
 10
434.9573763507
 20
291.9416635387
 30
0.0
 40
35.525
100
AcDbArc
 50
8.9490765948
 51
21.0509234052
  0
LINE
  5
15D
330
139
100
AcDbEntity
  8
DV2_Default
  6
CENTER2
 62
     7
 48
25.4
100
AcDbLine
 10
399.0717072055
 20
327.8273326839
 30
0.0
 11
387.7579987065
 21
339.1410411829
 31
0.0
  0
LINE
  5
15E
330
139
100
AcDbEntity
  8
DV2_Default
  6
CENTER2
 62
     7
 48
25.4
100
AcDbLine
 10
385.9366406666
 20
305.0767300777
 30
0.0
 11
370.4818274459
 21
309.2178347993
 31
0.0
  0
CIRCLE
  5
15F
330
139
100
AcDbEntity
  8
DV2_Default
  6
Continuous
 62
     7
 48
25.4
100
AcDbCircle
 10
393.414852956
 20
333.4841869334
 30
0.0
 40
8.0
  0
CIRCLE
  5
160
330
139
100
AcDbEntity
  8
DV2_Default
  6
Continuous
 62
     7
 48
25.4
100
AcDbCircle
 10
393.414852956
 20
333.4841869334
 30
0.0
 40
5.249999999999999
  0
CIRCLE
  5
161
330
139
100
AcDbEntity
  8
DV2_Default
  6
Continuous
 62
     7
 48
25.4
100
AcDbCircle
 10
378.2092340562
 20
307.1472824385
 30
0.0
 40
8.0
  0
CIRCLE
  5
162
330
139
100
AcDbEntity
  8
DV2_Default
  6
Continuous
 62
     7
 48
25.4
100
AcDbCircle
 10
378.2092340562
 20
307.1472824385
 30
0.0
 40
5.249999999999999
  0
ARC
  5
163
330
139
100
AcDbEntity
  8
DV2_Default
  6
CENTER2
 62
     7
 48
25.4
100
AcDbCircle
 10
434.9573763507
 20
291.9416635387
 30
0.0
 40
58.75000000000001
100
AcDbArc
 50
127.1919811195
 51
172.8080188805
  0
LINE
  5
164
330
139
100
AcDbEntity
  8
DV2_Default
  6
CENTER2
 62
     7
 48
25.4
100
AcDbLine
 10
385.9366406666
 20
305.0767300777
 30
0.0
 11
370.4818274459
 21
309.2178347993
 31
0.0
  0
CIRCLE
  5
165
330
139
100
AcDbEntity
  8
DV2_Default
  6
Continuous
 62
     7
 48
25.4
100
AcDbCircle
 10
409.8374079491
 20
317.0616319404
 30
0.0
 40
3.75
  0
CIRCLE
  5
166
330
139
100
AcDbEntity
  8
DV2_Default
  6
Continuous
 62
     7
 48
25.4
100
AcDbCircle
 10
409.8374079491
 20
317.0616319404
 30
0.0
 40
3.5
  0
LINE
  5
167
330
139
100
AcDbEntity
  8
DV2_Default
  6
Continuous
 62
     7
 48
25.4
100
AcDbLine
 10
411.1632331638
 20
315.7358067256
 30
0.0
 11
411.6485188734
 21
317.5469176499
 31
0.0
  0
LINE
  5
168
330
139
100
AcDbEntity
  8
DV2_Default
  6
Continuous
 62
     7
 48
25.4
100
AcDbLine
 10
411.6485188734
 20
317.5469176499
 30
0.0
 11
410.3226936586
 21
318.8727428647
 31
0.0
  0
LINE
  5
169
330
139
100
AcDbEntity
  8
DV2_Default
  6
Continuous
 62
     7
 48
25.4
100
AcDbLine
 10
410.3226936586
 20
318.8727428647
 30
0.0
 11
408.5115827343
 21
318.3874571551
 31
0.0
  0
LINE
  5
16A
330
139
100
AcDbEntity
  8
DV2_Default
  6
Continuous
 62
     7
 48
25.4
100
AcDbLine
 10
408.5115827343
 20
318.3874571551
 30
0.0
 11
408.0262970248
 21
316.5763462308
 31
0.0
  0
LINE
  5
16B
330
139
100
AcDbEntity
  8
DV2_Default
  6
Continuous
 62
     7
 48
25.4
100
AcDbLine
 10
408.0262970248
 20
316.5763462308
 30
0.0
 11
409.3521222395
 21
315.2505210161
 31
0.0
  0
LINE
  5
16C
330
139
100
AcDbEntity
  8
DV2_Default
  6
Continuous
 62
     7
 48
25.4
100
AcDbLine
 10
409.3521222395
 20
315.2505210161
 30
0.0
 11
411.1632331638
 21
315.7358067256
 31
0.0
  0
CIRCLE
  5
16D
330
139
100
AcDbEntity
  8
DV2_Default
  6
Continuous
 62
     7
 48
25.4
100
AcDbCircle
 10
400.6428613718
 20
301.136210116
 30
0.0
 40
3.75
  0
CIRCLE
  5
16E
330
139
100
AcDbEntity
  8
DV2_Default
  6
Continuous
 62
     7
 48
25.4
100
AcDbCircle
 10
400.6428613718
 20
301.136210116
 30
0.0
 40
3.5
  0
LINE
  5
16F
330
139
100
AcDbEntity
  8
DV2_Default
  6
Continuous
 62
     7
 48
25.4
100
AcDbLine
 10
402.4539722961
 20
300.6509244064
 30
0.0
 11
401.9686865865
 21
302.4620353307
 31
0.0
  0
LINE
  5
170
330
139
100
AcDbEntity
  8
DV2_Default
  6
Continuous
 62
     7
 48
25.4
100
AcDbLine
 10
401.9686865865
 20
302.4620353307
 30
0.0
 11
400.1575756622
 21
302.9473210403
 31
0.0
  0
LINE
  5
171
330
139
100
AcDbEntity
  8
DV2_Default
  6
Continuous
 62
     7
 48
25.4
100
AcDbLine
 10
400.1575756622
 20
302.9473210403
 30
0.0
 11
398.8317504475
 21
301.6214958256
 31
0.0
  0
LINE
  5
172
330
139
100
AcDbEntity
  8
DV2_Default
  6
Continuous
 62
     7
 48
25.4
100
AcDbLine
 10
398.8317504475
 20
301.6214958256
 30
0.0
 11
399.3170361571
 21
299.8103849013
 31
0.0
  0
LINE
  5
173
330
139
100
AcDbEntity
  8
DV2_Default
  6
Continuous
 62
     7
 48
25.4
100
AcDbLine
 10
399.3170361571
 20
299.8103849013
 30
0.0
 11
401.1281470814
 21
299.3250991917
 31
0.0
  0
LINE
  5
174
330
139
100
AcDbEntity
  8
DV2_Default
  6
Continuous
 62
     7
 48
25.4
100
AcDbLine
 10
401.1281470814
 20
299.3250991917
 30
0.0
 11
402.4539722961
 21
300.6509244064
 31
0.0
  0
LINE
  5
175
330
139
100
AcDbEntity
  8
DV2_Default
  6
CENTER2
 62
     7
 48
25.4
100
AcDbLine
 10
399.0717072055
 20
327.8273326839
 30
0.0
 11
387.7579987065
 21
339.1410411829
 31
0.0
  0
LINE
  5
176
330
139
100
AcDbEntity
  8
DV2_Default
  6
CENTER2
 62
     7
 48
25.4
100
AcDbLine
 10
412.4890583785
 20
314.4099815109
 30
0.0
 11
407.1857575196
 21
319.7132823698
 31
0.0
  0
LINE
  5
177
330
139
100
AcDbEntity
  8
DV2_Default
  6
CENTER2
 62
     7
 48
25.4
100
AcDbLine
 10
404.2650832204
 20
300.1656386969
 30
0.0
 11
397.0206395232
 21
302.1067815351
 31
0.0
  0
ARC
  5
178
330
139
100
AcDbEntity
  8
DV2_Default
  6
CENTER2
 62
     7
 48
25.4
100
AcDbCircle
 10
434.9573763507
 20
291.9416635387
 30
0.0
 40
35.525
100
AcDbArc
 50
158.9490765948
 51
171.0509234052
  0
ARC
  5
179
330
139
100
AcDbEntity
  8
DV2_Default
  6
CENTER2
 62
     7
 48
25.4
100
AcDbCircle
 10
434.9573763507
 20
291.9416635387
 30
0.0
 40
35.525
100
AcDbArc
 50
128.9490765948
 51
141.0509234052
  0
LINE
  5
17A
330
139
100
AcDbEntity
  8
DV2_Default
  6
Continuous
 62
     7
 48
25.4
100
AcDbLine
 10
434.9573763507
 20
388.1916635387
 30
0.0
 11
419.4573763507
 21
388.1916635387
 31
0.0
  0
LINE
  5
17B
330
139
100
AcDbEntity
  8
DV2_Default
  6
Continuous
 62
     7
 48
25.4
100
AcDbLine
 10
434.9573763507
 20
388.1916635387
 30
0.0
 11
450.4573763507
 21
388.1916635387
 31
0.0
  0
LINE
  5
17C
330
139
100
AcDbEntity
  8
DV2_Default
  6
Continuous
 62
     7
 48
25.4
100
AcDbLine
 10
450.4573763507
 20
388.1916635387
 30
0.0
 11
450.4573763507
 21
305.6916635387
 31
0.0
  0
LINE
  5
17D
330
139
100
AcDbEntity
  8
DV2_Default
  6
Continuous
 62
     7
 48
25.4
100
AcDbLine
 10
450.4573763507
 20
305.6916635387
 30
0.0
 11
419.4573763507
 21
305.6916635387
 31
0.0
  0
LINE
  5
17E
330
139
100
AcDbEntity
  8
DV2_Default
  6
Continuous
 62
     7
 48
25.4
100
AcDbLine
 10
419.4573763507
 20
305.6916635387
 30
0.0
 11
419.4573763507
 21
388.1916635387
 31
0.0
  0
LINE
  5
17F
330
139
100
AcDbEntity
  8
DV2_Default
  6
Continuous
 62
     7
 48
25.4
100
AcDbLine
 10
434.9573763507
 20
387.1916635387
 30
0.0
 11
434.9573763507
 21
387.6916635387
 31
0.0
  0
LINE
  5
180
330
139
100
AcDbEntity
  8
DV2_Default
  6
Continuous
 62
     7
 48
25.4
100
AcDbLine
 10
450.4573763507
 20
387.6916635387
 30
0.0
 11
451.4573763507
 21
387.6916635387
 31
0.0
  0
LINE
  5
181
330
139
100
AcDbEntity
  8
DV2_Default
  6
Continuous
 62
     7
 48
25.4
100
AcDbLine
 10
434.9573763507
 20
388.1916635387
 30
0.0
 11
419.4573763507
 21
388.1916635387
 31
0.0
  0
LINE
  5
182
330
139
100
AcDbEntity
  8
DV2_Default
  6
Continuous
 62
     7
 48
25.4
100
AcDbLine
 10
434.9573763507
 20
387.1916635387
 30
0.0
 11
434.9573763507
 21
387.6916635387
 31
0.0
  0
LINE
  5
183
330
139
100
AcDbEntity
  8
DV2_Default
  6
Continuous
 62
     7
 48
25.4
100
AcDbLine
 10
419.4573763507
 20
387.6916635387
 30
0.0
 11
418.4573763507
 21
387.6916635387
 31
0.0
  0
LINE
  5
184
330
139
100
AcDbEntity
  8
DV2_Default
  6
Continuous
 62
     7
 48
25.4
100
AcDbLine
 10
418.4573763507
 20
387.6916635387
 30
0.0
 11
411.4096816948
 21
385.1265124638
 31
0.0
  0
LINE
  5
185
330
139
100
AcDbEntity
  8
DV2_Default
  6
Continuous
 62
     7
 48
25.4
100
AcDbLine
 10
411.4096816948
 20
385.1265124638
 30
0.0
 11
411.4096816948
 21
384.2350467056
 31
0.0
  0
LINE
  5
186
330
139
100
AcDbEntity
  8
DV2_Default
  6
Continuous
 62
     7
 48
25.4
100
AcDbLine
 10
450.4573763507
 20
387.6916635387
 30
0.0
 11
451.4573763507
 21
387.6916635387
 31
0.0
  0
LINE
  5
187
330
139
100
AcDbEntity
  8
DV2_Default
  6
Continuous
 62
     7
 48
25.4
100
AcDbLine
 10
451.4573763507
 20
387.6916635387
 30
0.0
 11
458.5050710066
 21
385.1265124638
 31
0.0
  0
LINE
  5
188
330
139
100
AcDbEntity
  8
DV2_Default
  6
Continuous
 62
     7
 48
25.4
100
AcDbLine
 10
458.5050710066
 20
385.1265124638
 30
0.0
 11
458.5050710066
 21
384.2350467056
 31
0.0
  0
ARC
  5
189
330
139
100
AcDbEntity
  8
DV2_Default
  6
Continuous
 62
     7
 48
25.4
100
AcDbCircle
 10
434.9573763507
 20
291.9416635387
 30
0.0
 40
95.25
100
AcDbArc
 50
219.9755752805
 51
320.0244247195
  0
CIRCLE
  5
18A
330
139
100
AcDbEntity
  8
DV2_Default
  6
Continuous
 62
     7
 48
25.4
100
AcDbCircle
 10
434.9573763507
 20
369.6916635387
 30
0.0
 40
7.999999999999998
  0
CIRCLE
  5
18B
330
139
100
AcDbEntity
  8
DV2_Default
  6
Continuous
 62
     7
 48
25.4
100
AcDbCircle
 10
434.9573763507
 20
369.6916635387
 30
0.0
 40
7.5
  0
LINE
  5
18C
330
139
100
AcDbEntity
  8
DV2_Default
  6
Continuous
 62
     7
 48
25.4
100
AcDbLine
 10
434.9573763507
 20
374.6916635387
 30
0.0
 11
430.6272493318
 21
372.1916635387
 31
0.0
  0
LINE
  5
18D
330
139
100
AcDbEntity
  8
DV2_Default
  6
Continuous
 62
     7
 48
25.4
100
AcDbLine
 10
430.6272493318
 20
372.1916635387
 30
0.0
 11
430.6272493318
 21
367.1916635387
 31
0.0
  0
LINE
  5
18E
330
139
100
AcDbEntity
  8
DV2_Default
  6
Continuous
 62
     7
 48
25.4
100
AcDbLine
 10
430.6272493318
 20
367.1916635387
 30
0.0
 11
434.9573763507
 21
364.6916635387
 31
0.0
  0
LINE
  5
18F
330
139
100
AcDbEntity
  8
DV2_Default
  6
Continuous
 62
     7
 48
25.4
100
AcDbLine
 10
434.9573763507
 20
364.6916635387
 30
0.0
 11
439.2875033696
 21
367.1916635387
 31
0.0
  0
LINE
  5
190
330
139
100
AcDbEntity
  8
DV2_Default
  6
Continuous
 62
     7
 48
25.4
100
AcDbLine
 10
439.2875033696
 20
367.1916635387
 30
0.0
 11
439.2875033696
 21
372.1916635387
 31
0.0
  0
LINE
  5
191
330
139
100
AcDbEntity
  8
DV2_Default
  6
Continuous
 62
     7
 48
25.4
100
AcDbLine
 10
439.2875033696
 20
372.1916635387
 30
0.0
 11
434.9573763507
 21
374.6916635387
 31
0.0
  0
LINE
  5
192
330
139
100
AcDbEntity
  8
DV2_Default
  6
CENTER2
 62
     7
 48
25.4
100
AcDbLine
 10
425.2073763507
 20
369.6916635387
 30
0.0
 11
444.7073763507
 21
369.6916635387
 31
0.0
  0
CIRCLE
  5
193
330
139
100
AcDbEntity
  8
DV2_Default
  6
Continuous
 62
     7
 48
25.4
100
AcDbCircle
 10
434.9573763507
 20
348.1916635387
 30
0.0
 40
7.999999999999998
  0
CIRCLE
  5
194
330
139
100
AcDbEntity
  8
DV2_Default
  6
Continuous
 62
     7
 48
25.4
100
AcDbCircle
 10
434.9573763507
 20
348.1916635387
 30
0.0
 40
7.5
  0
LINE
  5
195
330
139
100
AcDbEntity
  8
DV2_Default
  6
Continuous
 62
     7
 48
25.4
100
AcDbLine
 10
434.9573763507
 20
343.1916635387
 30
0.0
 11
430.6272493318
 21
345.6916635387
 31
0.0
  0
LINE
  5
196
330
139
100
AcDbEntity
  8
DV2_Default
  6
Continuous
 62
     7
 48
25.4
100
AcDbLine
 10
430.6272493318
 20
345.6916635387
 30
0.0
 11
430.6272493318
 21
350.6916635387
 31
0.0
  0
LINE
  5
197
330
139
100
AcDbEntity
  8
DV2_Default
  6
Continuous
 62
     7
 48
25.4
100
AcDbLine
 10
430.6272493318
 20
350.6916635387
 30
0.0
 11
434.9573763507
 21
353.1916635387
 31
0.0
  0
LINE
  5
198
330
139
100
AcDbEntity
  8
DV2_Default
  6
Continuous
 62
     7
 48
25.4
100
AcDbLine
 10
434.9573763507
 20
353.1916635387
 30
0.0
 11
439.2875033696
 21
350.6916635387
 31
0.0
  0
LINE
  5
199
330
139
100
AcDbEntity
  8
DV2_Default
  6
Continuous
 62
     7
 48
25.4
100
AcDbLine
 10
439.2875033696
 20
350.6916635387
 30
0.0
 11
439.2875033696
 21
345.6916635387
 31
0.0
  0
LINE
  5
19A
330
139
100
AcDbEntity
  8
DV2_Default
  6
Continuous
 62
     7
 48
25.4
100
AcDbLine
 10
439.2875033696
 20
345.6916635387
 30
0.0
 11
434.9573763507
 21
343.1916635387
 31
0.0
  0
LINE
  5
19B
330
139
100
AcDbEntity
  8
DV2_Default
  6
CENTER2
 62
     7
 48
25.4
100
AcDbLine
 10
424.3490651949
 20
348.1916635387
 30
0.0
 11
445.3941032307
 21
348.1916635387
 31
0.0
  0
LINE
  5
19C
330
139
100
AcDbEntity
  8
DV2_Default
  6
Continuous
 62
     7
 48
25.4
100
AcDbLine
 10
517.4462960612
 20
244.3166635387
 30
0.0
 11
517.8793087631
 21
244.0666635387
 31
0.0
  0
LINE
  5
19D
330
139
100
AcDbEntity
  8
DV2_Default
  6
Continuous
 62
     7
 48
25.4
100
AcDbLine
 10
517.8793087631
 20
244.0666635387
 30
0.0
 11
510.1293087631
 21
230.6432697801
 31
0.0
  0
LINE
  5
19E
330
139
100
AcDbEntity
  8
DV2_Default
  6
Continuous
 62
     7
 48
25.4
100
AcDbLine
 10
510.1293087631
 20
230.6432697801
 30
0.0
 11
509.6293087631
 21
229.7772443763
 31
0.0
  0
LINE
  5
19F
330
139
100
AcDbEntity
  8
DV2_Default
  6
Continuous
 62
     7
 48
25.4
100
AcDbLine
 10
509.6293087631
 20
229.7772443763
 30
0.0
 11
455.5027210266
 21
261.0272443763
 31
0.0
  0
LINE
  5
1A0
330
139
100
AcDbEntity
  8
DV2_Default
  6
Continuous
 62
     7
 48
25.4
100
AcDbLine
 10
452.4781021306
 20
255.7884507749
 30
0.0
 11
475.0273399226
 21
294.8448763026
 31
0.0
  0
LINE
  5
1A1
330
139
100
AcDbEntity
  8
DV2_Default
  6
Continuous
 62
     7
 48
25.4
100
AcDbLine
 10
517.4462960612
 20
244.3166635387
 30
0.0
 11
517.8793087631
 21
244.0666635387
 31
0.0
  0
LINE
  5
1A2
330
139
100
AcDbEntity
  8
DV2_Default
  6
Continuous
 62
     7
 48
25.4
100
AcDbLine
 10
517.8793087631
 20
244.0666635387
 30
0.0
 11
525.6293087631
 21
257.4900572974
 31
0.0
  0
LINE
  5
1A3
330
139
100
AcDbEntity
  8
DV2_Default
  6
Continuous
 62
     7
 48
25.4
100
AcDbLine
 10
525.6293087631
 20
257.4900572974
 30
0.0
 11
526.1293087631
 21
258.3560827012
 31
0.0
  0
LINE
  5
1A4
330
139
100
AcDbEntity
  8
DV2_Default
  6
Continuous
 62
     7
 48
25.4
100
AcDbLine
 10
526.1293087631
 20
258.3560827012
 30
0.0
 11
472.0027210266
 21
289.6060827012
 31
0.0
  0
LINE
  5
1A5
330
139
100
AcDbEntity
  8
DV2_Default
  6
Continuous
 62
     7
 48
25.4
100
AcDbLine
 10
448.6602822518
 20
254.1757927707
 30
0.0
 11
474.5150327824
 21
298.9575343067
 31
0.0
  0
LINE
  5
1A6
330
139
100
AcDbEntity
  8
DV2_Default
  6
Continuous
 62
     7
 48
25.4
100
AcDbLine
 10
526.1293087631
 20
258.3560827012
 30
0.0
 11
527.4316700956
 21
265.7421408488
 31
0.0
  0
LINE
  5
1A7
330
139
100
AcDbEntity
  8
DV2_Default
  6
Continuous
 62
     7
 48
25.4
100
AcDbLine
 10
527.4316700956
 20
265.7421408488
 30
0.0
 11
526.6596381024
 21
266.1878737278
 31
0.0
  0
LINE
  5
1A8
330
139
100
AcDbEntity
  8
DV2_Default
  6
Continuous
 62
     7
 48
25.4
100
AcDbLine
 10
510.1293087631
 20
230.6432697801
 30
0.0
 11
509.6293087631
 21
229.7772443763
 31
0.0
  0
LINE
  5
1A9
330
139
100
AcDbEntity
  8
DV2_Default
  6
Continuous
 62
     7
 48
25.4
100
AcDbLine
 10
509.6293087631
 20
229.7772443763
 30
0.0
 11
503.8839754397
 21
224.9563373036
 31
0.0
  0
LINE
  5
1AA
330
139
100
AcDbEntity
  8
DV2_Default
  6
Continuous
 62
     7
 48
25.4
100
AcDbLine
 10
503.8839754397
 20
224.9563373036
 30
0.0
 11
503.1119434465
 21
225.4020701827
 31
0.0
  0
CIRCLE
  5
1AB
330
139
100
AcDbEntity
  8
DV2_Default
  6
Continuous
 62
     7
 48
25.4
100
AcDbCircle
 10
500.5588006874
 20
254.0666635387
 30
0.0
 40
5.0
  0
CIRCLE
  5
1AC
330
139
100
AcDbEntity
  8
DV2_Default
  6
Continuous
 62
     7
 48
25.4
100
AcDbCircle
 10
481.939254506
 20
264.8166635387
 30
0.0
 40
5.0
  0
CIRCLE
  5
1AD
330
139
100
AcDbEntity
  8
DV2_Default
  6
Continuous
 62
     7
 48
25.4
100
AcDbCircle
 10
481.939254506
 20
264.8166635387
 30
0.0
 40
4.500000000000001
  0
CIRCLE
  5
1AE
330
139
100
AcDbEntity
  8
DV2_Default
  6
Continuous
 62
     7
 48
25.4
100
AcDbCircle
 10
500.5588006874
 20
254.0666635387
 30
0.0
 40
4.500000000000001
  0
LINE
  5
1AF
330
139
100
AcDbEntity
  8
DV2_Default
  6
Continuous
 62
     7
 48
25.4
100
AcDbLine
 10
517.8793087631
 20
244.0666635387
 30
0.0
 11
514.7543087631
 21
238.6540047651
 31
0.0
  0
LINE
  5
1B0
330
139
100
AcDbEntity
  8
DV2_Default
  6
Continuous
 62
     7
 48
25.4
100
AcDbLine
 10
514.7543087631
 20
238.6540047651
 30
0.0
 11
466.2013462764
 21
266.6860707267
 31
0.0
  0
LINE
  5
1B1
330
139
100
AcDbEntity
  8
DV2_Default
  6
Continuous
 62
     7
 48
25.4
100
AcDbLine
 10
466.2013462764
 20
266.6860707267
 30
0.0
 11
461.0763462764
 21
257.8093103379
 31
0.0
  0
LINE
  5
1B2
330
139
100
AcDbEntity
  8
DV2_Default
  6
Continuous
 62
     7
 48
25.4
100
AcDbLine
 10
525.6293087631
 20
257.4900572974
 30
0.0
 11
526.1293087631
 21
258.3560827012
 31
0.0
  0
LINE
  5
1B3
330
139
100
AcDbEntity
  8
DV2_Default
  6
Continuous
 62
     7
 48
25.4
100
AcDbLine
 10
525.6293087631
 20
257.4900572974
 30
0.0
 11
526.1293087631
 21
258.3560827012
 31
0.0
  0
LINE
  5
1B4
330
139
100
AcDbEntity
  8
DV2_Default
  6
Continuous
 62
     7
 48
25.4
100
AcDbLine
 10
521.0043087631
 20
249.4793223124
 30
0.0
 11
472.4513462764
 21
277.511388274
 31
0.0
  0
LINE
  5
1B5
330
139
100
AcDbEntity
  8
DV2_Default
  6
Continuous
 62
     7
 48
25.4
100
AcDbLine
 10
472.4513462764
 20
277.511388274
 30
0.0
 11
477.5763462764
 21
286.3881486628
 31
0.0
  0
LINE
  5
1B6
330
139
100
AcDbEntity
  8
DV2_Default
  6
Continuous
 62
     7
 48
25.4
100
AcDbLine
 10
506.0940547252
 20
243.6540047651
 30
0.0
 11
512.3440547252
 21
254.4793223124
 31
0.0
  0
ARC
  5
1B7
330
139
100
AcDbEntity
  8
DV2_Default
  6
Continuous
 62
     7
 48
25.4
100
AcDbCircle
 10
470.6760410468
 20
271.3194828613
 30
0.0
 40
6.500000000000001
100
AcDbArc
 50
73.872859549
 51
226.127140451
  0
ARC
  5
1B8
330
139
100
AcDbEntity
  8
DV2_Default
  6
Continuous
 62
     7
 48
25.4
100
AcDbCircle
 10
471.7008511902
 20
270.7475198313
 30
0.0
 40
8.033518305671219
100
AcDbArc
 50
81.5230712118
 51
218.5230447866
  0
LINE
  5
1B9
330
139
100
AcDbEntity
  8
DV2_Default
  6
Continuous
 62
     7
 48
25.4
100
AcDbLine
 10
472.9530385739
 20
266.2520809764
 30
0.0
 11
476.2030385739
 21
271.881246101
 31
0.0
  0
LINE
  5
1BA
330
139
100
AcDbEntity
  8
DV2_Default
  6
Continuous
 62
     7
 48
25.4
100
AcDbLine
 10
472.9530385739
 20
266.2520809764
 30
0.0
 11
474.0511147852
 21
262.1540047651
 31
0.0
  0
LINE
  5
1BB
330
139
100
AcDbEntity
  8
DV2_Default
  6
Continuous
 62
     7
 48
25.4
100
AcDbLine
 10
480.3011147852
 20
272.9793223124
 30
0.0
 11
476.2030385739
 21
271.881246101
 31
0.0
  0
LINE
  5
1BC
330
139
100
AcDbEntity
  8
DV2_Default
  6
Continuous
 62
     7
 48
25.4
100
AcDbLine
 10
352.4684566403
 20
244.3166635387
 30
0.0
 11
352.0354439384
 21
244.0666635387
 31
0.0
  0
LINE
  5
1BD
330
139
100
AcDbEntity
  8
DV2_Default
  6
Continuous
 62
     7
 48
25.4
100
AcDbLine
 10
352.0354439384
 20
244.0666635387
 30
0.0
 11
344.2854439384
 21
257.4900572974
 31
0.0
  0
LINE
  5
1BE
330
139
100
AcDbEntity
  8
DV2_Default
  6
Continuous
 62
     7
 48
25.4
100
AcDbLine
 10
344.2854439384
 20
257.4900572974
 30
0.0
 11
343.7854439384
 21
258.3560827012
 31
0.0
  0
LINE
  5
1BF
330
139
100
AcDbEntity
  8
DV2_Default
  6
Continuous
 62
     7
 48
25.4
100
AcDbLine
 10
343.7854439384
 20
258.3560827012
 30
0.0
 11
397.9120316749
 21
289.6060827012
 31
0.0
  0
LINE
  5
1C0
330
139
100
AcDbEntity
  8
DV2_Default
  6
Continuous
 62
     7
 48
25.4
100
AcDbLine
 10
394.8874127789
 20
294.8448763026
 30
0.0
 11
417.4366505709
 21
255.7884507749
 31
0.0
  0
LINE
  5
1C1
330
139
100
AcDbEntity
  8
DV2_Default
  6
Continuous
 62
     7
 48
25.4
100
AcDbLine
 10
352.4684566403
 20
244.3166635387
 30
0.0
 11
352.0354439384
 21
244.0666635387
 31
0.0
  0
LINE
  5
1C2
330
139
100
AcDbEntity
  8
DV2_Default
  6
Continuous
 62
     7
 48
25.4
100
AcDbLine
 10
352.0354439384
 20
244.0666635387
 30
0.0
 11
359.7854439384
 21
230.6432697801
 31
0.0
  0
LINE
  5
1C3
330
139
100
AcDbEntity
  8
DV2_Default
  6
Continuous
 62
     7
 48
25.4
100
AcDbLine
 10
359.7854439384
 20
230.6432697801
 30
0.0
 11
360.2854439384
 21
229.7772443763
 31
0.0
  0
LINE
  5
1C4
330
139
100
AcDbEntity
  8
DV2_Default
  6
Continuous
 62
     7
 48
25.4
100
AcDbLine
 10
360.2854439384
 20
229.7772443763
 30
0.0
 11
414.4120316749
 21
261.0272443763
 31
0.0
  0
LINE
  5
1C5
330
139
100
AcDbEntity
  8
DV2_Default
  6
Continuous
 62
     7
 48
25.4
100
AcDbLine
 10
395.399719919
 20
298.9575343067
 30
0.0
 11
421.2544704497
 21
254.1757927707
 31
0.0
  0
LINE
  5
1C6
330
139
100
AcDbEntity
  8
DV2_Default
  6
Continuous
 62
     7
 48
25.4
100
AcDbLine
 10
360.2854439384
 20
229.7772443763
 30
0.0
 11
366.0307772618
 21
224.9563373036
 31
0.0
  0
LINE
  5
1C7
330
139
100
AcDbEntity
  8
DV2_Default
  6
Continuous
 62
     7
 48
25.4
100
AcDbLine
 10
366.0307772618
 20
224.9563373036
 30
0.0
 11
366.8028092549
 21
225.4020701827
 31
0.0
  0
LINE
  5
1C8
330
139
100
AcDbEntity
  8
DV2_Default
  6
Continuous
 62
     7
 48
25.4
100
AcDbLine
 10
344.2854439384
 20
257.4900572974
 30
0.0
 11
343.7854439384
 21
258.3560827012
 31
0.0
  0
LINE
  5
1C9
330
139
100
AcDbEntity
  8
DV2_Default
  6
Continuous
 62
     7
 48
25.4
100
AcDbLine
 10
343.7854439384
 20
258.3560827012
 30
0.0
 11
342.4830826059
 21
265.7421408488
 31
0.0
  0
LINE
  5
1CA
330
139
100
AcDbEntity
  8
DV2_Default
  6
Continuous
 62
     7
 48
25.4
100
AcDbLine
 10
342.4830826059
 20
265.7421408488
 30
0.0
 11
343.255114599
 21
266.1878737278
 31
0.0
  0
CIRCLE
  5
1CB
330
139
100
AcDbEntity
  8
DV2_Default
  6
Continuous
 62
     7
 48
25.4
100
AcDbCircle
 10
369.3559520141
 20
254.0666635387
 30
0.0
 40
5.0
  0
CIRCLE
  5
1CC
330
139
100
AcDbEntity
  8
DV2_Default
  6
Continuous
 62
     7
 48
25.4
100
AcDbCircle
 10
387.9754981954
 20
264.8166635387
 30
0.0
 40
5.0
  0
CIRCLE
  5
1CD
330
139
100
AcDbEntity
  8
DV2_Default
  6
Continuous
 62
     7
 48
25.4
100
AcDbCircle
 10
387.9754981954
 20
264.8166635387
 30
0.0
 40
4.500000000000001
  0
CIRCLE
  5
1CE
330
139
100
AcDbEntity
  8
DV2_Default
  6
Continuous
 62
     7
 48
25.4
100
AcDbCircle
 10
369.3559520141
 20
254.0666635387
 30
0.0
 40
4.500000000000001
  0
LINE
  5
1CF
330
139
100
AcDbEntity
  8
DV2_Default
  6
Continuous
 62
     7
 48
25.4
100
AcDbLine
 10
352.0354439384
 20
244.0666635387
 30
0.0
 11
348.9104439384
 21
249.4793223124
 31
0.0
  0
LINE
  5
1D0
330
139
100
AcDbEntity
  8
DV2_Default
  6
Continuous
 62
     7
 48
25.4
100
AcDbLine
 10
348.9104439384
 20
249.4793223124
 30
0.0
 11
397.4634064251
 21
277.511388274
 31
0.0
  0
LINE
  5
1D1
330
139
100
AcDbEntity
  8
DV2_Default
  6
Continuous
 62
     7
 48
25.4
100
AcDbLine
 10
397.4634064251
 20
277.511388274
 30
0.0
 11
392.3384064251
 21
286.3881486628
 31
0.0
  0
LINE
  5
1D2
330
139
100
AcDbEntity
  8
DV2_Default
  6
Continuous
 62
     7
 48
25.4
100
AcDbLine
 10
359.7854439384
 20
230.6432697801
 30
0.0
 11
360.2854439384
 21
229.7772443763
 31
0.0
  0
LINE
  5
1D3
330
139
100
AcDbEntity
  8
DV2_Default
  6
Continuous
 62
     7
 48
25.4
100
AcDbLine
 10
359.7854439384
 20
230.6432697801
 30
0.0
 11
360.2854439384
 21
229.7772443763
 31
0.0
  0
LINE
  5
1D4
330
139
100
AcDbEntity
  8
DV2_Default
  6
Continuous
 62
     7
 48
25.4
100
AcDbLine
 10
355.1604439384
 20
238.6540047651
 30
0.0
 11
403.7134064251
 21
266.6860707267
 31
0.0
  0
LINE
  5
1D5
330
139
100
AcDbEntity
  8
DV2_Default
  6
Continuous
 62
     7
 48
25.4
100
AcDbLine
 10
403.7134064251
 20
266.6860707267
 30
0.0
 11
408.8384064251
 21
257.8093103379
 31
0.0
  0
LINE
  5
1D6
330
139
100
AcDbEntity
  8
DV2_Default
  6
Continuous
 62
     7
 48
25.4
100
AcDbLine
 10
357.5706979762
 20
254.4793223124
 30
0.0
 11
363.8206979762
 21
243.6540047651
 31
0.0
  0
ARC
  5
1D7
330
139
100
AcDbEntity
  8
DV2_Default
  6
Continuous
 62
     7
 48
25.4
100
AcDbCircle
 10
399.2387116546
 20
271.3194828613
 30
0.0
 40
6.500000000000001
100
AcDbArc
 50
313.872859549
 51
106.127140451
  0
ARC
  5
1D8
330
139
100
AcDbEntity
  8
DV2_Default
  6
Continuous
 62
     7
 48
25.4
100
AcDbCircle
 10
398.2309720689
 20
270.7179527581
 30
0.0
 40
8.033518305671219
100
AcDbArc
 50
321.5230712118
 51
98.5230447866
  0
LINE
  5
1D9
330
139
100
AcDbEntity
  8
DV2_Default
  6
Continuous
 62
     7
 48
25.4
100
AcDbLine
 10
393.7117141276
 20
271.881246101
 30
0.0
 11
396.9617141276
 21
266.2520809764
 31
0.0
  0
LINE
  5
1DA
330
139
100
AcDbEntity
  8
DV2_Default
  6
Continuous
 62
     7
 48
25.4
100
AcDbLine
 10
393.7117141276
 20
271.881246101
 30
0.0
 11
389.6136379162
 21
272.9793223124
 31
0.0
  0
LINE
  5
1DB
330
139
100
AcDbEntity
  8
DV2_Default
  6
Continuous
 62
     7
 48
25.4
100
AcDbLine
 10
395.8636379162
 20
262.1540047651
 30
0.0
 11
396.9617141276
 21
266.2520809764
 31
0.0
  0
ARC
  5
1DC
330
139
100
AcDbEntity
  8
DV2_Default
  6
Continuous
 62
     7
 48
25.4
100
AcDbCircle
 10
434.9573763507
 20
291.9416635387
 30
0.0
 40
40.175
100
AcDbArc
 50
354.2490147244
 51
67.3058360493
  0
LINE
  5
1DD
330
139
100
AcDbEntity
  8
DV2_Default
  6
HIDDEN2
 62
     7
 48
25.4
100
AcDbLine
 10
404.5200822521
 20
265.7195020511
 30
0.0
 11
355.7690961588
 21
237.5997881951
 31
0.0
  0
LINE
  5
1DE
330
139
100
AcDbEntity
  8
DV2_Default
  6
HIDDEN2
 62
     7
 48
25.4
100
AcDbLine
 10
397.0403469057
 20
278.6627515654
 30
0.0
 11
348.4311786892
 21
250.3094340743
 31
0.0
  0
ARC
  5
1DF
330
139
100
AcDbEntity
  8
DV2_Default
  6
Continuous
 62
     7
 48
25.4
100
AcDbCircle
 10
434.9573763507
 20
291.9416635387
 30
0.0
 40
40.175
100
AcDbArc
 50
234.2490147244
 51
305.7509852756
  0
ARC
  5
1E0
330
139
100
AcDbEntity
  8
DV2_Default
  6
Continuous
 62
     7
 48
25.4
100
AcDbCircle
 10
434.9573763507
 20
291.9416635387
 30
0.0
 40
40.175
100
AcDbArc
 50
112.6941639507
 51
185.7509852756
  0
LINE
  5
1E1
330
139
100
AcDbEntity
  8
DV2_Default
  6
HIDDEN2
 62
     7
 48
25.4
100
AcDbLine
 10
465.4157661767
 20
265.74400879
 30
0.0
 11
514.1499889536
 21
237.607292151
 31
0.0
  0
LINE
  5
1E2
330
139
100
AcDbEntity
  8
DV2_Default
  6
HIDDEN2
 62
     7
 48
25.4
100
AcDbLine
 10
472.8850813905
 20
278.6932743707
 30
0.0
 11
521.6245142337
 21
250.5535496985
 31
0.0
  0
ARC
  5
1E3
330
139
100
AcDbEntity
  8
DV2_Default
  6
Continuous
 62
     7
 48
25.4
100
AcDbCircle
 10
434.9573763507
 20
291.9416635387
 30
0.0
 40
95.25
100
AcDbArc
 50
339.9755752805
 51
80.6346289559
  0
ARC
  5
1E4
330
139
100
AcDbEntity
  8
DV2_Default
  6
Continuous
 62
     7
 48
25.4
100
AcDbCircle
 10
434.9573763507
 20
291.9416635387
 30
0.0
 40
95.25
100
AcDbArc
 50
99.3653710441
 51
200.0244247195
  0
LINE
  5
1E5
330
139
100
AcDbEntity
  8
DV2_Default
  6
CENTER2
 62
     7
 48
25.4
100
AcDbLine
 10
421.8223098118
 20
242.9209278546
 30
0.0
 11
417.6812050901
 21
227.4661146339
 31
0.0
  0
LINE
  5
1E6
330
139
100
AcDbEntity
  8
DV2_Default
  6
CENTER2
 62
     7
 48
25.4
100
AcDbLine
 10
448.0924428897
 20
242.9209278546
 30
0.0
 11
452.2335476113
 21
227.4661146339
 31
0.0
  0
CIRCLE
  5
1E7
330
139
100
AcDbEntity
  8
DV2_Default
  6
Continuous
 62
     7
 48
25.4
100
AcDbCircle
 10
419.7517574509
 20
235.1935212442
 30
0.0
 40
8.0
  0
CIRCLE
  5
1E8
330
139
100
AcDbEntity
  8
DV2_Default
  6
Continuous
 62
     7
 48
25.4
100
AcDbCircle
 10
419.7517574509
 20
235.1935212442
 30
0.0
 40
5.249999999999999
  0
CIRCLE
  5
1E9
330
139
100
AcDbEntity
  8
DV2_Default
  6
Continuous
 62
     7
 48
25.4
100
AcDbCircle
 10
450.1629952505
 20
235.1935212442
 30
0.0
 40
8.0
  0
CIRCLE
  5
1EA
330
139
100
AcDbEntity
  8
DV2_Default
  6
Continuous
 62
     7
 48
25.4
100
AcDbCircle
 10
450.1629952505
 20
235.1935212442
 30
0.0
 40
5.249999999999999
  0
ARC
  5
1EB
330
139
100
AcDbEntity
  8
DV2_Default
  6
CENTER2
 62
     7
 48
25.4
100
AcDbCircle
 10
434.9573763507
 20
291.9416635387
 30
0.0
 40
58.75000000000001
100
AcDbArc
 50
247.1919811195
 51
292.8080188805
  0
LINE
  5
1EC
330
139
100
AcDbEntity
  8
DV2_Default
  6
CENTER2
 62
     7
 48
25.4
100
AcDbLine
 10
448.0924428897
 20
242.9209278546
 30
0.0
 11
452.2335476113
 21
227.4661146339
 31
0.0
  0
CIRCLE
  5
1ED
330
139
100
AcDbEntity
  8
DV2_Default
  6
Continuous
 62
     7
 48
25.4
100
AcDbCircle
 10
425.7628297735
 20
257.6271485598
 30
0.0
 40
3.75
  0
CIRCLE
  5
1EE
330
139
100
AcDbEntity
  8
DV2_Default
  6
Continuous
 62
     7
 48
25.4
100
AcDbCircle
 10
425.7628297735
 20
257.6271485598
 30
0.0
 40
3.5
  0
LINE
  5
1EF
330
139
100
AcDbEntity
  8
DV2_Default
  6
Continuous
 62
     7
 48
25.4
100
AcDbLine
 10
426.248115483
 20
259.4382594841
 30
0.0
 11
424.4370045587
 21
258.9529737745
 31
0.0
  0
LINE
  5
1F0
330
139
100
AcDbEntity
  8
DV2_Default
  6
Continuous
 62
     7
 48
25.4
100
AcDbLine
 10
424.4370045587
 20
258.9529737745
 30
0.0
 11
423.9517188492
 21
257.1418628502
 31
0.0
  0
LINE
  5
1F1
330
139
100
AcDbEntity
  8
DV2_Default
  6
Continuous
 62
     7
 48
25.4
100
AcDbLine
 10
423.9517188492
 20
257.1418628502
 30
0.0
 11
425.2775440639
 21
255.8160376355
 31
0.0
  0
LINE
  5
1F2
330
139
100
AcDbEntity
  8
DV2_Default
  6
Continuous
 62
     7
 48
25.4
100
AcDbLine
 10
425.2775440639
 20
255.8160376355
 30
0.0
 11
427.0886549882
 21
256.3013233451
 31
0.0
  0
LINE
  5
1F3
330
139
100
AcDbEntity
  8
DV2_Default
  6
Continuous
 62
     7
 48
25.4
100
AcDbLine
 10
427.0886549882
 20
256.3013233451
 30
0.0
 11
427.5739406977
 21
258.1124342694
 31
0.0
  0
LINE
  5
1F4
330
139
100
AcDbEntity
  8
DV2_Default
  6
Continuous
 62
     7
 48
25.4
100
AcDbLine
 10
427.5739406977
 20
258.1124342694
 30
0.0
 11
426.248115483
 21
259.4382594841
 31
0.0
  0
CIRCLE
  5
1F5
330
139
100
AcDbEntity
  8
DV2_Default
  6
Continuous
 62
     7
 48
25.4
100
AcDbCircle
 10
444.151922928
 20
257.6271485598
 30
0.0
 40
3.75
  0
CIRCLE
  5
1F6
330
139
100
AcDbEntity
  8
DV2_Default
  6
Continuous
 62
     7
 48
25.4
100
AcDbCircle
 10
444.151922928
 20
257.6271485598
 30
0.0
 40
3.5
  0
LINE
  5
1F7
330
139
100
AcDbEntity
  8
DV2_Default
  6
Continuous
 62
     7
 48
25.4
100
AcDbLine
 10
443.6666372184
 20
259.4382594841
 30
0.0
 11
442.3408120037
 21
258.1124342694
 31
0.0
  0
LINE
  5
1F8
330
139
100
AcDbEntity
  8
DV2_Default
  6
Continuous
 62
     7
 48
25.4
100
AcDbLine
 10
442.3408120037
 20
258.1124342694
 30
0.0
 11
442.8260977133
 21
256.3013233451
 31
0.0
  0
LINE
  5
1F9
330
139
100
AcDbEntity
  8
DV2_Default
  6
Continuous
 62
     7
 48
25.4
100
AcDbLine
 10
442.8260977133
 20
256.3013233451
 30
0.0
 11
444.6372086376
 21
255.8160376355
 31
0.0
  0
LINE
  5
1FA
330
139
100
AcDbEntity
  8
DV2_Default
  6
Continuous
 62
     7
 48
25.4
100
AcDbLine
 10
444.6372086376
 20
255.8160376355
 30
0.0
 11
445.9630338523
 21
257.1418628502
 31
0.0
  0
LINE
  5
1FB
330
139
100
AcDbEntity
  8
DV2_Default
  6
Continuous
 62
     7
 48
25.4
100
AcDbLine
 10
445.9630338523
 20
257.1418628502
 30
0.0
 11
445.4777481427
 21
258.9529737745
 31
0.0
  0
LINE
  5
1FC
330
139
100
AcDbEntity
  8
DV2_Default
  6
Continuous
 62
     7
 48
25.4
100
AcDbLine
 10
445.4777481427
 20
258.9529737745
 30
0.0
 11
443.6666372184
 21
259.4382594841
 31
0.0
  0
LINE
  5
1FD
330
139
100
AcDbEntity
  8
DV2_Default
  6
CENTER2
 62
     7
 48
25.4
100
AcDbLine
 10
421.8223098118
 20
242.9209278546
 30
0.0
 11
417.6812050901
 21
227.4661146339
 31
0.0
  0
LINE
  5
1FE
330
139
100
AcDbEntity
  8
DV2_Default
  6
CENTER2
 62
     7
 48
25.4
100
AcDbLine
 10
426.7334011926
 20
261.2493704084
 30
0.0
 11
424.7922583543
 21
254.0049267112
 31
0.0
  0
LINE
  5
1FF
330
139
100
AcDbEntity
  8
DV2_Default
  6
CENTER2
 62
     7
 48
25.4
100
AcDbLine
 10
443.1813515089
 20
261.2493704084
 30
0.0
 11
445.1224943471
 21
254.0049267112
 31
0.0
  0
ARC
  5
200
330
139
100
AcDbEntity
  8
DV2_Default
  6
CENTER2
 62
     7
 48
25.4
100
AcDbCircle
 10
434.9573763507
 20
291.9416635387
 30
0.0
 40
35.525
100
AcDbArc
 50
278.9490765948
 51
291.0509234052
  0
ARC
  5
201
330
139
100
AcDbEntity
  8
DV2_Default
  6
CENTER2
 62
     7
 48
25.4
100
AcDbCircle
 10
434.9573763507
 20
291.9416635387
 30
0.0
 40
35.525
100
AcDbArc
 50
248.9490765948
 51
261.0509234052
  0
ARC
  5
202
330
139
100
AcDbEntity
  8
DV2_Default
  6
Continuous
 62
     7
 48
25.4
100
AcDbCircle
 10
434.9573763507
 20
291.9416635387
 30
0.0
 40
29.375
100
AcDbArc
 50
121.8474576693
 51
58.1525423307
  0
ARC
  5
203
330
139
100
AcDbEntity
  8
DV2_Default
  6
Continuous
 62
     7
 48
25.4
100
AcDbCircle
 10
434.9573763507
 20
291.9416635387
 30
0.0
 40
15.0
100
AcDbArc
 50
113.5564643091
 51
66.4435356909
  0
LINE
  5
204
330
139
100
AcDbEntity
  8
DV2_Default
  6
CENTER2
 62
     7
 48
25.4
100
AcDbLine
 10
485.2527067435
 20
271.0638399321
 30
0.0
 11
479.1323116572
 21
259.5659878913
 31
0.0
  0
LINE
  5
205
330
139
100
AcDbEntity
  8
DV2_Default
  6
CENTER2
 62
     7
 48
25.4
100
AcDbLine
 10
503.4377205618
 20
258.8629177475
 30
0.0
 11
497.5104835985
 21
249.1145449598
 31
0.0
  0
LINE
  5
206
330
139
100
AcDbEntity
  8
DV2_Default
  6
CENTER2
 62
     7
 48
25.4
100
AcDbLine
 10
385.0675742392
 20
269.8856426841
 30
0.0
 11
390.9335450832
 21
259.7254831466
 31
0.0
  0
LINE
  5
207
330
139
100
AcDbEntity
  8
DV2_Default
  6
CENTER2
 62
     7
 48
25.4
100
AcDbLine
 10
366.5064557222
 20
259.0447140561
 30
0.0
 11
372.1247652174
 21
249.3135165578
 31
0.0
  0
CIRCLE
  5
208
330
139
100
AcDbEntity
  8
DV2_Default
  6
HIDDEN2
 62
     7
 48
25.4
100
AcDbCircle
 10
499.9573763507
 20
291.9416635387
 30
0.0
 40
2.5
  0
CIRCLE
  5
209
330
139
100
AcDbEntity
  8
DV2_Default
  6
HIDDEN2
 62
     7
 48
25.4
100
AcDbCircle
 10
499.9573763507
 20
291.9416635387
 30
0.0
 40
2.25
  0
CIRCLE
  5
20A
330
139
100
AcDbEntity
  8
DV2_Default
  6
HIDDEN2
 62
     7
 48
25.4
100
AcDbCircle
 10
402.4573763507
 20
348.2333147847
 30
0.0
 40
2.5
  0
CIRCLE
  5
20B
330
139
100
AcDbEntity
  8
DV2_Default
  6
HIDDEN2
 62
     7
 48
25.4
100
AcDbCircle
 10
402.4573763507
 20
348.2333147847
 30
0.0
 40
2.25
  0
LINE
  5
20C
330
139
100
AcDbEntity
  8
DV2_Default
  6
CENTER2
 62
     7
 48
25.4
100
AcDbLine
 10
403.8087580313
 20
345.9247148842
 30
0.0
 11
401.2212852299
 21
350.4063492394
 31
0.0
  0
LINE
  5
20D
330
139
100
AcDbEntity
  8
DV2_Default
  6
CENTER2
 62
     7
 48
25.4
100
AcDbLine
 10
403.8087580313
 20
345.9247148842
 30
0.0
 11
401.2212852299
 21
350.4063492394
 31
0.0
  0
CIRCLE
  5
20E
330
139
100
AcDbEntity
  8
DV2_Default
  6
HIDDEN2
 62
     7
 48
25.4
100
AcDbCircle
 10
402.4573763507
 20
235.6500122927
 30
0.0
 40
2.5
  0
CIRCLE
  5
20F
330
139
100
AcDbEntity
  8
DV2_Default
  6
HIDDEN2
 62
     7
 48
25.4
100
AcDbCircle
 10
402.4573763507
 20
235.6500122927
 30
0.0
 40
2.25
  0
LINE
  5
210
330
139
100
AcDbEntity
  8
DV2_Default
  6
CENTER2
 62
     7
 48
25.4
100
AcDbLine
 10
403.7809916714
 20
237.9746431086
 30
0.0
 11
401.1935188701
 21
233.4930087534
 31
0.0
  0
LINE
  5
211
330
139
100
AcDbEntity
  8
DV2_Default
  6
CENTER2
 62
     7
 48
25.4
100
AcDbLine
 10
403.7809916714
 20
237.9746431086
 30
0.0
 11
401.1935188701
 21
233.4930087534
 31
0.0
  0
ARC
  5
212
330
139
100
AcDbEntity
  8
DV2_Default
  6
CENTER2
 62
     7
 48
25.4
100
AcDbCircle
 10
434.9573763507
 20
291.9416635387
 30
0.0
 40
65.0
100
AcDbArc
 50
117.7961803213
 51
122.2038196787
  0
ARC
  5
213
330
139
100
AcDbEntity
  8
DV2_Default
  6
CENTER2
 62
     7
 48
25.4
100
AcDbCircle
 10
434.9573763507
 20
291.9416635387
 30
0.0
 40
65.0
100
AcDbArc
 50
237.7961803213
 51
242.2038196787
  0
ARC
  5
214
330
139
100
AcDbEntity
  8
DV2_Default
  6
CENTER2
 62
     7
 48
25.4
100
AcDbCircle
 10
434.9573763507
 20
291.9416635387
 30
0.0
 40
65.0
100
AcDbArc
 50
357.7961803213
 51
2.2038196787
  0
ENDBLK
  5
216
330
139
100
AcDbEntity
  8
0
100
AcDbBlockEnd
  0
BLOCK
  5
2B8
330
217
100
AcDbEntity
  8
0
100
AcDbBlockBegin
  2
SE2
 70
     0
 71
     0
 10
0.0
 20
0.0
 30
0.0
  3
SE2
  1

  0
LINE
  5
21A
330
217
100
AcDbEntity
  8
DV3_Default
  6
Continuous
 62
     7
 48
25.4
100
AcDbLine
 10
408.8689354248
 20
132.9812337448
 30
0.0
 11
288.8689354248
 21
132.9812337448
 31
0.0
  0
LINE
  5
21B
330
217
100
AcDbEntity
  8
DV3_Default
  6
Continuous
 62
     7
 48
25.4
100
AcDbLine
 10
408.8689354248
 20
132.9812337448
 30
0.0
 11
408.8689354248
 21
41.1812337448
 31
0.0
  0
LINE
  5
21C
330
217
100
AcDbEntity
  8
DV3_Default
  6
Continuous
 62
     7
 48
25.4
100
AcDbLine
 10
408.8689354248
 20
41.1812337448
 30
0.0
 11
288.8689354248
 21
41.1812337448
 31
0.0
  0
LINE
  5
21D
330
217
100
AcDbEntity
  8
DV3_Default
  6
Continuous
 62
     7
 48
25.4
100
AcDbLine
 10
288.8689354248
 20
41.1812337448
 30
0.0
 11
288.8689354248
 21
132.9812337448
 31
0.0
  0
TEXT
  5
21E
330
217
100
AcDbEntity
  8
DV3_Default
  6
Continuous
 62
     7
 48
25.4
100
AcDbText
 10
287.4632001674
 20
36.3635492377
 30
0.0
 40
3.0
  1
0
  7
SEACAD_arial_ttf
 11
287.4632001674
 21
39.3635492377
 31
0.0
100
AcDbText
 73
     3
  0
TEXT
  5
21F
330
217
100
AcDbEntity
  8
DV3_Default
  6
Continuous
 62
     7
 48
25.4
100
AcDbText
 10
332.0423485588
 20
36.2334296339
 30
0.0
 40
3.0
  1
1000
  7
SEACAD_arial_ttf
 11
332.0423485588
 21
39.2334296339
 31
0.0
100
AcDbText
 73
     3
  0
TEXT
  5
220
330
217
100
AcDbEntity
  8
DV3_Default
  6
Continuous
 62
     7
 48
25.4
100
AcDbText
 10
380.3867447658
 20
36.1053445063
 30
0.0
 40
3.0
  1
2000
  7
SEACAD_arial_ttf
 11
380.3867447658
 21
39.1053445063
 31
0.0
100
AcDbText
 73
     3
  0
TEXT
  5
221
330
217
100
AcDbEntity
  8
DV3_Default
  6
Continuous
 62
     7
 48
25.4
100
AcDbText
 10
283.5550124155
 20
50.2705996714
 30
0.0
 40
3.0
  1
20
  7
SEACAD_arial_ttf
 11
283.5550124155
 21
53.2705996714
 31
0.0
100
AcDbText
 73
     3
  0
TEXT
  5
222
330
217
100
AcDbEntity
  8
DV3_Default
  6
Continuous
 62
     7
 48
25.4
100
AcDbText
 10
283.3036459327
 20
60.4524165052
 30
0.0
 40
3.0
  1
40
  7
SEACAD_arial_ttf
 11
283.3036459327
 21
63.4524165052
 31
0.0
100
AcDbText
 73
     3
  0
TEXT
  5
223
330
217
100
AcDbEntity
  8
DV3_Default
  6
Continuous
 62
     7
 48
25.4
100
AcDbText
 10
283.371160217
 20
70.6179612729
 30
0.0
 40
3.0
  1
60
  7
SEACAD_arial_ttf
 11
283.371160217
 21
73.6179612729
 31
0.0
100
AcDbText
 73
     3
  0
TEXT
  5
224
330
217
100
AcDbEntity
  8
DV3_Default
  6
Continuous
 62
     7
 48
25.4
100
AcDbText
 10
281.2625968009
 20
90.5519167178
 30
0.0
 40
3.0
  1
100
  7
SEACAD_arial_ttf
 11
281.2625968009
 21
93.5519167178
 31
0.0
100
AcDbText
 73
     3
  0
TEXT
  5
225
330
217
100
AcDbEntity
  8
DV3_Default
  6
Continuous
 62
     7
 48
25.4
100
AcDbText
 10
283.2705533785
 20
80.6630487402
 30
0.0
 40
3.0
  1
80
  7
SEACAD_arial_ttf
 11
283.2705533785
 21
83.6630487402
 31
0.0
100
AcDbText
 73
     3
  0
TEXT
  5
226
330
217
100
AcDbEntity
  8
DV3_Default
  6
Continuous
 62
     7
 48
25.4
100
AcDbText
 10
281.4013158906
 20
100.7662175817
 30
0.0
 40
3.0
  1
120
  7
SEACAD_arial_ttf
 11
281.4013158906
 21
103.7662175817
 31
0.0
100
AcDbText
 73
     3
  0
TEXT
  5
227
330
217
100
AcDbEntity
  8
DV3_Default
  6
Continuous
 62
     7
 48
25.4
100
AcDbText
 10
337.3114826504
 20
128.7644782051
 30
0.0
 40
3.6
  1
Input Force
  7
SEACAD_arial_ttf
 11
337.3114826504
 21
132.3644782051
 31
0.0
100
AcDbText
 73
     3
  0
TEXT
  5
228
330
217
100
AcDbEntity
  8
DV3_Default
  6
Continuous
 62
     7
 48
25.4
100
AcDbText
 10
337.608102844
 20
123.5967939649
 30
0.0
 40
3.0
  1
71KN
  7
SEACAD_arial_ttf
 11
337.608102844
 21
126.5967939649
 31
0.0
100
AcDbText
 73
     3
  0
TEXT
  5
229
330
217
100
AcDbEntity
  8
DV3_Default
  6
Continuous
 62
     7
 48
25.4
100
AcDbText
 10
337.5170420355
 20
103.8720067903
 30
0.0
 40
3.0
  1
55.2KN
  7
SEACAD_arial_ttf
 11
337.5170420355
 21
106.8720067903
 31
0.0
100
AcDbText
 73
     3
  0
TEXT
  5
22A
330
217
100
AcDbEntity
  8
DV3_Default
  6
Continuous
 62
     7
 48
25.4
100
AcDbText
 10
337.4379923955
 20
83.7780374969
 30
0.0
 40
3.0
  1
39.4KN
  7
SEACAD_arial_ttf
 11
337.4379923955
 21
86.7780374969
 31
0.0
100
AcDbText
 73
     3
  0
TEXT
  5
22B
330
217
100
AcDbEntity
  8
DV3_Default
  6
Continuous
 62
     7
 48
25.4
100
AcDbText
 10
337.5665089061
 20
63.4535997929
 30
0.0
 40
3.0
  1
23.7KN
  7
SEACAD_arial_ttf
 11
337.5665089061
 21
66.4535997929
 31
0.0
100
AcDbText
 73
     3
  0
TEXT
  5
22C
330
217
100
AcDbEntity
  8
DV3_Default
  6
Continuous
 62
     7
 48
25.4
100
AcDbText
 10
338.1681026341
 20
24.9415033062
 30
0.0
 40
3.6
  1
Speed in min-
  7
SEACAD_arial_ttf
 11
338.1681026341
 21
28.5415033062
 31
0.0
100
AcDbText
 73
     3
  0
TEXT
  5
22D
330
217
100
AcDbEntity
  8
DV3_Default
  6
Continuous
 62
     7
 48
25.4
100
AcDbText
 10
369.3941895906
 20
24.9415033062
 30
0.0
 40
2.7516666667
  1
¹
  7
SEACAD_arial_ttf
 11
369.3941895906
 21
27.6931699728
 31
0.0
100
AcDbText
 73
     3
  0
TEXT
  5
22E
330
217
100
AcDbEntity
  8
DV3_Default
  6
Continuous
 62
     7
 48
25.4
100
AcDbText
 10
245.7546572939
 20
89.7496545203
 30
0.0
 40
3.6
  1
Total Gripping 
  7
SEACAD_arial_ttf
 11
245.7546572939
 21
93.3496545203
 31
0.0
100
AcDbText
 73
     3
  0
TEXT
  5
22F
330
217
100
AcDbEntity
  8
DV3_Default
  6
Continuous
 62
     7
 48
25.4
100
AcDbText
 10
245.7546572939
 20
84.1148719116
 30
0.0
 40
3.6
  1
Force in KN
  7
SEACAD_arial_ttf
 11
245.7546572939
 21
87.7148719116
 31
0.0
100
AcDbText
 73
     3
  0
TEXT
  5
230
330
217
100
AcDbEntity
  8
DV3_Default
  6
Continuous
 62
     7
 48
25.4
100
AcDbText
 10
300.8819703015
 20
145.6138341511
 30
0.0
 40
3.6
  1
Gripping Characteristic Graph For B-15A11
  7
SEACAD_arial_ttf
 11
300.8819703015
 21
149.2138341511
 31
0.0
100
AcDbText
 73
     3
  0
LWPOLYLINE
  5
231
330
217
100
AcDbEntity
  8
DV3_Default
  6
Continuous
 62
     7
 48
25.4
100
AcDbPolyline
 90
        2
 70
     0
 43
0.0
 10
413.0960273844
 20
46.2019048704
 10
382.7766798937
 20
58.3493237319
  0
HATCH
  5
232
330
217
100
AcDbEntity
  8
DV3_Default
  6
Continuous
 62
     7
 48
25.4
100
AcDbHatch
 10
0.0
 20
0.0
 30
0.0
210
0.0
220
0.0
230
1.0
  2
SOLID
 70
     1
 71
     0
 91
        1
 92
        1
 93
        3
 72
     1
 10
386.3415935476203
 20
57.56740885696422
 11
382.7766798936985
 21
58.3493237318997
 72
     1
 10
382.7766798936984
 20
58.3493237318997
 11
385.8953014987806
 21
56.45348631379686
 72
     1
 10
385.8953014987806
 20
56.45348631379686
 11
386.3415935476203
 21
57.56740885696422
 97
        0
 75
     0
 76
     1
 98
        0
  0
LWPOLYLINE
  5
233
330
217
100
AcDbEntity
  8
DV3_Default
  6
Continuous
 62
     7
 48
25.4
370
    20
100
AcDbPolyline
 90
        4
 70
     1
 43
0.00025
 10
386.3415935476
 20
57.567408857
 10
382.7766798937
 20
58.3493237319
 10
385.8953014988
 20
56.4534863138
 10
386.3415935476
 20
57.567408857
  0
LINE
  5
234
330
217
100
AcDbEntity
  8
DV3_Default
  6
Continuous
 62
     7
 48
25.4
100
AcDbLine
 10
413.0960273844
 20
46.2019048704
 30
0.0
 11
465.1395056453
 21
46.2019048704
 31
0.0
  0
TEXT
  5
235
330
217
100
AcDbEntity
  8
DV3_Default
  6
Continuous
 62
     7
 48
25.4
100
AcDbText
 10
413.0960273844
 20
47.1019048704
 30
0.0
 40
3.6
  1
Revolution Speed Limit
  7
SEACAD_arial_ttf
 11
413.0960273844
 21
50.7019048704
 31
0.0
100
AcDbText
 73
     3
  0
TEXT
  5
236
330
217
100
AcDbEntity
  8
DV3_Default
  6
Continuous
 62
     7
 48
25.4
100
AcDbText
 10
22.2928993957
 20
127.6754926761
 30
0.0
 40
3.0
  1
SPINDLE NOSE SIZE
  7
SEACAD_arial_ttf
 11
22.2928993957
 21
130.6754926761
 31
0.0
100
AcDbText
 73
     3
  0
TEXT
  5
237
330
217
100
AcDbEntity
  8
DV3_Default
  6
Continuous
 62
     7
 48
25.4
100
AcDbText
 10
111.8092631322
 20
127.5764343275
 30
0.0
 40
3.0
  1
A2-11
  7
SEACAD_arial_ttf
 11
111.8092631322
 21
130.5764343275
 31
0.0
100
AcDbText
 73
     3
  0
TEXT
  5
238
330
217
100
AcDbEntity
  8
DV3_Default
  6
Continuous
 62
     7
 48
25.4
100
AcDbText
 10
22.629882325
 20
63.2504492026
 30
0.0
 40
3.0
  1
TOTAL GRIPPING FORCE AT MAX. SPEED
  7
SEACAD_arial_ttf
 11
22.629882325
 21
66.2504492026
 31
0.0
100
AcDbText
 73
     3
  0
TEXT
  5
239
330
217
100
AcDbEntity
  8
DV3_Default
  6
Continuous
 62
     7
 48
25.4
100
AcDbText
 10
111.567556595
 20
19.7891565608
 30
0.0
 40
3.0
  1
SB15C1/KSJ-215
  7
SEACAD_arial_ttf
 11
111.567556595
 21
22.7891565608
 31
0.0
100
AcDbText
 73
     3
  0
LINE
  5
23A
330
217
100
AcDbEntity
  8
DV3_Default
  6
Continuous
 62
     7
 48
25.4
100
AcDbLine
 10
19.9417796228
 20
24.7820795245
 30
0.0
 11
163.9417796228
 21
24.7820795245
 31
0.0
  0
LINE
  5
23B
330
217
100
AcDbEntity
  8
DV3_Default
  6
Continuous
 62
     7
 48
25.4
100
AcDbLine
 10
163.9417796228
 20
132.7820795245
 30
0.0
 11
19.9417796228
 21
132.7820795245
 31
0.0
  0
LINE
  5
23C
330
217
100
AcDbEntity
  8
DV3_Default
  6
Continuous
 62
     7
 48
25.4
100
AcDbLine
 10
19.9417796228
 20
125.5820795245
 30
0.0
 11
163.9417796228
 21
125.5820795245
 31
0.0
  0
LINE
  5
23D
330
217
100
AcDbEntity
  8
DV3_Default
  6
Continuous
 62
     7
 48
25.4
100
AcDbLine
 10
163.9417796228
 20
118.3820795245
 30
0.0
 11
19.9417796228
 21
118.3820795245
 31
0.0
  0
LINE
  5
23E
330
217
100
AcDbEntity
  8
DV3_Default
  6
Continuous
 62
     7
 48
25.4
100
AcDbLine
 10
19.9417796228
 20
111.1820795245
 30
0.0
 11
163.9417796228
 21
111.1820795245
 31
0.0
  0
LINE
  5
23F
330
217
100
AcDbEntity
  8
DV3_Default
  6
Continuous
 62
     7
 48
25.4
100
AcDbLine
 10
163.9417796228
 20
103.9820795245
 30
0.0
 11
19.9417796228
 21
103.9820795245
 31
0.0
  0
LINE
  5
240
330
217
100
AcDbEntity
  8
DV3_Default
  6
Continuous
 62
     7
 48
25.4
100
AcDbLine
 10
19.9417796228
 20
96.7820795245
 30
0.0
 11
163.9417796228
 21
96.7820795245
 31
0.0
  0
LINE
  5
241
330
217
100
AcDbEntity
  8
DV3_Default
  6
Continuous
 62
     7
 48
25.4
100
AcDbLine
 10
163.9417796228
 20
89.5820795245
 30
0.0
 11
19.9417796228
 21
89.5820795245
 31
0.0
  0
LINE
  5
242
330
217
100
AcDbEntity
  8
DV3_Default
  6
Continuous
 62
     7
 48
25.4
100
AcDbLine
 10
19.9417796228
 20
82.3820795245
 30
0.0
 11
163.9417796228
 21
82.3820795245
 31
0.0
  0
LINE
  5
243
330
217
100
AcDbEntity
  8
DV3_Default
  6
Continuous
 62
     7
 48
25.4
100
AcDbLine
 10
163.9417796228
 20
75.1820795245
 30
0.0
 11
19.9417796228
 21
75.1820795245
 31
0.0
  0
LINE
  5
244
330
217
100
AcDbEntity
  8
DV3_Default
  6
Continuous
 62
     7
 48
25.4
100
AcDbLine
 10
19.9417796228
 20
67.9820795245
 30
0.0
 11
163.9417796228
 21
67.9820795245
 31
0.0
  0
LINE
  5
245
330
217
100
AcDbEntity
  8
DV3_Default
  6
Continuous
 62
     7
 48
25.4
100
AcDbLine
 10
163.9417796228
 20
60.7820795245
 30
0.0
 11
19.9417796228
 21
60.7820795245
 31
0.0
  0
LINE
  5
246
330
217
100
AcDbEntity
  8
DV3_Default
  6
Continuous
 62
     7
 48
25.4
100
AcDbLine
 10
19.9417796228
 20
53.5820795245
 30
0.0
 11
163.9417796228
 21
53.5820795245
 31
0.0
  0
LINE
  5
247
330
217
100
AcDbEntity
  8
DV3_Default
  6
Continuous
 62
     7
 48
25.4
100
AcDbLine
 10
163.9417796228
 20
46.3820795245
 30
0.0
 11
19.9417796228
 21
46.3820795245
 31
0.0
  0
LINE
  5
248
330
217
100
AcDbEntity
  8
DV3_Default
  6
Continuous
 62
     7
 48
25.4
100
AcDbLine
 10
19.9417796228
 20
39.1820795245
 30
0.0
 11
163.9417796228
 21
39.1820795245
 31
0.0
  0
LINE
  5
249
330
217
100
AcDbEntity
  8
DV3_Default
  6
Continuous
 62
     7
 48
25.4
100
AcDbLine
 10
163.9417796228
 20
31.9820795245
 30
0.0
 11
19.9417796228
 21
31.9820795245
 31
0.0
  0
TEXT
  5
24A
330
217
100
AcDbEntity
  8
DV3_Default
  6
Continuous
 62
     7
 48
25.4
100
AcDbText
 10
72.4017634178
 20
147.4869831358
 30
0.0
 40
3.6
  1
Specifications
  7
SEACAD_arial_ttf
 11
72.4017634178
 21
151.0869831358
 31
0.0
100
AcDbText
 73
     3
  0
TEXT
  5
24B
330
217
100
AcDbEntity
  8
DV3_Default
  6
Continuous
 62
     7
 48
25.4
100
AcDbText
 10
22.6491794131
 20
120.240751764
 30
0.0
 40
3.0
  1
THROUGH HOLE
  7
SEACAD_arial_ttf
 11
22.6491794131
 21
123.240751764
 31
0.0
100
AcDbText
 73
     3
  0
TEXT
  5
24C
330
217
100
AcDbEntity
  8
DV3_Default
  6
Continuous
 62
     7
 48
25.4
100
AcDbText
 10
111.3498772158
 20
120.4832325245
 30
0.0
 40
3.0
  1
117.5mm
  7
SEACAD_arial_ttf
 11
111.3498772158
 21
123.4832325245
 31
0.0
100
AcDbText
 73
     3
  0
TEXT
  5
24D
330
217
100
AcDbEntity
  8
DV3_Default
  6
Continuous
 62
     7
 48
25.4
100
AcDbText
 10
22.474460801
 20
113.1897653945
 30
0.0
 40
3.0
  1
MAX. GRIPPING RANGE
  7
SEACAD_arial_ttf
 11
22.474460801
 21
116.1897653945
 31
0.0
100
AcDbText
 73
     3
  0
TEXT
  5
24E
330
217
100
AcDbEntity
  8
DV3_Default
  6
Continuous
 62
     7
 48
25.4
100
AcDbText
 10
22.3557154042
 20
106.2802757409
 30
0.0
 40
3.0
  1
MIN. GRIPPING RANGE
  7
SEACAD_arial_ttf
 11
22.3557154042
 21
109.2802757409
 31
0.0
100
AcDbText
 73
     3
  0
TEXT
  5
24F
330
217
100
AcDbEntity
  8
DV3_Default
  6
Continuous
 62
     7
 48
25.4
100
AcDbText
 10
22.3759444969
 20
98.8860459846
 30
0.0
 40
3.0
  1
JAW STROKE
  7
SEACAD_arial_ttf
 11
22.3759444969
 21
101.8860459846
 31
0.0
100
AcDbText
 73
     3
  0
TEXT
  5
250
330
217
100
AcDbEntity
  8
DV3_Default
  6
Continuous
 62
     7
 48
25.4
100
AcDbText
 10
22.3542356297
 20
91.4928586801
 30
0.0
 40
3.0
  1
PLUNGER STROKE
  7
SEACAD_arial_ttf
 11
22.3542356297
 21
94.4928586801
 31
0.0
100
AcDbText
 73
     3
  0
TEXT
  5
251
330
217
100
AcDbEntity
  8
DV3_Default
  6
Continuous
 62
     7
 48
25.4
100
AcDbText
 10
22.3542356297
 20
84.2256530615
 30
0.0
 40
3.0
  1
MAX. DRAW BAR PULL FORCE
  7
SEACAD_arial_ttf
 11
22.3542356297
 21
87.2256530615
 31
0.0
100
AcDbText
 73
     3
  0
TEXT
  5
252
330
217
100
AcDbEntity
  8
DV3_Default
  6
Continuous
 62
     7
 48
25.4
100
AcDbText
 10
22.4387166784
 20
77.1844252074
 30
0.0
 40
3.0
  1
MAX. GRIPPING FORCE
  7
SEACAD_arial_ttf
 11
22.4387166784
 21
80.1844252074
 31
0.0
100
AcDbText
 73
     3
  0
TEXT
  5
253
330
217
100
AcDbEntity
  8
DV3_Default
  6
Continuous
 62
     7
 48
25.4
100
AcDbText
 10
22.3972160413
 20
70.0074571521
 30
0.0
 40
3.0
  1
MAX. SPEED
  7
SEACAD_arial_ttf
 11
22.3972160413
 21
73.0074571521
 31
0.0
100
AcDbText
 73
     3
  0
TEXT
  5
254
330
217
100
AcDbEntity
  8
DV3_Default
  6
Continuous
 62
     7
 48
25.4
100
AcDbText
 10
22.4531892566
 20
55.6062638898
 30
0.0
 40
3.0
  1
NET WEIGHT WITH SOFT TOP JAWS
  7
SEACAD_arial_ttf
 11
22.4531892566
 21
58.6062638898
 31
0.0
100
AcDbText
 73
     3
  0
TEXT
  5
255
330
217
100
AcDbEntity
  8
DV3_Default
  6
Continuous
 62
     7
 48
25.4
100
AcDbText
 10
22.3402003743
 20
48.4365321236
 30
0.0
 40
3.0
  1
MOMENT OF INERTIA
  7
SEACAD_arial_ttf
 11
22.3402003743
 21
51.4365321236
 31
0.0
100
AcDbText
 73
     3
  0
TEXT
  5
256
330
217
100
AcDbEntity
  8
DV3_Default
  6
Continuous
 62
     7
 48
25.4
100
AcDbText
 10
22.3889373004
 20
41.3108232208
 30
0.0
 40
3.0
  1
MATCHING CYLINDER
  7
SEACAD_arial_ttf
 11
22.3889373004
 21
44.3108232208
 31
0.0
100
AcDbText
 73
     3
  0
TEXT
  5
257
330
217
100
AcDbEntity
  8
DV3_Default
  6
Continuous
 62
     7
 48
25.4
100
AcDbText
 10
22.5019261827
 20
33.9995947387
 30
0.0
 40
3.0
  1
MAX. PRESSURE
  7
SEACAD_arial_ttf
 11
22.5019261827
 21
36.9995947387
 31
0.0
100
AcDbText
 73
     3
  0
TEXT
  5
258
330
217
100
AcDbEntity
  8
DV3_Default
  6
Continuous
 62
     7
 48
25.4
100
AcDbText
 10
22.3604294669
 20
26.915386473
 30
0.0
 40
3.0
  1
MATCHING HARD TOP JAW
  7
SEACAD_arial_ttf
 11
22.3604294669
 21
29.915386473
 31
0.0
100
AcDbText
 73
     3
  0
TEXT
  5
259
330
217
100
AcDbEntity
  8
DV3_Default
  6
Continuous
 62
     7
 48
25.4
100
AcDbText
 10
22.3604294669
 20
20.2603824175
 30
0.0
 40
3.0
  1
MATCHING SOFT TOP JAW
  7
SEACAD_arial_ttf
 11
22.3604294669
 21
23.2603824175
 31
0.0
100
AcDbText
 73
     3
  0
LINE
  5
25A
330
217
100
AcDbEntity
  8
DV3_Default
  6
Continuous
 62
     7
 48
25.4
100
AcDbLine
 10
19.9417796228
 20
17.5820795245
 30
0.0
 11
163.9417796228
 21
17.5820795245
 31
0.0
  0
LINE
  5
25B
330
217
100
AcDbEntity
  8
DV3_Default
  6
Continuous
 62
     7
 48
25.4
100
AcDbLine
 10
109.832076523
 20
132.7820795245
 30
0.0
 11
109.832076523
 21
17.5820795245
 31
0.0
  0
LINE
  5
25C
330
217
100
AcDbEntity
  8
DV3_Default
  6
Continuous
 62
     7
 48
25.4
100
AcDbLine
 10
19.9417796228
 20
132.7820795245
 30
0.0
 11
19.9417796228
 21
17.5820795245
 31
0.0
  0
LINE
  5
25D
330
217
100
AcDbEntity
  8
DV3_Default
  6
Continuous
 62
     7
 48
25.4
100
AcDbLine
 10
163.9417796228
 20
132.7820795245
 30
0.0
 11
163.9417796228
 21
17.5820795245
 31
0.0
  0
TEXT
  5
25E
330
217
100
AcDbEntity
  8
DV3_Default
  6
Continuous
 62
     7
 48
25.4
100
AcDbText
 10
111.5873498401
 20
113.2748499019
 30
0.0
 40
3.0
  1
381mm
  7
SEACAD_arial_ttf
 11
111.5873498401
 21
116.2748499019
 31
0.0
100
AcDbText
 73
     3
  0
TEXT
  5
25F
330
217
100
AcDbEntity
  8
DV3_Default
  6
Continuous
 62
     7
 48
25.4
100
AcDbText
 10
111.6907629806
 20
106.117152964
 30
0.0
 40
3.0
  1
30mm
  7
SEACAD_arial_ttf
 11
111.6907629806
 21
109.117152964
 31
0.0
100
AcDbText
 73
     3
  0
TEXT
  5
260
330
217
100
AcDbEntity
  8
DV3_Default
  6
Continuous
 62
     7
 48
25.4
100
AcDbText
 10
111.3780889118
 20
98.8318155662
 30
0.0
 40
3.0
  1
10.6mm
  7
SEACAD_arial_ttf
 11
111.3780889118
 21
101.8318155662
 31
0.0
100
AcDbText
 73
     3
  0
TEXT
  5
261
330
217
100
AcDbEntity
  8
DV3_Default
  6
Continuous
 62
     7
 48
25.4
100
AcDbText
 10
111.7235720255
 20
91.5607361231
 30
0.0
 40
3.0
  1
23mm
  7
SEACAD_arial_ttf
 11
111.7235720255
 21
94.5607361231
 31
0.0
100
AcDbText
 73
     3
  0
TEXT
  5
262
330
217
100
AcDbEntity
  8
DV3_Default
  6
Continuous
 62
     7
 48
25.4
100
AcDbText
 10
111.6467687126
 20
84.4658945473
 30
0.0
 40
3.0
  1
71kN
  7
SEACAD_arial_ttf
 11
111.6467687126
 21
87.4658945473
 31
0.0
100
AcDbText
 73
     3
  0
TEXT
  5
263
330
217
100
AcDbEntity
  8
DV3_Default
  6
Continuous
 62
     7
 48
25.4
100
AcDbText
 10
111.4090256346
 20
77.1263173407
 30
0.0
 40
3.0
  1
180kN
  7
SEACAD_arial_ttf
 11
111.4090256346
 21
80.1263173407
 31
0.0
100
AcDbText
 73
     3
  0
TEXT
  5
264
330
217
100
AcDbEntity
  8
DV3_Default
  6
Continuous
 62
     7
 48
25.4
100
AcDbText
 10
111.9374483255
 20
69.9968552716
 30
0.0
 40
3.0
  1
2500min-
  7
SEACAD_arial_ttf
 11
111.9374483255
 21
72.9968552716
 31
0.0
100
AcDbText
 73
     3
  0
TEXT
  5
265
330
217
100
AcDbEntity
  8
DV3_Default
  6
Continuous
 62
     7
 48
25.4
100
AcDbText
 10
129.5461439777
 20
69.9968552716
 30
0.0
 40
2.7516666667
  1
¹
  7
SEACAD_arial_ttf
 11
129.5461439777
 21
72.7485219383
 31
0.0
100
AcDbText
 73
     3
  0
TEXT
  5
266
330
217
100
AcDbEntity
  8
DV3_Default
  6
Continuous
 62
     7
 48
25.4
100
AcDbText
 10
111.2988293162
 20
55.7762574746
 30
0.0
 40
3.0
  1
127.0kg
  7
SEACAD_arial_ttf
 11
111.2988293162
 21
58.7762574746
 31
0.0
100
AcDbText
 73
     3
  0
TEXT
  5
267
330
217
100
AcDbEntity
  8
DV3_Default
  6
Continuous
 62
     7
 48
25.4
100
AcDbText
 10
111.8327928533
 20
48.5643779366
 30
0.0
 40
3.0
  1
2.385kg.m
  7
SEACAD_arial_ttf
 11
111.8327928533
 21
51.5643779366
 31
0.0
100
AcDbText
 73
     3
  0
TEXT
  5
268
330
217
100
AcDbEntity
  8
DV3_Default
  6
Continuous
 62
     7
 48
25.4
100
AcDbText
 10
131.6588798098
 20
48.5643779366
 30
0.0
 40
2.7516666667
  1
²
  7
SEACAD_arial_ttf
 11
131.6588798098
 21
51.3160446033
 31
0.0
100
AcDbText
 73
     3
  0
TEXT
  5
269
330
217
100
AcDbEntity
  8
DV3_Default
  6
Continuous
 62
     7
 48
25.4
100
AcDbText
 10
111.5374442336
 20
41.0624846076
 30
0.0
 40
3.0
  1
F2511H
  7
SEACAD_arial_ttf
 11
111.5374442336
 21
44.0624846076
 31
0.0
100
AcDbText
 73
     3
  0
TEXT
  5
26A
330
217
100
AcDbEntity
  8
DV3_Default
  6
Continuous
 62
     7
 48
25.4
100
AcDbText
 10
111.6606767997
 20
34.0806193107
 30
0.0
 40
3.0
  1
2.30MPa
  7
SEACAD_arial_ttf
 11
111.6606767997
 21
37.0806193107
 31
0.0
100
AcDbText
 73
     3
  0
TEXT
  5
26B
330
217
100
AcDbEntity
  8
DV3_Default
  6
Continuous
 62
     7
 48
25.4
100
AcDbText
 10
111.5478225775
 20
27.0064492462
 30
0.0
 40
3.0
  1
HB15A1
  7
SEACAD_arial_ttf
 11
111.5478225775
 21
30.0064492462
 31
0.0
100
AcDbText
 73
     3
  0
TEXT
  5
26C
330
217
100
AcDbEntity
  8
DV3_Default
  6
Continuous
 62
     7
 48
25.4
100
AcDbText
 10
281.3469553632
 20
111.1461786743
 30
0.0
 40
3.0
  1
140
  7
SEACAD_arial_ttf
 11
281.3469553632
 21
114.1461786743
 31
0.0
100
AcDbText
 73
     3
  0
LINE
  5
26D
330
217
100
AcDbEntity
  8
DV3_Default
  6
CENTER2
 62
     7
 48
25.4
100
AcDbLine
 10
189.8925900434
 20
129.8312242272
 30
0.0
 11
223.1797586224
 21
129.8312242272
 31
0.0
  0
LINE
  5
26E
330
217
100
AcDbEntity
  8
DV3_Default
  6
Continuous
 62
     7
 48
25.4
100
AcDbLine
 10
288.8689354248
 20
51.3812337448
 30
0.0
 11
408.8689354248
 21
51.3812337448
 31
0.0
  0
LINE
  5
26F
330
217
100
AcDbEntity
  8
DV3_Default
  6
Continuous
 62
     7
 48
25.4
100
AcDbLine
 10
408.8689354248
 20
61.5812337448
 30
0.0
 11
288.8689354248
 21
61.5812337448
 31
0.0
  0
LINE
  5
270
330
217
100
AcDbEntity
  8
DV3_Default
  6
Continuous
 62
     7
 48
25.4
100
AcDbLine
 10
288.8689354248
 20
71.7812337448
 30
0.0
 11
408.8689354248
 21
71.7812337448
 31
0.0
  0
LINE
  5
271
330
217
100
AcDbEntity
  8
DV3_Default
  6
Continuous
 62
     7
 48
25.4
100
AcDbLine
 10
408.8689354248
 20
81.9812337448
 30
0.0
 11
288.8689354248
 21
81.9812337448
 31
0.0
  0
LINE
  5
272
330
217
100
AcDbEntity
  8
DV3_Default
  6
Continuous
 62
     7
 48
25.4
100
AcDbLine
 10
288.8689354248
 20
92.1812337448
 30
0.0
 11
408.8689354248
 21
92.1812337448
 31
0.0
  0
LINE
  5
273
330
217
100
AcDbEntity
  8
DV3_Default
  6
Continuous
 62
     7
 48
25.4
100
AcDbLine
 10
408.8689354248
 20
102.3812337448
 30
0.0
 11
288.8689354248
 21
102.3812337448
 31
0.0
  0
LINE
  5
274
330
217
100
AcDbEntity
  8
DV3_Default
  6
Continuous
 62
     7
 48
25.4
100
AcDbLine
 10
288.8689354248
 20
112.5812337448
 30
0.0
 11
408.8689354248
 21
112.5812337448
 31
0.0
  0
LINE
  5
275
330
217
100
AcDbEntity
  8
DV3_Default
  6
Continuous
 62
     7
 48
25.4
100
AcDbLine
 10
408.8689354248
 20
122.7812337448
 30
0.0
 11
288.8689354248
 21
122.7812337448
 31
0.0
  0
TEXT
  5
276
330
217
100
AcDbEntity
  8
DV3_Default
  6
Continuous
 62
     7
 48
25.4
100
AcDbText
 10
281.3469553632
 20
121.3115621386
 30
0.0
 40
3.0
  1
160
  7
SEACAD_arial_ttf
 11
281.3469553632
 21
124.3115621386
 31
0.0
100
AcDbText
 73
     3
  0
TEXT
  5
277
330
217
100
AcDbEntity
  8
DV3_Default
  6
Continuous
 62
     7
 48
25.4
100
AcDbText
 10
281.3469553632
 20
131.3627278112
 30
0.0
 40
3.0
  1
180
  7
SEACAD_arial_ttf
 11
281.3469553632
 21
134.3627278112
 31
0.0
100
AcDbText
 73
     3
  0
TEXT
  5
278
330
217
100
AcDbEntity
  8
DV3_Default
  6
Continuous
 62
     7
 48
25.4
100
AcDbText
 10
309.1681642213
 20
36.1301565569
 30
0.0
 40
3.0
  1
500
  7
SEACAD_arial_ttf
 11
309.1681642213
 21
39.1301565569
 31
0.0
100
AcDbText
 73
     3
  0
TEXT
  5
279
330
217
100
AcDbEntity
  8
DV3_Default
  6
Continuous
 62
     7
 48
25.4
100
AcDbText
 10
356.2124954073
 20
36.2825135022
 30
0.0
 40
3.0
  1
1500
  7
SEACAD_arial_ttf
 11
356.2124954073
 21
39.2825135022
 31
0.0
100
AcDbText
 73
     3
  0
TEXT
  5
27A
330
217
100
AcDbEntity
  8
DV3_Default
  6
Continuous
 62
     7
 48
25.4
100
AcDbText
 10
404.0968923831
 20
36.1317739342
 30
0.0
 40
3.0
  1
2500
  7
SEACAD_arial_ttf
 11
404.0968923831
 21
39.1317739342
 31
0.0
100
AcDbText
 73
     3
  0
LINE
  5
27B
330
217
100
AcDbEntity
  8
DV3_Default
  6
Continuous
 62
     7
 48
25.4
100
AcDbLine
 10
312.8689354248
 20
41.1812337448
 30
0.0
 11
312.8689354248
 21
132.9812337448
 31
0.0
  0
LINE
  5
27C
330
217
100
AcDbEntity
  8
DV3_Default
  6
Continuous
 62
     7
 48
25.4
100
AcDbLine
 10
336.8689354248
 20
132.9812337448
 30
0.0
 11
336.8689354248
 21
41.1812337448
 31
0.0
  0
LINE
  5
27D
330
217
100
AcDbEntity
  8
DV3_Default
  6
Continuous
 62
     7
 48
25.4
100
AcDbLine
 10
360.8689354248
 20
41.1812337448
 30
0.0
 11
360.8689354248
 21
132.9812337448
 31
0.0
  0
LINE
  5
27E
330
217
100
AcDbEntity
  8
DV3_Default
  6
Continuous
 62
     7
 48
25.4
100
AcDbLine
 10
384.8689354248
 20
132.9812337448
 30
0.0
 11
384.8689354248
 21
41.1812337448
 31
0.0
  0
ARC
  5
27F
330
217
100
AcDbEntity
  8
DV3_Default
  6
Continuous
 62
     7
 48
25.4
100
AcDbCircle
 10
280.867877221
 20
303.8360356604
 30
0.0
 40
265.0164183467938
100
AcDbArc
 50
287.2601225019
 51
298.8810585745
  0
ARC
  5
280
330
217
100
AcDbEntity
  8
DV3_Default
  6
Continuous
 62
     7
 48
25.4
100
AcDbCircle
 10
280.4136156447
 20
-85.7633021502
 30
0.0
 40
157.771268686567
100
AcDbArc
 50
59.9153721945
 51
86.9279175814
  0
ARC
  5
281
330
217
100
AcDbEntity
  8
DV3_Default
  6
Continuous
 62
     7
 48
25.4
100
AcDbCircle
 10
277.0624285572
 20
-81.419975044
 30
0.0
 40
174.0022221046388
100
AcDbArc
 50
53.4405354924
 51
86.1093418541
  0
ARC
  5
282
330
217
100
AcDbEntity
  8
DV3_Default
  6
Continuous
 62
     7
 48
25.4
100
AcDbCircle
 10
280.6934271827
 20
-43.9329226887
 30
0.0
 40
156.7275345913873
100
AcDbArc
 50
43.6422113803
 51
87.0098756806
  0
ARC
  5
283
330
217
100
AcDbEntity
  8
DV3_Default
  6
Continuous
 62
     7
 48
25.4
100
AcDbCircle
 10
278.2917043985
 20
-36.0054937577
 30
0.0
 40
169.3174293692328
100
AcDbArc
 50
39.5384265171
 51
86.4184103005
  0
TEXT
  5
284
330
217
100
AcDbEntity
  8
DV3_Default
  6
Continuous
 62
     7
 48
25.4
100
AcDbText
 10
111.7863416237
 20
62.6338100928
 30
0.0
 40
3.0
  1
60kN
  7
SEACAD_arial_ttf
 11
111.7863416237
 21
65.6338100928
 31
0.0
100
AcDbText
 73
     3
  0
LINE
  5
285
330
217
100
AcDbEntity
  8
DV3_Default
  6
Continuous
 62
     7
 48
25.4
100
AcDbLine
 10
214.9225653461
 20
129.8312242272
 30
0.0
 11
219.8712860755
 21
129.8312242272
 31
0.0
  0
LINE
  5
286
330
217
100
AcDbEntity
  8
DV3_Default
  6
Continuous
 62
     7
 48
25.4
100
AcDbLine
 10
219.8712860755
 20
129.8312242272
 30
0.0
 11
219.8712860755
 21
123.2312242272
 31
0.0
  0
LINE
  5
287
330
217
100
AcDbEntity
  8
DV3_Default
  6
Continuous
 62
     7
 48
25.4
100
AcDbLine
 10
219.8712860755
 20
123.2312242272
 30
0.0
 11
215.3712860755
 21
123.2312242272
 31
0.0
  0
LINE
  5
288
330
217
100
AcDbEntity
  8
DV3_Default
  6
Continuous
 62
     7
 48
25.4
100
AcDbLine
 10
215.3712860755
 20
123.2312242272
 30
0.0
 11
215.3712860755
 21
122.6312242272
 31
0.0
  0
LINE
  5
289
330
217
100
AcDbEntity
  8
DV3_Default
  6
Continuous
 62
     7
 48
25.4
100
AcDbLine
 10
215.3712860755
 20
122.6312242272
 30
0.0
 11
197.9712860755
 21
122.6312242272
 31
0.0
  0
LINE
  5
28A
330
217
100
AcDbEntity
  8
DV3_Default
  6
Continuous
 62
     7
 48
25.4
100
AcDbLine
 10
197.9712860755
 20
122.6312242272
 30
0.0
 11
197.9712860755
 21
119.7812242272
 31
0.0
  0
LINE
  5
28B
330
217
100
AcDbEntity
  8
DV3_Default
  6
Continuous
 62
     7
 48
25.4
100
AcDbLine
 10
192.5712860755
 20
129.8312242272
 30
0.0
 11
192.2712860755
 21
129.8312242272
 31
0.0
  0
LINE
  5
28C
330
217
100
AcDbEntity
  8
DV3_Default
  6
Continuous
 62
     7
 48
25.4
100
AcDbLine
 10
192.2712860755
 20
129.8312242272
 30
0.0
 11
192.2712860755
 21
120.6812242272
 31
0.0
  0
LINE
  5
28D
330
217
100
AcDbEntity
  8
DV3_Default
  6
Continuous
 62
     7
 48
25.4
100
AcDbLine
 10
193.4712860755
 20
119.4812242272
 30
0.0
 11
197.9712860755
 21
119.4812242272
 31
0.0
  0
LINE
  5
28E
330
217
100
AcDbEntity
  8
DV3_Default
  6
Continuous
 62
     7
 48
25.4
100
AcDbLine
 10
197.9712860755
 20
119.4812242272
 30
0.0
 11
198.2712860755
 21
119.4812242272
 31
0.0
  0
LINE
  5
28F
330
217
100
AcDbEntity
  8
DV3_Default
  6
Continuous
 62
     7
 48
25.4
100
AcDbLine
 10
198.2712860755
 20
122.3312242272
 30
0.0
 11
198.2712860755
 21
119.4812242272
 31
0.0
  0
LINE
  5
290
330
217
100
AcDbEntity
  8
DV3_Default
  6
Continuous
 62
     7
 48
25.4
100
AcDbLine
 10
198.2712860755
 20
122.3312242272
 30
0.0
 11
206.6712860755
 21
122.3312242272
 31
0.0
  0
LINE
  5
291
330
217
100
AcDbEntity
  8
DV3_Default
  6
Continuous
 62
     7
 48
25.4
100
AcDbLine
 10
206.6712860755
 20
122.3312242272
 30
0.0
 11
206.6712860755
 21
122.6312242272
 31
0.0
  0
LINE
  5
292
330
217
100
AcDbEntity
  8
DV3_Default
  6
Continuous
 62
     7
 48
25.4
100
AcDbLine
 10
192.5712860755
 20
121.5812242272
 30
0.0
 11
192.5712860755
 21
129.8312242272
 31
0.0
  0
LINE
  5
293
330
217
100
AcDbEntity
  8
DV3_Default
  6
Continuous
 62
     7
 48
25.4
100
AcDbLine
 10
194.3712860755
 20
119.7812242272
 30
0.0
 11
197.9712860755
 21
119.7812242272
 31
0.0
  0
ARC
  5
294
330
217
100
AcDbEntity
  8
DV3_Default
  6
Continuous
 62
     7
 48
25.4
100
AcDbCircle
 10
193.4712860755
 20
120.6812242272
 30
0.0
 40
1.2
100
AcDbArc
 50
180.0
 51
270.0
  0
LINE
  5
295
330
217
100
AcDbEntity
  8
DV3_Default
  6
Continuous
 62
     7
 48
25.4
100
AcDbLine
 10
219.8712860755
 20
129.8312242272
 30
0.0
 11
219.8712860755
 21
123.2312242272
 31
0.0
  0
LINE
  5
296
330
217
100
AcDbEntity
  8
DV3_Default
  6
Continuous
 62
     7
 48
25.4
100
AcDbLine
 10
214.9225653461
 20
129.8312242272
 30
0.0
 11
219.8712860755
 21
129.8312242272
 31
0.0
  0
LINE
  5
297
330
217
100
AcDbEntity
  8
DV3_Default
  6
Continuous
 62
     7
 48
25.4
100
AcDbLine
 10
219.8712860755
 20
129.8312242272
 30
0.0
 11
219.8712860755
 21
136.4312242272
 31
0.0
  0
LINE
  5
298
330
217
100
AcDbEntity
  8
DV3_Default
  6
Continuous
 62
     7
 48
25.4
100
AcDbLine
 10
219.8712860755
 20
136.4312242272
 30
0.0
 11
215.3712860755
 21
136.4312242272
 31
0.0
  0
LINE
  5
299
330
217
100
AcDbEntity
  8
DV3_Default
  6
Continuous
 62
     7
 48
25.4
100
AcDbLine
 10
215.3712860755
 20
136.4312242272
 30
0.0
 11
215.3712860755
 21
137.0312242272
 31
0.0
  0
LINE
  5
29A
330
217
100
AcDbEntity
  8
DV3_Default
  6
Continuous
 62
     7
 48
25.4
100
AcDbLine
 10
215.3712860755
 20
137.0312242272
 30
0.0
 11
197.9712860755
 21
137.0312242272
 31
0.0
  0
LINE
  5
29B
330
217
100
AcDbEntity
  8
DV3_Default
  6
Continuous
 62
     7
 48
25.4
100
AcDbLine
 10
197.9712860755
 20
137.0312242272
 30
0.0
 11
197.9712860755
 21
139.8812242272
 31
0.0
  0
LINE
  5
29C
330
217
100
AcDbEntity
  8
DV3_Default
  6
Continuous
 62
     7
 48
25.4
100
AcDbLine
 10
192.5712860755
 20
129.8312242272
 30
0.0
 11
192.2712860755
 21
129.8312242272
 31
0.0
  0
LINE
  5
29D
330
217
100
AcDbEntity
  8
DV3_Default
  6
Continuous
 62
     7
 48
25.4
100
AcDbLine
 10
192.2712860755
 20
129.8312242272
 30
0.0
 11
192.2712860755
 21
138.9812242272
 31
0.0
  0
LINE
  5
29E
330
217
100
AcDbEntity
  8
DV3_Default
  6
Continuous
 62
     7
 48
25.4
100
AcDbLine
 10
193.4712860755
 20
140.1812242272
 30
0.0
 11
197.9712860755
 21
140.1812242272
 31
0.0
  0
LINE
  5
29F
330
217
100
AcDbEntity
  8
DV3_Default
  6
Continuous
 62
     7
 48
25.4
100
AcDbLine
 10
197.9712860755
 20
140.1812242272
 30
0.0
 11
198.2712860755
 21
140.1812242272
 31
0.0
  0
LINE
  5
2A0
330
217
100
AcDbEntity
  8
DV3_Default
  6
Continuous
 62
     7
 48
25.4
100
AcDbLine
 10
198.2712860755
 20
137.3312242272
 30
0.0
 11
198.2712860755
 21
140.1812242272
 31
0.0
  0
LINE
  5
2A1
330
217
100
AcDbEntity
  8
DV3_Default
  6
Continuous
 62
     7
 48
25.4
100
AcDbLine
 10
198.2712860755
 20
137.3312242272
 30
0.0
 11
206.6712860755
 21
137.3312242272
 31
0.0
  0
LINE
  5
2A2
330
217
100
AcDbEntity
  8
DV3_Default
  6
Continuous
 62
     7
 48
25.4
100
AcDbLine
 10
206.6712860755
 20
137.3312242272
 30
0.0
 11
206.6712860755
 21
137.0312242272
 31
0.0
  0
LINE
  5
2A3
330
217
100
AcDbEntity
  8
DV3_Default
  6
Continuous
 62
     7
 48
25.4
100
AcDbLine
 10
192.5712860755
 20
138.0812242272
 30
0.0
 11
192.5712860755
 21
129.8312242272
 31
0.0
  0
LINE
  5
2A4
330
217
100
AcDbEntity
  8
DV3_Default
  6
Continuous
 62
     7
 48
25.4
100
AcDbLine
 10
194.3712860755
 20
139.8812242272
 30
0.0
 11
197.9712860755
 21
139.8812242272
 31
0.0
  0
ARC
  5
2A5
330
217
100
AcDbEntity
  8
DV3_Default
  6
Continuous
 62
     7
 48
25.4
100
AcDbCircle
 10
193.4712860755
 20
138.9812242272
 30
0.0
 40
1.2
100
AcDbArc
 50
90.0
 51
180.0
  0
LINE
  5
2A6
330
217
100
AcDbEntity
  8
DV3_Default
  6
Continuous
 62
     7
 48
25.4
100
AcDbLine
 10
219.8712860755
 20
129.8312242272
 30
0.0
 11
219.8712860755
 21
136.4312242272
 31
0.0
  0
LINE
  5
2A7
330
217
100
AcDbEntity
  8
DV3_Default
  6
Continuous
 62
     7
 48
25.4
100
AcDbLine
 10
219.8712860755
 20
136.4312242272
 30
0.0
 11
216.2712860755
 21
136.4312242272
 31
0.0
  0
LINE
  5
2A8
330
217
100
AcDbEntity
  8
DV3_Default
  6
Continuous
 62
     7
 48
25.4
100
AcDbLine
 10
216.2712860755
 20
137.9312242272
 30
0.0
 11
216.2712860755
 21
147.5312242272
 31
0.0
  0
LINE
  5
2A9
330
217
100
AcDbEntity
  8
DV3_Default
  6
Continuous
 62
     7
 48
25.4
100
AcDbLine
 10
215.3712860755
 20
148.4312242272
 30
0.0
 11
200.7291470686
 21
148.4312242272
 31
0.0
  0
LINE
  5
2AA
330
217
100
AcDbEntity
  8
DV3_Default
  6
Continuous
 62
     7
 48
25.4
100
AcDbLine
 10
215.3712860755
 20
137.0312242272
 30
0.0
 11
216.2712860755
 21
137.9312242272
 31
0.0
  0
LINE
  5
2AB
330
217
100
AcDbEntity
  8
DV3_Default
  6
Continuous
 62
     7
 48
25.4
100
AcDbLine
 10
215.3712860755
 20
148.4312242272
 30
0.0
 11
216.2712860755
 21
147.5312242272
 31
0.0
  0
LINE
  5
2AC
330
217
100
AcDbEntity
  8
DV3_Default
  6
Continuous
 62
     7
 48
25.4
100
AcDbLine
 10
215.6846290785
 20
148.1178812242
 30
0.0
 11
215.6846290785
 21
137.3445672302
 31
0.0
  0
LINE
  5
2AD
330
217
100
AcDbEntity
  8
DV3_Default
  6
Continuous
 62
     7
 48
25.4
100
AcDbLine
 10
213.2712860755
 20
148.4312242272
 30
0.0
 11
213.2712860755
 21
160.4312242272
 31
0.0
  0
LINE
  5
2AE
330
217
100
AcDbEntity
  8
DV3_Default
  6
Continuous
 62
     7
 48
25.4
100
AcDbLine
 10
215.3712860755
 20
123.2312242272
 30
0.0
 11
215.3712860755
 21
122.6312242272
 31
0.0
  0
LINE
  5
2AF
330
217
100
AcDbEntity
  8
DV3_Default
  6
Continuous
 62
     7
 48
25.4
100
AcDbLine
 10
206.6712860755
 20
122.3312242272
 30
0.0
 11
206.6712860755
 21
122.6312242272
 31
0.0
  0
LINE
  5
2B0
330
217
100
AcDbEntity
  8
DV3_Default
  6
Continuous
 62
     7
 48
25.4
100
AcDbLine
 10
216.2712860755
 20
121.7312242272
 30
0.0
 11
216.2712860755
 21
112.1312242272
 31
0.0
  0
LINE
  5
2B1
330
217
100
AcDbEntity
  8
DV3_Default
  6
Continuous
 62
     7
 48
25.4
100
AcDbLine
 10
215.3712860755
 20
111.2312242272
 30
0.0
 11
200.7291470686
 21
111.2312242272
 31
0.0
  0
LINE
  5
2B2
330
217
100
AcDbEntity
  8
DV3_Default
  6
Continuous
 62
     7
 48
25.4
100
AcDbLine
 10
215.3712860755
 20
122.6312242272
 30
0.0
 11
216.2712860755
 21
121.7312242272
 31
0.0
  0
LINE
  5
2B3
330
217
100
AcDbEntity
  8
DV3_Default
  6
Continuous
 62
     7
 48
25.4
100
AcDbLine
 10
215.3712860755
 20
111.2312242272
 30
0.0
 11
216.2712860755
 21
112.1312242272
 31
0.0
  0
LINE
  5
2B4
330
217
100
AcDbEntity
  8
DV3_Default
  6
Continuous
 62
     7
 48
25.4
100
AcDbLine
 10
215.6846290785
 20
111.5445672302
 30
0.0
 11
215.6846290785
 21
122.3178812242
 31
0.0
  0
LINE
  5
2B5
330
217
100
AcDbEntity
  8
DV3_Default
  6
Continuous
 62
     7
 48
25.4
100
AcDbLine
 10
213.2712860755
 20
111.2312242272
 30
0.0
 11
213.2712860755
 21
99.2312242272
 31
0.0
  0
LINE
  5
2B6
330
217
100
AcDbEntity
  8
DV3_Default
  6
Continuous
 62
     7
 48
25.4
100
AcDbLine
 10
192.5712860755
 20
138.0812242272
 30
0.0
 11
194.3712860755
 21
139.8812242272
 31
0.0
  0
LINE
  5
2B7
330
217
100
AcDbEntity
  8
DV3_Default
  6
Continuous
 62
     7
 48
25.4
100
AcDbLine
 10
194.3712860755
 20
119.7812242272
 30
0.0
 11
192.5712860755
 21
121.5812242272
 31
0.0
  0
ENDBLK
  5
2B9
330
217
100
AcDbEntity
  8
0
100
AcDbBlockEnd
  0
BLOCK
  5
2C5
330
2BA
100
AcDbEntity
  8
0
100
AcDbBlockBegin
  2
GDimGGroup
 70
     0
 71
     0
 10
0.0
 20
0.0
 30
0.0
  3
GDimGGroup
  1

  0
HATCH
  5
2BC
330
2BA
100
AcDbEntity
  8
Default
  6
Continuous
 62
     7
 48
25.4
100
AcDbHatch
 10
0.0
 20
0.0
 30
0.0
210
0.0
220
0.0
230
1.0
  2
SOLID
 70
     1
 71
     0
 91
        1
 92
        1
 93
        3
 72
     1
 10
233.9561969718052
 20
127.2312244171961
 11
232.6228635751419
 21
127.2312244171961
 72
     1
 10
232.6228635751419
 20
127.2312244171961
 11
233.2895302734735
 21
123.2312242272063
 72
     1
 10
233.2895302734735
 20
123.2312242272063
 11
233.9561969718052
 21
127.2312244171961
 97
        0
 75
     0
 76
     1
 98
        0
  0
LWPOLYLINE
  5
2BD
330
2BA
100
AcDbEntity
  8
Default
  6
Continuous
 62
     7
 48
25.4
370
    20
100
AcDbPolyline
 90
        4
 70
     1
 43
0.00025
 10
233.9561969718
 20
127.2312244172
 10
233.2895302735
 20
123.2312242272
 10
232.6228635751
 20
127.2312244172
 10
233.9561969718
 20
127.2312244172
  0
HATCH
  5
2BE
330
2BA
100
AcDbEntity
  8
Default
  6
Continuous
 62
     7
 48
25.4
100
AcDbHatch
 10
0.0
 20
0.0
 30
0.0
210
0.0
220
0.0
230
1.0
  2
SOLID
 70
     1
 71
     0
 91
        1
 92
        1
 93
        3
 72
     1
 10
233.9561969718052
 20
132.4312239656909
 11
233.2895302734735
 21
136.4312241556807
 72
     1
 10
233.2895302734735
 20
136.4312241556807
 11
232.6228635751419
 21
132.4312239656909
 72
     1
 10
232.6228635751419
 20
132.4312239656909
 11
233.9561969718052
 21
132.4312239656909
 97
        0
 75
     0
 76
     1
 98
        0
  0
LWPOLYLINE
  5
2BF
330
2BA
100
AcDbEntity
  8
Default
  6
Continuous
 62
     7
 48
25.4
370
    20
100
AcDbPolyline
 90
        4
 70
     1
 43
0.00025
 10
233.9561969718
 20
132.4312239657
 10
233.2895302735
 20
136.4312241557
 10
232.6228635751
 20
132.4312239657
 10
233.9561969718
 20
132.4312239657
  0
LINE
  5
2C0
330
2BA
100
AcDbEntity
  8
Default
  6
Continuous
 62
     7
 48
25.4
100
AcDbLine
 10
219.8712860755
 20
123.2312242272
 30
0.0
 11
235.2895303685
 21
123.2312242272
 31
0.0
  0
LINE
  5
2C1
330
2BA
100
AcDbEntity
  8
Default
  6
Continuous
 62
     7
 48
25.4
100
AcDbLine
 10
219.8712860755
 20
136.4312242272
 30
0.0
 11
235.2895303685
 21
136.4312242272
 31
0.0
  0
LINE
  5
2C2
330
2BA
100
AcDbEntity
  8
Default
  6
Continuous
 62
     7
 48
25.4
100
AcDbLine
 10
233.2895302735
 20
82.8812489989
 30
0.0
 11
233.2895302735
 21
136.4312241557
 31
0.0
  0
TEXT
  5
2C3
330
2BA
100
AcDbEntity
  8
Default
  6
Continuous
 62
     7
 48
25.4
100
AcDbText
 10
232.2895302735
 20
84.2812500006
 30
0.0
 40
4.0
  1
22
 50
90.0
  7
SEACAD_arial_ttf
 11
228.2895302735
 21
84.2812500006
 31
0.0
100
AcDbText
 73
     3
  0
TEXT
  5
2C4
330
2BA
100
AcDbEntity
  8
Default
  6
Continuous
 62
     7
 48
25.4
100
AcDbText
 10
232.2895302735
 20
92.9421195658
 30
0.0
 40
4.0
  1
H8/h8
 50
90.0
  7
SEACAD_arial_ttf
 11
228.2895302735
 21
92.9421195658
 31
0.0
100
AcDbText
 73
     3
  0
ENDBLK
  5
2C6
330
2BA
100
AcDbEntity
  8
0
100
AcDbBlockEnd
  0
BLOCK
  5
2D1
330
2C7
100
AcDbEntity
  8
0
100
AcDbBlockBegin
  2
GDimGGroup1
 70
     0
 71
     0
 10
0.0
 20
0.0
 30
0.0
  3
GDimGGroup1
  1

  0
HATCH
  5
2C9
330
2C7
100
AcDbEntity
  8
Default
  6
Continuous
 62
     7
 48
25.4
100
AcDbHatch
 10
0.0
 20
0.0
 30
0.0
210
0.0
220
0.0
230
1.0
  2
SOLID
 70
     1
 71
     0
 91
        1
 92
        1
 93
        3
 72
     1
 10
245.0906480332924
 20
126.6312244171961
 11
243.7573146366291
 21
126.6312244171961
 72
     1
 10
243.7573146366291
 20
126.6312244171961
 11
244.4239813349608
 21
122.6312242272063
 72
     1
 10
244.4239813349608
 20
122.6312242272063
 11
245.0906480332924
 21
126.6312244171961
 97
        0
 75
     0
 76
     1
 98
        0
  0
LWPOLYLINE
  5
2CA
330
2C7
100
AcDbEntity
  8
Default
  6
Continuous
 62
     7
 48
25.4
370
    20
100
AcDbPolyline
 90
        4
 70
     1
 43
0.00025
 10
245.0906480333
 20
126.6312244172
 10
244.423981335
 20
122.6312242272
 10
243.7573146366
 20
126.6312244172
 10
245.0906480333
 20
126.6312244172
  0
HATCH
  5
2CB
330
2C7
100
AcDbEntity
  8
Default
  6
Continuous
 62
     7
 48
25.4
100
AcDbHatch
 10
0.0
 20
0.0
 30
0.0
210
0.0
220
0.0
230
1.0
  2
SOLID
 70
     1
 71
     0
 91
        1
 92
        1
 93
        3
 72
     1
 10
245.0906480332924
 20
133.0312237898573
 11
244.4239813349608
 21
137.0312239798471
 72
     1
 10
244.4239813349608
 20
137.0312239798471
 11
243.7573146366291
 21
133.0312237898573
 72
     1
 10
243.7573146366291
 20
133.0312237898573
 11
245.0906480332924
 21
133.0312237898573
 97
        0
 75
     0
 76
     1
 98
        0
  0
LWPOLYLINE
  5
2CC
330
2C7
100
AcDbEntity
  8
Default
  6
Continuous
 62
     7
 48
25.4
370
    20
100
AcDbPolyline
 90
        4
 70
     1
 43
0.00025
 10
245.0906480333
 20
133.0312237899
 10
244.423981335
 20
137.0312239798
 10
243.7573146366
 20
133.0312237899
 10
245.0906480333
 20
133.0312237899
  0
LINE
  5
2CD
330
2C7
100
AcDbEntity
  8
Default
  6
Continuous
 62
     7
 48
25.4
100
AcDbLine
 10
215.3712860755
 20
122.6312242272
 30
0.0
 11
246.42398143
 21
122.6312242272
 31
0.0
  0
LINE
  5
2CE
330
2C7
100
AcDbEntity
  8
Default
  6
Continuous
 62
     7
 48
25.4
100
AcDbLine
 10
215.3712860755
 20
137.0312242272
 30
0.0
 11
246.42398143
 21
137.0312242272
 31
0.0
  0
LINE
  5
2CF
330
2C7
100
AcDbEntity
  8
Default
  6
Continuous
 62
     7
 48
25.4
100
AcDbLine
 10
244.423981335
 20
122.6312242272
 30
0.0
 11
244.423981335
 21
137.0312239798
 31
0.0
  0
TEXT
  5
2D0
330
2C7
100
AcDbEntity
  8
Default
  6
Continuous
 62
     7
 48
25.4
100
AcDbText
 10
243.423981335
 20
126.7007893209
 30
0.0
 40
4.0
  1
24
 50
90.0
  7
SEACAD_arial_ttf
 11
239.423981335
 21
126.7007893209
 31
0.0
100
AcDbText
 73
     3
  0
ENDBLK
  5
2D2
330
2C7
100
AcDbEntity
  8
0
100
AcDbBlockEnd
  0
BLOCK
  5
2DD
330
2D3
100
AcDbEntity
  8
0
100
AcDbBlockBegin
  2
GDimGGroup2
 70
     0
 71
     0
 10
0.0
 20
0.0
 30
0.0
  3
GDimGGroup2
  1

  0
HATCH
  5
2D5
330
2D3
100
AcDbEntity
  8
Default
  6
Continuous
 62
     7
 48
25.4
100
AcDbHatch
 10
0.0
 20
0.0
 30
0.0
210
0.0
220
0.0
230
1.0
  2
SOLID
 70
     1
 71
     0
 91
        1
 92
        1
 93
        3
 72
     1
 10
257.5028217068029
 20
115.2312244171961
 11
256.1694883101396
 21
115.2312244171961
 72
     1
 10
256.1694883101396
 20
115.2312244171961
 11
256.8361550084713
 21
111.2312242272063
 72
     1
 10
256.8361550084713
 20
111.2312242272063
 11
257.5028217068029
 21
115.2312244171961
 97
        0
 75
     0
 76
     1
 98
        0
  0
LWPOLYLINE
  5
2D6
330
2D3
100
AcDbEntity
  8
Default
  6
Continuous
 62
     7
 48
25.4
370
    20
100
AcDbPolyline
 90
        4
 70
     1
 43
0.00025
 10
257.5028217068
 20
115.2312244172
 10
256.8361550085
 20
111.2312242272
 10
256.1694883101
 20
115.2312244172
 10
257.5028217068
 20
115.2312244172
  0
HATCH
  5
2D7
330
2D3
100
AcDbEntity
  8
Default
  6
Continuous
 62
     7
 48
25.4
100
AcDbHatch
 10
0.0
 20
0.0
 30
0.0
210
0.0
220
0.0
230
1.0
  2
SOLID
 70
     1
 71
     0
 91
        1
 92
        1
 93
        3
 72
     1
 10
257.5028217068029
 20
144.4312241743072
 11
256.8361550084713
 21
148.431224364297
 72
     1
 10
256.8361550084713
 20
148.431224364297
 11
256.1694883101396
 21
144.4312241743072
 72
     1
 10
256.1694883101396
 20
144.4312241743072
 11
257.5028217068029
 21
144.4312241743072
 97
        0
 75
     0
 76
     1
 98
        0
  0
LWPOLYLINE
  5
2D8
330
2D3
100
AcDbEntity
  8
Default
  6
Continuous
 62
     7
 48
25.4
370
    20
100
AcDbPolyline
 90
        4
 70
     1
 43
0.00025
 10
257.5028217068
 20
144.4312241743
 10
256.8361550085
 20
148.4312243643
 10
256.1694883101
 20
144.4312241743
 10
257.5028217068
 20
144.4312241743
  0
LINE
  5
2D9
330
2D3
100
AcDbEntity
  8
Default
  6
Continuous
 62
     7
 48
25.4
100
AcDbLine
 10
215.3712860755
 20
111.2312242272
 30
0.0
 11
258.8361551035
 21
111.2312242272
 31
0.0
  0
LINE
  5
2DA
330
2D3
100
AcDbEntity
  8
Default
  6
Continuous
 62
     7
 48
25.4
100
AcDbLine
 10
215.371286034
 20
148.4312242272
 30
0.0
 11
258.8361551035
 21
148.4312242272
 31
0.0
  0
LINE
  5
2DB
330
2D3
100
AcDbEntity
  8
Default
  6
Continuous
 62
     7
 48
25.4
100
AcDbLine
 10
256.8361550085
 20
111.2312242272
 30
0.0
 11
256.8361550085
 21
148.4312243643
 31
0.0
  0
TEXT
  5
2DC
330
2D3
100
AcDbEntity
  8
Default
  6
Continuous
 62
     7
 48
25.4
100
AcDbText
 10
255.8361550085
 20
126.7007895131
 30
0.0
 40
4.0
  1
62
 50
90.0
  7
SEACAD_arial_ttf
 11
251.8361550085
 21
126.7007895131
 31
0.0
100
AcDbText
 73
     3
  0
ENDBLK
  5
2DE
330
2D3
100
AcDbEntity
  8
0
100
AcDbBlockEnd
  0
BLOCK
  5
2E9
330
2DF
100
AcDbEntity
  8
0
100
AcDbBlockBegin
  2
GDimGGroup3
 70
     0
 71
     0
 10
0.0
 20
0.0
 30
0.0
  3
GDimGGroup3
  1

  0
HATCH
  5
2E1
330
2DF
100
AcDbEntity
  8
Default
  6
Continuous
 62
     7
 48
25.4
100
AcDbHatch
 10
0.0
 20
0.0
 30
0.0
210
0.0
220
0.0
230
1.0
  2
SOLID
 70
     1
 71
     0
 91
        1
 92
        1
 93
        3
 72
     1
 10
209.2712858855191
 20
162.4026832701081
 11
209.2712858855191
 21
161.0693498734449
 72
     1
 10
209.2712858855191
 20
161.0693498734449
 11
213.2712860755089
 21
161.7360165717765
 72
     1
 10
213.2712860755089
 20
161.7360165717765
 11
209.2712858855191
 21
162.4026832701081
 97
        0
 75
     0
 76
     1
 98
        0
  0
LWPOLYLINE
  5
2E2
330
2DF
100
AcDbEntity
  8
Default
  6
Continuous
 62
     7
 48
25.4
370
    20
100
AcDbPolyline
 90
        4
 70
     1
 43
0.00025
 10
209.2712858855
 20
162.4026832701
 10
213.2712860755
 20
161.7360165718
 10
209.2712858855
 20
161.0693498734
 10
209.2712858855
 20
162.4026832701
  0
HATCH
  5
2E3
330
2DF
100
AcDbEntity
  8
Default
  6
Continuous
 62
     7
 48
25.4
100
AcDbHatch
 10
0.0
 20
0.0
 30
0.0
210
0.0
220
0.0
230
1.0
  2
SOLID
 70
     1
 71
     0
 91
        1
 92
        1
 93
        3
 72
     1
 10
220.2712862654987
 20
162.4026832701081
 11
216.2712860755089
 21
161.7360165717765
 72
     1
 10
216.2712860755089
 20
161.7360165717765
 11
220.2712862654987
 21
161.0693498734449
 72
     1
 10
220.2712862654987
 20
161.0693498734449
 11
220.2712862654987
 21
162.4026832701081
 97
        0
 75
     0
 76
     1
 98
        0
  0
LWPOLYLINE
  5
2E4
330
2DF
100
AcDbEntity
  8
Default
  6
Continuous
 62
     7
 48
25.4
370
    20
100
AcDbPolyline
 90
        4
 70
     1
 43
0.00025
 10
220.2712862655
 20
162.4026832701
 10
216.2712860755
 20
161.7360165718
 10
220.2712862655
 20
161.0693498734
 10
220.2712862655
 20
162.4026832701
  0
LINE
  5
2E5
330
2DF
100
AcDbEntity
  8
Default
  6
Continuous
 62
     7
 48
25.4
100
AcDbLine
 10
213.2712860755
 20
148.4312242272
 30
0.0
 11
213.2712860755
 21
163.7360166668
 31
0.0
  0
LINE
  5
2E6
330
2DF
100
AcDbEntity
  8
Default
  6
Continuous
 62
     7
 48
25.4
100
AcDbLine
 10
216.2712860755
 20
147.5312242272
 30
0.0
 11
216.2712860755
 21
163.7360166668
 31
0.0
  0
LINE
  5
2E7
330
2DF
100
AcDbEntity
  8
Default
  6
Continuous
 62
     7
 48
25.4
100
AcDbLine
 10
204.4525665394
 20
161.7360165718
 30
0.0
 11
224.2712860159
 21
161.7360165718
 31
0.0
  0
TEXT
  5
2E8
330
2DF
100
AcDbEntity
  8
Default
  6
Continuous
 62
     7
 48
25.4
100
AcDbText
 10
205.8525666693
 20
162.7360165718
 30
0.0
 40
4.0
  1
5
  7
SEACAD_arial_ttf
 11
205.8525666693
 21
166.7360165718
 31
0.0
100
AcDbText
 73
     3
  0
ENDBLK
  5
2EA
330
2DF
100
AcDbEntity
  8
0
100
AcDbBlockEnd
  0
BLOCK
  5
2F5
330
2EB
100
AcDbEntity
  8
0
100
AcDbBlockBegin
  2
GDimGGroup4
 70
     0
 71
     0
 10
0.0
 20
0.0
 30
0.0
  3
GDimGGroup4
  1

  0
HATCH
  5
2ED
330
2EB
100
AcDbEntity
  8
Default
  6
Continuous
 62
     7
 48
25.4
100
AcDbHatch
 10
0.0
 20
0.0
 30
0.0
210
0.0
220
0.0
230
1.0
  2
SOLID
 70
     1
 71
     0
 91
        1
 92
        1
 93
        3
 72
     1
 10
212.2712858855191
 20
162.4026836038941
 11
212.2712858855191
 21
161.0693502072309
 72
     1
 10
212.2712858855191
 20
161.0693502072309
 11
216.2712860755089
 21
161.7360169055625
 72
     1
 10
216.2712860755089
 20
161.7360169055625
 11
212.2712858855191
 21
162.4026836038941
 97
        0
 75
     0
 76
     1
 98
        0
  0
LWPOLYLINE
  5
2EE
330
2EB
100
AcDbEntity
  8
Default
  6
Continuous
 62
     7
 48
25.4
370
    20
100
AcDbPolyline
 90
        4
 70
     1
 43
0.00025
 10
212.2712858855
 20
162.4026836039
 10
216.2712860755
 20
161.7360169056
 10
212.2712858855
 20
161.0693502072
 10
212.2712858855
 20
162.4026836039
  0
HATCH
  5
2EF
330
2EB
100
AcDbEntity
  8
Default
  6
Continuous
 62
     7
 48
25.4
100
AcDbHatch
 10
0.0
 20
0.0
 30
0.0
210
0.0
220
0.0
230
1.0
  2
SOLID
 70
     1
 71
     0
 91
        1
 92
        1
 93
        3
 72
     1
 10
223.8712862654987
 20
162.4026836038941
 11
219.8712860755089
 21
161.7360169055625
 72
     1
 10
219.8712860755089
 20
161.7360169055625
 11
223.8712862654987
 21
161.0693502072309
 72
     1
 10
223.8712862654987
 20
161.0693502072309
 11
223.8712862654987
 21
162.4026836038941
 97
        0
 75
     0
 76
     1
 98
        0
  0
LWPOLYLINE
  5
2F0
330
2EB
100
AcDbEntity
  8
Default
  6
Continuous
 62
     7
 48
25.4
370
    20
100
AcDbPolyline
 90
        4
 70
     1
 43
0.00025
 10
223.8712862655
 20
162.4026836039
 10
219.8712860755
 20
161.7360169056
 10
223.8712862655
 20
161.0693502072
 10
223.8712862655
 20
162.4026836039
  0
LINE
  5
2F1
330
2EB
100
AcDbEntity
  8
Default
  6
Continuous
 62
     7
 48
25.4
100
AcDbLine
 10
216.2712860755
 20
147.5312242272
 30
0.0
 11
216.2712860755
 21
163.7360170006
 31
0.0
  0
LINE
  5
2F2
330
2EB
100
AcDbEntity
  8
Default
  6
Continuous
 62
     7
 48
25.4
100
AcDbLine
 10
219.8712860755
 20
136.4312242272
 30
0.0
 11
219.8712860755
 21
163.7360170006
 31
0.0
  0
LINE
  5
2F3
330
2EB
100
AcDbEntity
  8
Default
  6
Continuous
 62
     7
 48
25.4
100
AcDbLine
 10
208.2712856955
 20
161.7360169056
 30
0.0
 11
232.1531280778
 21
161.7360169056
 31
0.0
  0
TEXT
  5
2F4
330
2EB
100
AcDbEntity
  8
Default
  6
Continuous
 62
     7
 48
25.4
100
AcDbText
 10
227.6226940967
 20
162.7360169056
 30
0.0
 40
4.0
  1
6
  7
SEACAD_arial_ttf
 11
227.6226940967
 21
166.7360169056
 31
0.0
100
AcDbText
 73
     3
  0
ENDBLK
  5
2F6
330
2EB
100
AcDbEntity
  8
0
100
AcDbBlockEnd
  0
BLOCK
  5
301
330
2F7
100
AcDbEntity
  8
0
100
AcDbBlockBegin
  2
GDimGGroup5
 70
     0
 71
     0
 10
0.0
 20
0.0
 30
0.0
  3
GDimGGroup5
  1

  0
HATCH
  5
2F9
330
2F7
100
AcDbEntity
  8
Default
  6
Continuous
 62
     7
 48
25.4
100
AcDbHatch
 10
0.0
 20
0.0
 30
0.0
210
0.0
220
0.0
230
1.0
  2
SOLID
 70
     1
 71
     0
 91
        1
 92
        1
 93
        3
 72
     1
 10
423.4573765407117
 20
404.2891904584395
 11
419.4573763507219
 21
403.6225237601078
 72
     1
 10
419.4573763507219
 20
403.6225237601078
 11
423.4573765407117
 21
402.9558570617762
 72
     1
 10
423.4573765407117
 20
402.9558570617762
 11
423.4573765407117
 21
404.2891904584395
 97
        0
 75
     0
 76
     1
 98
        0
  0
LWPOLYLINE
  5
2FA
330
2F7
100
AcDbEntity
  8
Default
  6
Continuous
 62
     7
 48
25.4
370
    20
100
AcDbPolyline
 90
        4
 70
     1
 43
0.00025
 10
423.4573765407
 20
404.2891904584
 10
419.4573763507
 20
403.6225237601
 10
423.4573765407
 20
402.9558570618
 10
423.4573765407
 20
404.2891904584
  0
HATCH
  5
2FB
330
2F7
100
AcDbEntity
  8
Default
  6
Continuous
 62
     7
 48
25.4
100
AcDbHatch
 10
0.0
 20
0.0
 30
0.0
210
0.0
220
0.0
230
1.0
  2
SOLID
 70
     1
 71
     0
 91
        1
 92
        1
 93
        3
 72
     1
 10
446.4573756540926
 20
404.2891904584395
 11
446.4573756540926
 21
402.9558570617762
 72
     1
 10
446.4573756540926
 20
402.9558570617762
 11
450.4573758440824
 21
403.6225237601078
 72
     1
 10
450.4573758440824
 20
403.6225237601078
 11
446.4573756540926
 21
404.2891904584395
 97
        0
 75
     0
 76
     1
 98
        0
  0
LWPOLYLINE
  5
2FC
330
2F7
100
AcDbEntity
  8
Default
  6
Continuous
 62
     7
 48
25.4
370
    20
100
AcDbPolyline
 90
        4
 70
     1
 43
0.00025
 10
446.4573756541
 20
404.2891904584
 10
450.4573758441
 20
403.6225237601
 10
446.4573756541
 20
402.9558570618
 10
446.4573756541
 20
404.2891904584
  0
LINE
  5
2FD
330
2F7
100
AcDbEntity
  8
Default
  6
Continuous
 62
     7
 48
25.4
100
AcDbLine
 10
419.4573763507
 20
388.1916635387
 30
0.0
 11
419.4573763507
 21
405.6225238551
 31
0.0
  0
LINE
  5
2FE
330
2F7
100
AcDbEntity
  8
Default
  6
Continuous
 62
     7
 48
25.4
100
AcDbLine
 10
450.4573763507
 20
388.1916635387
 30
0.0
 11
450.4573763507
 21
405.6225238551
 31
0.0
  0
LINE
  5
2FF
330
2F7
100
AcDbEntity
  8
Default
  6
Continuous
 62
     7
 48
25.4
100
AcDbLine
 10
419.4573763507
 20
403.6225237601
 30
0.0
 11
450.4573758441
 21
403.6225237601
 31
0.0
  0
TEXT
  5
300
330
2F7
100
AcDbEntity
  8
Default
  6
Continuous
 62
     7
 48
25.4
100
AcDbText
 10
431.8269413148
 20
404.6225237601
 30
0.0
 40
4.0
  1
62
  7
SEACAD_arial_ttf
 11
431.8269413148
 21
408.6225237601
 31
0.0
100
AcDbText
 73
     3
  0
ENDBLK
  5
302
330
2F7
100
AcDbEntity
  8
0
100
AcDbBlockEnd
  0
BLOCK
  5
30D
330
303
100
AcDbEntity
  8
0
100
AcDbBlockBegin
  2
GDimGGroup6
 70
     0
 71
     0
 10
0.0
 20
0.0
 30
0.0
  3
GDimGGroup6
  1

  0
HATCH
  5
305
330
303
100
AcDbEntity
  8
Default
  6
Continuous
 62
     7
 48
25.4
100
AcDbHatch
 10
0.0
 20
0.0
 30
0.0
210
0.0
220
0.0
230
1.0
  2
SOLID
 70
     1
 71
     0
 91
        1
 92
        1
 93
        3
 72
     1
 10
506.1612342358084
 20
368.7834735297127
 11
509.5051836368206
 21
366.4894708248206
 72
     1
 10
509.5051836368206
 20
366.4894708248205
 11
507.085989134747
 21
369.7439975135603
 72
     1
 10
507.085989134747
 20
369.7439975135603
 11
506.1612342358084
 21
368.7834735297127
 97
        0
 75
     0
 76
     1
 98
        0
  0
LWPOLYLINE
  5
306
330
303
100
AcDbEntity
  8
Default
  6
Continuous
 62
     7
 48
25.4
370
    20
100
AcDbPolyline
 90
        4
 70
     1
 43
0.00025
 10
506.1612342358
 20
368.7834735297
 10
509.5051836368
 20
366.4894708248
 10
507.0859891347
 20
369.7439975136
 10
506.1612342358
 20
368.7834735297
  0
HATCH
  5
307
330
303
100
AcDbEntity
  8
Default
  6
Continuous
 62
     7
 48
25.4
100
AcDbHatch
 10
0.0
 20
0.0
 30
0.0
210
0.0
220
0.0
230
1.0
  2
SOLID
 70
     1
 71
     0
 91
        1
 92
        1
 93
        3
 72
     1
 10
438.9693007627608
 20
397.958852785702
 11
434.9573740465521
 21
397.3681836478985
 72
     1
 10
434.9573740465521
 20
397.3681836478985
 11
438.9440082281993
 21
396.625759302726
 72
     1
 10
438.9440082281993
 20
396.625759302726
 11
438.9693007627608
 21
397.9588527857019
 97
        0
 75
     0
 76
     1
 98
        0
  0
LWPOLYLINE
  5
308
330
303
100
AcDbEntity
  8
Default
  6
Continuous
 62
     7
 48
25.4
370
    20
100
AcDbPolyline
 90
        4
 70
     1
 43
0.00025
 10
438.9693007628
 20
397.9588527857
 10
434.9573740466
 20
397.3681836479
 10
438.9440082282
 20
396.6257593027
 10
438.9693007628
 20
397.9588527857
  0
LINE
  5
309
330
303
100
AcDbEntity
  8
Default
  6
Continuous
 62
     7
 48
25.4
100
AcDbLine
 10
476.4998996401
 20
333.4841868281
 30
0.0
 11
510.9193947968
 21
367.9036819848
 31
0.0
  0
LINE
  5
30A
330
303
100
AcDbEntity
  8
Default
  6
Continuous
 62
     7
 48
25.4
100
AcDbLine
 10
434.9573763507
 20
291.9416635387
 30
0.0
 11
434.9573763507
 21
399.3681802504
 31
0.0
  0
ARC
  5
30B
330
303
100
AcDbEntity
  8
Default
  6
Continuous
 62
     7
 48
25.4
100
AcDbCircle
 10
434.9573763507
 20
291.9416635387
 30
0.0
 40
105.4265201091769
100
AcDbArc
 50
45.0
 51
90.0000012522
  0
TEXT
  5
30C
330
303
100
AcDbEntity
  8
Default
  6
Continuous
 62
     7
 48
25.4
100
AcDbText
 10
471.7485121788
 20
391.8975113741
 30
0.0
 40
4.0
  1
45°
 50
337.5
  7
SEACAD_arial_ttf
 11
473.2792459082
 21
395.5930295041
 31
0.0
100
AcDbText
 73
     3
  0
ENDBLK
  5
30E
330
303
100
AcDbEntity
  8
0
100
AcDbBlockEnd
  0
BLOCK
  5
319
330
30F
100
AcDbEntity
  8
0
100
AcDbBlockBegin
  2
GDimGGroup7
 70
     0
 71
     0
 10
0.0
 20
0.0
 30
0.0
  3
GDimGGroup7
  1

  0
HATCH
  5
311
330
30F
100
AcDbEntity
  8
Default
  6
Continuous
 62
     7
 48
25.4
100
AcDbHatch
 10
0.0
 20
0.0
 30
0.0
210
0.0
220
0.0
230
1.0
  2
SOLID
 70
     1
 71
     0
 91
        1
 92
        1
 93
        3
 72
     1
 10
535.0426311221592
 20
322.8866941211535
 11
536.7915748999595
 21
319.2280548018606
 72
     1
 10
536.7915748999594
 20
319.2280548018606
 11
536.3237543488378
 21
323.2561548426405
 72
     1
 10
536.3237543488378
 20
323.2561548426405
 11
535.0426311221592
 21
322.8866941211535
 97
        0
 75
     0
 76
     1
 98
        0
  0
LWPOLYLINE
  5
312
330
30F
100
AcDbEntity
  8
Default
  6
Continuous
 62
     7
 48
25.4
370
    20
100
AcDbPolyline
 90
        4
 70
     1
 43
0.00025
 10
535.0426311222
 20
322.8866941212
 10
536.7915749
 20
319.2280548019
 10
536.3237543488
 20
323.2561548426
 10
535.0426311222
 20
322.8866941212
  0
HATCH
  5
313
330
30F
100
AcDbEntity
  8
Default
  6
Continuous
 62
     7
 48
25.4
100
AcDbHatch
 10
0.0
 20
0.0
 30
0.0
210
0.0
220
0.0
230
1.0
  2
SOLID
 70
     1
 71
     0
 91
        1
 92
        1
 93
        3
 72
     1
 10
512.7597092724332
 20
364.0702774534304
 11
509.5051825506245
 21
366.4894719110166
 72
     1
 10
509.5051825506245
 20
366.4894719110166
 11
511.7991853012265
 21
363.145522541362
 72
     1
 10
511.7991853012265
 20
363.145522541362
 11
512.7597092724332
 21
364.0702774534305
 97
        0
 75
     0
 76
     1
 98
        0
  0
LWPOLYLINE
  5
314
330
30F
100
AcDbEntity
  8
Default
  6
Continuous
 62
     7
 48
25.4
370
    20
100
AcDbPolyline
 90
        4
 70
     1
 43
0.00025
 10
512.7597092724
 20
364.0702774534
 10
509.5051825506
 20
366.489471911
 10
511.7991853012
 20
363.1455225414
 10
512.7597092724
 20
364.0702774534
  0
LINE
  5
315
330
30F
100
AcDbEntity
  8
Default
  6
Continuous
 62
     7
 48
25.4
100
AcDbLine
 10
491.7055185013
 20
307.1472823999
 30
0.0
 11
538.7234232708
 21
319.7456920127
 31
0.0
  0
LINE
  5
316
330
30F
100
AcDbEntity
  8
Default
  6
Continuous
 62
     7
 48
25.4
100
AcDbLine
 10
476.4998996401
 20
333.4841868281
 30
0.0
 11
510.9193947968
 21
367.9036819848
 31
0.0
  0
ARC
  5
317
330
30F
100
AcDbEntity
  8
Default
  6
Continuous
 62
     7
 48
25.4
100
AcDbCircle
 10
434.9573763507
 20
291.9416635387
 30
0.0
 40
105.426520109178
100
AcDbArc
 50
15.0
 51
45.0000008348
  0
TEXT
  5
318
330
30F
100
AcDbEntity
  8
Default
  6
Continuous
 62
     7
 48
25.4
100
AcDbText
 10
524.995011619
 20
348.844944879
 30
0.0
 40
4.0
  1
30°
 50
300.0
  7
SEACAD_arial_ttf
 11
528.4591132342
 21
350.844944879
 31
0.0
100
AcDbText
 73
     3
  0
ENDBLK
  5
31A
330
30F
100
AcDbEntity
  8
0
100
AcDbBlockEnd
  0
BLOCK
  5
325
330
31B
100
AcDbEntity
  8
0
100
AcDbBlockBegin
  2
GDimGGroup8
 70
     0
 71
     0
 10
0.0
 20
0.0
 30
0.0
  3
GDimGGroup8
  1

  0
HATCH
  5
31D
330
31B
100
AcDbEntity
  8
Default
  6
Continuous
 62
     7
 48
25.4
100
AcDbHatch
 10
0.0
 20
0.0
 30
0.0
210
0.0
220
0.0
230
1.0
  2
SOLID
 70
     1
 71
     0
 91
        1
 92
        1
 93
        3
 72
     1
 10
539.6414720311875
 20
295.9282977048119
 11
540.3838964598984
 21
291.9416635387219
 72
     1
 10
540.3838964598984
 20
291.9416635387219
 11
540.9745655136335
 21
295.9535902673079
 72
     1
 10
540.9745655136336
 20
295.9535902673079
 11
539.6414720311875
 21
295.9282977048119
 97
        0
 75
     0
 76
     1
 98
        0
  0
LWPOLYLINE
  5
31E
330
31B
100
AcDbEntity
  8
Default
  6
Continuous
 62
     7
 48
25.4
370
    20
100
AcDbPolyline
 90
        4
 70
     1
 43
0.00025
 10
539.6414720312
 20
295.9282977048
 10
540.3838964599
 20
291.9416635387
 10
540.9745655136
 20
295.9535902673
 10
539.6414720312
 20
295.9282977048
  0
HATCH
  5
31F
330
31B
100
AcDbEntity
  8
Default
  6
Continuous
 62
     7
 48
25.4
100
AcDbHatch
 10
0.0
 20
0.0
 30
0.0
210
0.0
220
0.0
230
1.0
  2
SOLID
 70
     1
 71
     0
 91
        1
 92
        1
 93
        3
 72
     1
 10
538.4004802636421
 20
315.5057083141566
 11
536.7915747011716
 21
319.2280555437464
 72
     1
 10
536.7915747011717
 20
319.2280555437464
 11
537.1062646452633
 21
315.185109063063
 72
     1
 10
537.1062646452632
 20
315.185109063063
 11
538.4004802636421
 21
315.5057083141566
 97
        0
 75
     0
 76
     1
 98
        0
  0
LWPOLYLINE
  5
320
330
31B
100
AcDbEntity
  8
Default
  6
Continuous
 62
     7
 48
25.4
370
    20
100
AcDbPolyline
 90
        4
 70
     1
 43
0.00025
 10
538.4004802636
 20
315.5057083142
 10
536.7915747012
 20
319.2280555437
 10
537.1062646453
 20
315.1851090631
 10
538.4004802636
 20
315.5057083142
  0
LINE
  5
321
330
31B
100
AcDbEntity
  8
Default
  6
Continuous
 62
     7
 48
25.4
100
AcDbLine
 10
538.4477960366
 20
291.9416635387
 30
0.0
 11
542.3838930624
 21
291.9416635387
 31
0.0
  0
LINE
  5
322
330
31B
100
AcDbEntity
  8
Default
  6
Continuous
 62
     7
 48
25.4
100
AcDbLine
 10
491.7055185013
 20
307.1472823999
 30
0.0
 11
538.7234232708
 21
319.7456920127
 31
0.0
  0
ARC
  5
323
330
31B
100
AcDbEntity
  8
Default
  6
Continuous
 62
     7
 48
25.4
100
AcDbCircle
 10
434.9573763507
 20
291.9416635387
 30
0.0
 40
105.4265201091688
100
AcDbArc
 50
0.0
 51
15.0000004174
  0
TEXT
  5
324
330
31B
100
AcDbEntity
  8
Default
  6
Continuous
 62
     7
 48
25.4
100
AcDbText
 10
539.917247747
 20
310.0575291952
 30
0.0
 40
4.0
  1
15°
 50
277.5
  7
SEACAD_arial_ttf
 11
543.8830271925
 21
310.5796339641
 31
0.0
100
AcDbText
 73
     3
  0
ENDBLK
  5
326
330
31B
100
AcDbEntity
  8
0
100
AcDbBlockEnd
  0
BLOCK
  5
331
330
327
100
AcDbEntity
  8
0
100
AcDbBlockBegin
  2
GDimGGroup9
 70
     0
 71
     0
 10
0.0
 20
0.0
 30
0.0
  3
GDimGGroup9
  1

  0
HATCH
  5
329
330
327
100
AcDbEntity
  8
Default
  6
Continuous
 62
     7
 48
25.4
100
AcDbHatch
 10
0.0
 20
0.0
 30
0.0
210
0.0
220
0.0
230
1.0
  2
SOLID
 70
     1
 71
     0
 91
        1
 92
        1
 93
        3
 72
     1
 10
527.6097796652509
 20
243.0521421619179
 11
526.2594209978597
 21
239.2284034841335
 72
     1
 10
526.2594209978597
 20
239.2284034841335
 11
528.7769187679166
 21
242.4074994223432
 72
     1
 10
528.7769187679166
 20
242.4074994223433
 11
527.6097796652509
 21
243.0521421619179
 97
        0
 75
     0
 76
     1
 98
        0
  0
LWPOLYLINE
  5
32A
330
327
100
AcDbEntity
  8
Default
  6
Continuous
 62
     7
 48
25.4
370
    20
100
AcDbPolyline
 90
        4
 70
     1
 43
0.00025
 10
527.6097796653
 20
243.0521421619
 10
526.2594209979
 20
239.2284034841
 10
528.7769187679
 20
242.4074994223
 10
527.6097796653
 20
243.0521421619
  0
HATCH
  5
32B
330
327
100
AcDbEntity
  8
Default
  6
Continuous
 62
     7
 48
25.4
100
AcDbHatch
 10
0.0
 20
0.0
 30
0.0
210
0.0
220
0.0
230
1.0
  2
SOLID
 70
     1
 71
     0
 91
        1
 92
        1
 93
        3
 72
     1
 10
540.9745655684742
 20
287.9297383543232
 11
540.3838964598984
 21
291.9416650748351
 72
     1
 10
540.3838964598984
 20
291.9416650748351
 11
539.6414720856824
 21
287.9550308985966
 72
     1
 10
539.6414720856825
 20
287.9550308985966
 11
540.9745655684743
 21
287.9297383543232
 97
        0
 75
     0
 76
     1
 98
        0
  0
LWPOLYLINE
  5
32C
330
327
100
AcDbEntity
  8
Default
  6
Continuous
 62
     7
 48
25.4
370
    20
100
AcDbPolyline
 90
        4
 70
     1
 43
0.00025
 10
540.9745655685
 20
287.9297383543
 10
540.3838964599
 20
291.9416650748
 10
539.6414720857
 20
287.9550308986
 10
540.9745655685
 20
287.9297383543
  0
LINE
  5
32D
330
327
100
AcDbEntity
  8
Default
  6
Continuous
 62
     7
 48
25.4
100
AcDbLine
 10
500.5588013584
 20
254.0666631513
 30
0.0
 11
527.9914688631
 21
238.2284051829
 31
0.0
  0
LINE
  5
32E
330
327
100
AcDbEntity
  8
Default
  6
Continuous
 62
     7
 48
25.4
100
AcDbLine
 10
538.4477960366
 20
291.9416635387
 30
0.0
 11
542.3838930624
 21
291.9416635387
 31
0.0
  0
ARC
  5
32F
330
327
100
AcDbEntity
  8
Default
  6
Continuous
 62
     7
 48
25.4
100
AcDbCircle
 10
434.9573763507
 20
291.9416635387
 30
0.0
 40
105.4265201091749
100
AcDbArc
 50
330.0
 51
0.0000008348
  0
TEXT
  5
330
330
327
100
AcDbEntity
  8
Default
  6
Continuous
 62
     7
 48
25.4
100
AcDbText
 10
534.7228548815
 20
260.7984073652
 30
0.0
 40
4.0
  1
30°
 50
75.0
  7
SEACAD_arial_ttf
 11
530.8591515763
 21
261.8336835456
 31
0.0
100
AcDbText
 73
     3
  0
ENDBLK
  5
332
330
327
100
AcDbEntity
  8
0
100
AcDbBlockEnd
  0
BLOCK
  5
33E
330
333
100
AcDbEntity
  8
0
100
AcDbBlockBegin
  2
GDimGGroup10
 70
     0
 71
     0
 10
0.0
 20
0.0
 30
0.0
  3
GDimGGroup10
  1

  0
HATCH
  5
335
330
333
100
AcDbEntity
  8
Default
  6
Continuous
 62
     7
 48
25.4
100
AcDbHatch
 10
0.0
 20
0.0
 30
0.0
210
0.0
220
0.0
230
1.0
  2
SOLID
 70
     1
 71
     0
 91
        1
 92
        1
 93
        3
 72
     1
 10
229.0616914735001
 20
230.9103688121931
 11
227.7283580768368
 21
230.9103688121931
 72
     1
 10
227.7283580768368
 20
230.9103688121931
 11
228.3950247751684
 21
226.9103686222033
 72
     1
 10
228.3950247751684
 20
226.9103686222033
 11
229.0616914735001
 21
230.9103688121931
 97
        0
 75
     0
 76
     1
 98
        0
  0
LWPOLYLINE
  5
336
330
333
100
AcDbEntity
  8
Default
  6
Continuous
 62
     7
 48
25.4
370
    20
100
AcDbPolyline
 90
        4
 70
     1
 43
0.00025
 10
229.0616914735
 20
230.9103688122
 10
228.3950247752
 20
226.9103686222
 10
227.7283580768
 20
230.9103688122
 10
229.0616914735
 20
230.9103688122
  0
HATCH
  5
337
330
333
100
AcDbEntity
  8
Default
  6
Continuous
 62
     7
 48
25.4
100
AcDbHatch
 10
0.0
 20
0.0
 30
0.0
210
0.0
220
0.0
230
1.0
  2
SOLID
 70
     1
 71
     0
 91
        1
 92
        1
 93
        3
 72
     1
 10
229.0616914735001
 20
238.9103684322135
 11
228.3950247751684
 21
242.9103686222033
 72
     1
 10
228.3950247751684
 20
242.9103686222033
 11
227.7283580768368
 21
238.9103684322135
 72
     1
 10
227.7283580768368
 20
238.9103684322135
 11
229.0616914735001
 21
238.9103684322135
 97
        0
 75
     0
 76
     1
 98
        0
  0
LWPOLYLINE
  5
338
330
333
100
AcDbEntity
  8
Default
  6
Continuous
 62
     7
 48
25.4
370
    20
100
AcDbPolyline
 90
        4
 70
     1
 43
0.00025
 10
229.0616914735
 20
238.9103684322
 10
228.3950247752
 20
242.9103686222
 10
227.7283580768
 20
238.9103684322
 10
229.0616914735
 20
238.9103684322
  0
LINE
  5
339
330
333
100
AcDbEntity
  8
Default
  6
Continuous
 62
     7
 48
25.4
100
AcDbLine
 10
213.3867707985
 20
226.9103686222
 30
0.0
 11
230.3950248702
 21
226.9103686222
 31
0.0
  0
LINE
  5
33A
330
333
100
AcDbEntity
  8
Default
  6
Continuous
 62
     7
 48
25.4
100
AcDbLine
 10
213.3867707985
 20
242.9103686222
 30
0.0
 11
230.3950248702
 21
242.9103686222
 31
0.0
  0
LINE
  5
33B
330
333
100
AcDbEntity
  8
Default
  6
Continuous
 62
     7
 48
25.4
100
AcDbLine
 10
228.3950247752
 20
226.9103686222
 30
0.0
 11
228.3950247752
 21
261.7782401749
 31
0.0
  0
TEXT
  5
33C
330
333
100
AcDbEntity
  8
Default
  6
Continuous
 62
     7
 48
25.4
100
AcDbText
 10
227.3950247752
 20
254.1173682299
 30
0.0
 40
4.0
  1
32
 50
90.0
  7
SEACAD_arial_ttf
 11
223.3950247752
 21
254.1173682299
 31
0.0
100
AcDbText
 73
     3
  0
TEXT
  5
33D
330
333
100
AcDbEntity
  8
Default
  6
Continuous
 62
     7
 48
25.4
100
AcDbText
 10
227.3950247752
 20
246.7559647211
 30
0.0
 40
4.0
  1
O
 50
90.0
  7
SEACAD_semeca1_ttf
 11
223.3950247752
 21
246.7559647211
 31
0.0
100
AcDbText
 73
     3
  0
ENDBLK
  5
33F
330
333
100
AcDbEntity
  8
0
100
AcDbBlockEnd
  0
BLOCK
  5
349
330
340
100
AcDbEntity
  8
0
100
AcDbBlockBegin
  2
GDimGGroup11
 70
     0
 71
     0
 10
0.0
 20
0.0
 30
0.0
  3
GDimGGroup11
  1

  0
HATCH
  5
342
330
340
100
AcDbEntity
  8
Default
  6
Continuous
 62
     7
 48
25.4
100
AcDbHatch
 10
0.0
 20
0.0
 30
0.0
210
0.0
220
0.0
230
1.0
  2
SOLID
 70
     1
 71
     0
 91
        1
 92
        1
 93
        3
 72
     1
 10
203.8867709884555
 20
206.6078085193879
 11
203.8867709884555
 21
207.9411419160511
 72
     1
 10
203.8867709884555
 20
207.9411419160511
 11
199.8867707984657
 21
207.2744752177195
 72
     1
 10
199.8867707984657
 20
207.2744752177195
 11
203.8867709884555
 21
206.6078085193879
 97
        0
 75
     0
 76
     1
 98
        0
  0
LWPOLYLINE
  5
343
330
340
100
AcDbEntity
  8
Default
  6
Continuous
 62
     7
 48
25.4
370
    20
100
AcDbPolyline
 90
        4
 70
     1
 43
0.00025
 10
203.8867709885
 20
206.6078085194
 10
199.8867707985
 20
207.2744752177
 10
203.8867709885
 20
207.9411419161
 10
203.8867709885
 20
206.6078085194
  0
HATCH
  5
344
330
340
100
AcDbEntity
  8
Default
  6
Continuous
 62
     7
 48
25.4
100
AcDbHatch
 10
0.0
 20
0.0
 30
0.0
210
0.0
220
0.0
230
1.0
  2
SOLID
 70
     1
 71
     0
 91
        1
 92
        1
 93
        3
 72
     1
 10
209.3867709586532
 20
206.6078085193879
 11
213.386771148643
 21
207.2744752177195
 72
     1
 10
213.386771148643
 20
207.2744752177195
 11
209.3867709586532
 21
207.9411419160511
 72
     1
 10
209.3867709586532
 20
207.9411419160511
 11
209.3867709586532
 21
206.6078085193879
 97
        0
 75
     0
 76
     1
 98
        0
  0
LWPOLYLINE
  5
345
330
340
100
AcDbEntity
  8
Default
  6
Continuous
 62
     7
 48
25.4
370
    20
100
AcDbPolyline
 90
        4
 70
     1
 43
0.00025
 10
209.3867709587
 20
206.6078085194
 10
213.3867711486
 20
207.2744752177
 10
209.3867709587
 20
207.9411419161
 10
209.3867709587
 20
206.6078085194
  0
LINE
  5
346
330
340
100
AcDbEntity
  8
Default
  6
Continuous
 62
     7
 48
25.4
100
AcDbLine
 10
199.8867707985
 20
226.9103686222
 30
0.0
 11
199.8867707985
 21
205.2744751227
 31
0.0
  0
LINE
  5
347
330
340
100
AcDbEntity
  8
Default
  6
Continuous
 62
     7
 48
25.4
100
AcDbLine
 10
199.8867707985
 20
207.2744752177
 30
0.0
 11
213.3867711486
 21
207.2744752177
 31
0.0
  0
TEXT
  5
348
330
340
100
AcDbEntity
  8
Default
  6
Continuous
 62
     7
 48
25.4
100
AcDbText
 10
203.5063361909
 20
208.2744752177
 30
0.0
 40
4.0
  1
27
  7
SEACAD_arial_ttf
 11
203.5063361909
 21
212.2744752177
 31
0.0
100
AcDbText
 73
     3
  0
ENDBLK
  5
34A
330
340
100
AcDbEntity
  8
0
100
AcDbBlockEnd
  0
BLOCK
  5
354
330
34B
100
AcDbEntity
  8
0
100
AcDbBlockBegin
  2
GDimGGroup12
 70
     0
 71
     0
 10
0.0
 20
0.0
 30
0.0
  3
GDimGGroup12
  1

  0
HATCH
  5
34D
330
34B
100
AcDbEntity
  8
Default
  6
Continuous
 62
     7
 48
25.4
100
AcDbHatch
 10
0.0
 20
0.0
 30
0.0
210
0.0
220
0.0
230
1.0
  2
SOLID
 70
     1
 71
     0
 91
        1
 92
        1
 93
        3
 72
     1
 10
153.8867709884555
 20
206.4120370189196
 11
153.8867709884555
 21
207.7453704155829
 72
     1
 10
153.8867709884555
 20
207.7453704155829
 11
149.8867707984657
 21
207.0787037172512
 72
     1
 10
149.8867707984657
 20
207.0787037172512
 11
153.8867709884555
 21
206.4120370189196
 97
        0
 75
     0
 76
     1
 98
        0
  0
LWPOLYLINE
  5
34E
330
34B
100
AcDbEntity
  8
Default
  6
Continuous
 62
     7
 48
25.4
370
    20
100
AcDbPolyline
 90
        4
 70
     1
 43
0.00025
 10
153.8867709885
 20
206.4120370189
 10
149.8867707985
 20
207.0787037173
 10
153.8867709885
 20
207.7453704156
 10
153.8867709885
 20
206.4120370189
  0
HATCH
  5
34F
330
34B
100
AcDbEntity
  8
Default
  6
Continuous
 62
     7
 48
25.4
100
AcDbHatch
 10
0.0
 20
0.0
 30
0.0
210
0.0
220
0.0
230
1.0
  2
SOLID
 70
     1
 71
     0
 91
        1
 92
        1
 93
        3
 72
     1
 10
142.8867706084759
 20
206.4120370189196
 11
146.8867707984657
 21
207.0787037172512
 72
     1
 10
146.8867707984657
 20
207.0787037172512
 11
142.8867706084759
 21
207.7453704155829
 72
     1
 10
142.8867706084759
 20
207.7453704155829
 11
142.8867706084759
 21
206.4120370189196
 97
        0
 75
     0
 76
     1
 98
        0
  0
LWPOLYLINE
  5
350
330
34B
100
AcDbEntity
  8
Default
  6
Continuous
 62
     7
 48
25.4
370
    20
100
AcDbPolyline
 90
        4
 70
     1
 43
0.00025
 10
142.8867706085
 20
206.4120370189
 10
146.8867707985
 20
207.0787037173
 10
142.8867706085
 20
207.7453704156
 10
142.8867706085
 20
206.4120370189
  0
LINE
  5
351
330
34B
100
AcDbEntity
  8
Default
  6
Continuous
 62
     7
 48
25.4
100
AcDbLine
 10
149.8867707985
 20
218.6603686222
 30
0.0
 11
149.8867707985
 21
205.0787036223
 31
0.0
  0
LINE
  5
352
330
34B
100
AcDbEntity
  8
Default
  6
Continuous
 62
     7
 48
25.4
100
AcDbLine
 10
160.5829779716
 20
207.0787037173
 30
0.0
 11
138.8867708581
 21
207.0787037173
 31
0.0
  0
TEXT
  5
353
330
34B
100
AcDbEntity
  8
Default
  6
Continuous
 62
     7
 48
25.4
100
AcDbText
 10
156.0525435249
 20
208.0787037173
 30
0.0
 40
4.0
  1
6
  7
SEACAD_arial_ttf
 11
156.0525435249
 21
212.0787037173
 31
0.0
100
AcDbText
 73
     3
  0
ENDBLK
  5
355
330
34B
100
AcDbEntity
  8
0
100
AcDbBlockEnd
  0
BLOCK
  5
360
330
356
100
AcDbEntity
  8
0
100
AcDbBlockBegin
  2
GDimGGroup13
 70
     0
 71
     0
 10
0.0
 20
0.0
 30
0.0
  3
GDimGGroup13
  1

  0
HATCH
  5
358
330
356
100
AcDbEntity
  8
Default
  6
Continuous
 62
     7
 48
25.4
100
AcDbHatch
 10
0.0
 20
0.0
 30
0.0
210
0.0
220
0.0
230
1.0
  2
SOLID
 70
     1
 71
     0
 91
        1
 92
        1
 93
        3
 72
     1
 10
217.3867709884555
 20
402.5575756035593
 11
213.3867707984657
 21
401.8909089052276
 72
     1
 10
213.3867707984657
 20
401.8909089052276
 11
217.3867709884555
 21
401.224242206896
 72
     1
 10
217.3867709884555
 20
401.224242206896
 11
217.3867709884555
 21
402.5575756035593
 97
        0
 75
     0
 76
     1
 98
        0
  0
LWPOLYLINE
  5
359
330
356
100
AcDbEntity
  8
Default
  6
Continuous
 62
     7
 48
25.4
370
    20
100
AcDbPolyline
 90
        4
 70
     1
 43
0.00025
 10
217.3867709885
 20
402.5575756036
 10
213.3867707985
 20
401.8909089052
 10
217.3867709885
 20
401.2242422069
 10
217.3867709885
 20
402.5575756036
  0
HATCH
  5
35A
330
356
100
AcDbEntity
  8
Default
  6
Continuous
 62
     7
 48
25.4
100
AcDbHatch
 10
0.0
 20
0.0
 30
0.0
210
0.0
220
0.0
230
1.0
  2
SOLID
 70
     1
 71
     0
 91
        1
 92
        1
 93
        3
 72
     1
 10
244.3867707574875
 20
402.5575756035593
 11
244.3867707574875
 21
401.224242206896
 72
     1
 10
244.3867707574875
 20
401.224242206896
 11
248.3867709474773
 21
401.8909089052276
 72
     1
 10
248.3867709474773
 20
401.8909089052276
 11
244.3867707574875
 21
402.5575756035593
 97
        0
 75
     0
 76
     1
 98
        0
  0
LWPOLYLINE
  5
35B
330
356
100
AcDbEntity
  8
Default
  6
Continuous
 62
     7
 48
25.4
370
    20
100
AcDbPolyline
 90
        4
 70
     1
 43
0.00025
 10
244.3867707575
 20
402.5575756036
 10
248.3867709475
 20
401.8909089052
 10
244.3867707575
 20
401.2242422069
 10
244.3867707575
 20
402.5575756036
  0
LINE
  5
35C
330
356
100
AcDbEntity
  8
Default
  6
Continuous
 62
     7
 48
25.4
100
AcDbLine
 10
213.3867707985
 20
388.9103686222
 30
0.0
 11
213.3867707985
 21
403.8909090002
 31
0.0
  0
LINE
  5
35D
330
356
100
AcDbEntity
  8
Default
  6
Continuous
 62
     7
 48
25.4
100
AcDbLine
 10
248.3867707985
 20
389.9103686222
 30
0.0
 11
248.3867707985
 21
403.8909090002
 31
0.0
  0
LINE
  5
35E
330
356
100
AcDbEntity
  8
Default
  6
Continuous
 62
     7
 48
25.4
100
AcDbLine
 10
213.3867707985
 20
401.8909089052
 30
0.0
 11
248.3867709475
 21
401.8909089052
 31
0.0
  0
TEXT
  5
35F
330
356
100
AcDbEntity
  8
Default
  6
Continuous
 62
     7
 48
25.4
100
AcDbText
 10
227.7563360904
 20
402.8909089052
 30
0.0
 40
4.0
  1
70
  7
SEACAD_arial_ttf
 11
227.7563360904
 21
406.8909089052
 31
0.0
100
AcDbText
 73
     3
  0
ENDBLK
  5
361
330
356
100
AcDbEntity
  8
0
100
AcDbBlockEnd
  0
BLOCK
  5
36C
330
362
100
AcDbEntity
  8
0
100
AcDbBlockBegin
  2
GDimGGroup14
 70
     0
 71
     0
 10
0.0
 20
0.0
 30
0.0
  3
GDimGGroup14
  1

  0
HATCH
  5
364
330
362
100
AcDbEntity
  8
Default
  6
Continuous
 62
     7
 48
25.4
100
AcDbHatch
 10
0.0
 20
0.0
 30
0.0
210
0.0
220
0.0
230
1.0
  2
SOLID
 70
     1
 71
     0
 91
        1
 92
        1
 93
        3
 72
     1
 10
317.8352902189653
 20
311.4103688121931
 11
316.501956822302
 21
311.4103688121931
 72
     1
 10
316.501956822302
 20
311.4103688121931
 11
317.1686235206337
 21
307.4103686222033
 72
     1
 10
317.1686235206337
 20
307.4103686222033
 11
317.8352902189653
 21
311.4103688121931
 97
        0
 75
     0
 76
     1
 98
        0
  0
LWPOLYLINE
  5
365
330
362
100
AcDbEntity
  8
Default
  6
Continuous
 62
     7
 48
25.4
370
    20
100
AcDbPolyline
 90
        4
 70
     1
 43
0.00025
 10
317.835290219
 20
311.4103688122
 10
317.1686235206
 20
307.4103686222
 10
316.5019568223
 20
311.4103688122
 10
317.835290219
 20
311.4103688122
  0
HATCH
  5
366
330
362
100
AcDbEntity
  8
Default
  6
Continuous
 62
     7
 48
25.4
100
AcDbHatch
 10
0.0
 20
0.0
 30
0.0
210
0.0
220
0.0
230
1.0
  2
SOLID
 70
     1
 71
     0
 91
        1
 92
        1
 93
        3
 72
     1
 10
317.8352902189653
 20
385.910371710469
 11
317.1686235206337
 21
389.9103719004588
 72
     1
 10
317.1686235206337
 20
389.9103719004588
 11
316.501956822302
 21
385.910371710469
 72
     1
 10
316.501956822302
 20
385.910371710469
 11
317.8352902189653
 21
385.910371710469
 97
        0
 75
     0
 76
     1
 98
        0
  0
LWPOLYLINE
  5
367
330
362
100
AcDbEntity
  8
Default
  6
Continuous
 62
     7
 48
25.4
370
    20
100
AcDbPolyline
 90
        4
 70
     1
 43
0.00025
 10
317.835290219
 20
385.9103717105
 10
317.1686235206
 20
389.9103719005
 10
316.5019568223
 20
385.9103717105
 10
317.835290219
 20
385.9103717105
  0
LINE
  5
368
330
362
100
AcDbEntity
  8
Default
  6
Continuous
 62
     7
 48
25.4
100
AcDbLine
 10
248.3867707985
 20
307.4103686222
 30
0.0
 11
319.1686236156
 21
307.4103686222
 31
0.0
  0
LINE
  5
369
330
362
100
AcDbEntity
  8
Default
  6
Continuous
 62
     7
 48
25.4
100
AcDbLine
 10
248.3867707985
 20
389.9103686222
 30
0.0
 11
319.1686236156
 21
389.9103686222
 31
0.0
  0
LINE
  5
36A
330
362
100
AcDbEntity
  8
Default
  6
Continuous
 62
     7
 48
25.4
100
AcDbLine
 10
317.1686235206
 20
307.4103686222
 30
0.0
 11
317.1686235206
 21
389.9103719005
 31
0.0
  0
TEXT
  5
36B
330
362
100
AcDbEntity
  8
Default
  6
Continuous
 62
     7
 48
25.4
100
AcDbText
 10
316.1686235206
 20
343.9647180874
 30
0.0
 40
4.0
  1
165
 50
90.0
  7
SEACAD_arial_ttf
 11
312.1686235206
 21
343.9647180874
 31
0.0
100
AcDbText
 73
     3
  0
ENDBLK
  5
36D
330
362
100
AcDbEntity
  8
0
100
AcDbBlockEnd
  0
BLOCK
  5
378
330
36E
100
AcDbEntity
  8
0
100
AcDbBlockBegin
  2
GDimGGroup15
 70
     0
 71
     0
 10
0.0
 20
0.0
 30
0.0
  3
GDimGGroup15
  1

  0
HATCH
  5
370
330
36E
100
AcDbEntity
  8
Default
  6
Continuous
 62
     7
 48
25.4
100
AcDbHatch
 10
0.0
 20
0.0
 30
0.0
210
0.0
220
0.0
230
1.0
  2
SOLID
 70
     1
 71
     0
 91
        1
 92
        1
 93
        3
 72
     1
 10
295.3746768192213
 20
385.9103684322135
 11
294.7080101208896
 21
389.9103686222033
 72
     1
 10
294.7080101208896
 20
389.9103686222033
 11
294.041343422558
 21
385.9103684322135
 72
     1
 10
294.041343422558
 20
385.9103684322135
 11
295.3746768192213
 21
385.9103684322135
 97
        0
 75
     0
 76
     1
 98
        0
  0
LWPOLYLINE
  5
371
330
36E
100
AcDbEntity
  8
Default
  6
Continuous
 62
     7
 48
25.4
370
    20
100
AcDbPolyline
 90
        4
 70
     1
 43
0.00025
 10
295.3746768192
 20
385.9103684322
 10
294.7080101209
 20
389.9103686222
 10
294.0413434226
 20
385.9103684322
 10
295.3746768192
 20
385.9103684322
  0
HATCH
  5
372
330
36E
100
AcDbEntity
  8
Default
  6
Continuous
 62
     7
 48
25.4
100
AcDbHatch
 10
0.0
 20
0.0
 30
0.0
210
0.0
220
0.0
230
1.0
  2
SOLID
 70
     1
 71
     0
 91
        1
 92
        1
 93
        3
 72
     1
 10
295.3746768192213
 20
375.4103685737745
 11
294.041343422558
 21
375.4103685737745
 72
     1
 10
294.041343422558
 20
375.4103685737745
 11
294.7080101208896
 21
371.4103683837847
 72
     1
 10
294.7080101208896
 20
371.4103683837847
 11
295.3746768192213
 21
375.4103685737745
 97
        0
 75
     0
 76
     1
 98
        0
  0
LWPOLYLINE
  5
373
330
36E
100
AcDbEntity
  8
Default
  6
Continuous
 62
     7
 48
25.4
370
    20
100
AcDbPolyline
 90
        4
 70
     1
 43
0.00025
 10
295.3746768192
 20
375.4103685738
 10
294.7080101209
 20
371.4103683838
 10
294.0413434226
 20
375.4103685738
 10
295.3746768192
 20
375.4103685738
  0
LINE
  5
374
330
36E
100
AcDbEntity
  8
Default
  6
Continuous
 62
     7
 48
25.4
100
AcDbLine
 10
248.3867707985
 20
389.9103686222
 30
0.0
 11
296.7080102159
 21
389.9103686222
 31
0.0
  0
LINE
  5
375
330
36E
100
AcDbEntity
  8
Default
  6
Continuous
 62
     7
 48
25.4
100
AcDbLine
 10
248.3867707985
 20
371.4103686222
 30
0.0
 11
296.7080102159
 21
371.4103686222
 31
0.0
  0
LINE
  5
376
330
36E
100
AcDbEntity
  8
Default
  6
Continuous
 62
     7
 48
25.4
100
AcDbLine
 10
294.7080101209
 20
389.9103686222
 30
0.0
 11
294.7080101209
 21
371.4103683838
 31
0.0
  0
TEXT
  5
377
330
36E
100
AcDbEntity
  8
Default
  6
Continuous
 62
     7
 48
25.4
100
AcDbText
 10
293.7080101209
 20
377.5299337204
 30
0.0
 40
4.0
  1
37
 50
90.0
  7
SEACAD_arial_ttf
 11
289.7080101209
 21
377.5299337204
 31
0.0
100
AcDbText
 73
     3
  0
ENDBLK
  5
379
330
36E
100
AcDbEntity
  8
0
100
AcDbBlockEnd
  0
BLOCK
  5
384
330
37A
100
AcDbEntity
  8
0
100
AcDbBlockBegin
  2
GDimGGroup16
 70
     0
 71
     0
 10
0.0
 20
0.0
 30
0.0
  3
GDimGGroup16
  1

  0
HATCH
  5
37C
330
37A
100
AcDbEntity
  8
Default
  6
Continuous
 62
     7
 48
25.4
100
AcDbHatch
 10
0.0
 20
0.0
 30
0.0
210
0.0
220
0.0
230
1.0
  2
SOLID
 70
     1
 71
     0
 91
        1
 92
        1
 93
        3
 72
     1
 10
295.3746768192213
 20
367.4103684322135
 11
294.7080101208896
 21
371.4103686222033
 72
     1
 10
294.7080101208896
 20
371.4103686222033
 11
294.041343422558
 21
367.4103684322135
 72
     1
 10
294.041343422558
 20
367.4103684322135
 11
295.3746768192213
 21
367.4103684322135
 97
        0
 75
     0
 76
     1
 98
        0
  0
LWPOLYLINE
  5
37D
330
37A
100
AcDbEntity
  8
Default
  6
Continuous
 62
     7
 48
25.4
370
    20
100
AcDbPolyline
 90
        4
 70
     1
 43
0.00025
 10
295.3746768192
 20
367.4103684322
 10
294.7080101209
 20
371.4103686222
 10
294.0413434226
 20
367.4103684322
 10
295.3746768192
 20
367.4103684322
  0
HATCH
  5
37E
330
37A
100
AcDbEntity
  8
Default
  6
Continuous
 62
     7
 48
25.4
100
AcDbHatch
 10
0.0
 20
0.0
 30
0.0
210
0.0
220
0.0
230
1.0
  2
SOLID
 70
     1
 71
     0
 91
        1
 92
        1
 93
        3
 72
     1
 10
295.3746768192213
 20
353.9103680820362
 11
294.041343422558
 21
353.9103680820362
 72
     1
 10
294.041343422558
 20
353.9103680820362
 11
294.7080101208896
 21
349.9103678920464
 72
     1
 10
294.7080101208896
 20
349.9103678920464
 11
295.3746768192213
 21
353.9103680820362
 97
        0
 75
     0
 76
     1
 98
        0
  0
LWPOLYLINE
  5
37F
330
37A
100
AcDbEntity
  8
Default
  6
Continuous
 62
     7
 48
25.4
370
    20
100
AcDbPolyline
 90
        4
 70
     1
 43
0.00025
 10
295.3746768192
 20
353.910368082
 10
294.7080101209
 20
349.910367892
 10
294.0413434226
 20
353.910368082
 10
295.3746768192
 20
353.910368082
  0
LINE
  5
380
330
37A
100
AcDbEntity
  8
Default
  6
Continuous
 62
     7
 48
25.4
100
AcDbLine
 10
248.3867707985
 20
371.4103686222
 30
0.0
 11
296.7080102159
 21
371.4103686222
 31
0.0
  0
LINE
  5
381
330
37A
100
AcDbEntity
  8
Default
  6
Continuous
 62
     7
 48
25.4
100
AcDbLine
 10
248.3867707985
 20
349.9103686222
 30
0.0
 11
296.7080102159
 21
349.9103686222
 31
0.0
  0
LINE
  5
382
330
37A
100
AcDbEntity
  8
Default
  6
Continuous
 62
     7
 48
25.4
100
AcDbLine
 10
294.7080101209
 20
371.4103686222
 30
0.0
 11
294.7080101209
 21
349.910367892
 31
0.0
  0
TEXT
  5
383
330
37A
100
AcDbEntity
  8
Default
  6
Continuous
 62
     7
 48
25.4
100
AcDbText
 10
293.7080101209
 20
357.5299334745
 30
0.0
 40
4.0
  1
43
 50
90.0
  7
SEACAD_arial_ttf
 11
289.7080101209
 21
357.5299334745
 31
0.0
100
AcDbText
 73
     3
  0
ENDBLK
  5
385
330
37A
100
AcDbEntity
  8
0
100
AcDbBlockEnd
  0
BLOCK
  5
392
330
386
100
AcDbEntity
  8
0
100
AcDbBlockBegin
  2
GDimGGroup17
 70
     0
 71
     0
 10
0.0
 20
0.0
 30
0.0
  3
GDimGGroup17
  1

  0
HATCH
  5
388
330
386
100
AcDbEntity
  8
Default
  6
Continuous
 62
     7
 48
25.4
100
AcDbHatch
 10
0.0
 20
0.0
 30
0.0
210
0.0
220
0.0
230
1.0
  2
SOLID
 70
     1
 71
     0
 91
        1
 92
        1
 93
        3
 72
     1
 10
270.8614201193298
 20
297.6603688121931
 11
269.5280867226664
 21
297.6603688121931
 72
     1
 10
269.5280867226664
 20
297.6603688121931
 11
270.1947534209981
 21
293.6603686222033
 72
     1
 10
270.1947534209981
 20
293.6603686222033
 11
270.8614201193298
 21
297.6603688121931
 97
        0
 75
     0
 76
     1
 98
        0
  0
LWPOLYLINE
  5
389
330
386
100
AcDbEntity
  8
Default
  6
Continuous
 62
     7
 48
25.4
370
    20
100
AcDbPolyline
 90
        4
 70
     1
 43
0.00025
 10
270.8614201193
 20
297.6603688122
 10
270.194753421
 20
293.6603686222
 10
269.5280867227
 20
297.6603688122
 10
270.8614201193
 20
297.6603688122
  0
HATCH
  5
38A
330
386
100
AcDbEntity
  8
Default
  6
Continuous
 62
     7
 48
25.4
100
AcDbHatch
 10
0.0
 20
0.0
 30
0.0
210
0.0
220
0.0
230
1.0
  2
SOLID
 70
     1
 71
     0
 91
        1
 92
        1
 93
        3
 72
     1
 10
270.8614201193298
 20
330.6603695647017
 11
270.1947534209981
 21
334.6603697546915
 72
     1
 10
270.1947534209981
 20
334.6603697546915
 11
269.5280867226664
 21
330.6603695647017
 72
     1
 10
269.5280867226664
 20
330.6603695647017
 11
270.8614201193298
 21
330.6603695647017
 97
        0
 75
     0
 76
     1
 98
        0
  0
LWPOLYLINE
  5
38B
330
386
100
AcDbEntity
  8
Default
  6
Continuous
 62
     7
 48
25.4
370
    20
100
AcDbPolyline
 90
        4
 70
     1
 43
0.00025
 10
270.8614201193
 20
330.6603695647
 10
270.194753421
 20
334.6603697547
 10
269.5280867227
 20
330.6603695647
 10
270.8614201193
 20
330.6603695647
  0
LINE
  5
38C
330
386
100
AcDbEntity
  8
Default
  6
Continuous
 62
     7
 48
25.4
100
AcDbLine
 10
240.6120648361
 20
293.6603686222
 30
0.0
 11
272.194753516
 21
293.6603686222
 31
0.0
  0
LINE
  5
38D
330
386
100
AcDbEntity
  8
Default
  6
Continuous
 62
     7
 48
25.4
100
AcDbLine
 10
208.3867707985
 20
334.6603686222
 30
0.0
 11
272.194753516
 21
334.6603686222
 31
0.0
  0
LINE
  5
38E
330
386
100
AcDbEntity
  8
Default
  6
Continuous
 62
     7
 48
25.4
100
AcDbLine
 10
270.194753421
 20
267.078116388
 30
0.0
 11
270.194753421
 21
334.6603697547
 31
0.0
  0
TEXT
  5
38F
330
386
100
AcDbEntity
  8
Default
  6
Continuous
 62
     7
 48
25.4
100
AcDbText
 10
263.194753421
 20
283.1911605002
 30
0.0
 40
4.0
  1
82
 50
90.0
  7
SEACAD_arial_ttf
 11
259.194753421
 21
283.1911605002
 31
0.0
100
AcDbText
 73
     3
  0
TEXT
  5
390
330
386
100
AcDbEntity
  8
Default
  6
Continuous
 62
     7
 48
25.4
100
AcDbText
 10
263.194753421
 20
268.4781170219
 30
0.0
 40
4.0
  1
MAX
 50
90.0
  7
SEACAD_arial_ttf
 11
259.194753421
 21
268.4781170219
 31
0.0
100
AcDbText
 73
     3
  0
TEXT
  5
391
330
386
100
AcDbEntity
  8
Default
  6
Continuous
 62
     7
 48
25.4
100
AcDbText
 10
269.194753421
 20
268.4781170219
 30
0.0
 40
4.0
  1
MIN 76.7
 50
90.0
  7
SEACAD_arial_ttf
 11
265.194753421
 21
268.4781170219
 31
0.0
100
AcDbText
 73
     3
  0
ENDBLK
  5
393
330
386
100
AcDbEntity
  8
0
100
AcDbBlockEnd
  0
BLOCK
  5
3A0
330
394
100
AcDbEntity
  8
0
100
AcDbBlockBegin
  2
GDimGGroup18
 70
     0
 71
     0
 10
0.0
 20
0.0
 30
0.0
  3
GDimGGroup18
  1

  0
HATCH
  5
396
330
394
100
AcDbEntity
  8
Default
  6
Continuous
 62
     7
 48
25.4
100
AcDbHatch
 10
0.0
 20
0.0
 30
0.0
210
0.0
220
0.0
230
1.0
  2
SOLID
 70
     1
 71
     0
 91
        1
 92
        1
 93
        3
 72
     1
 10
295.374679650442
 20
338.6603688121931
 11
294.0413462537787
 21
338.6603688121931
 72
     1
 10
294.0413462537787
 20
338.6603688121931
 11
294.7080129521103
 21
334.6603686222033
 72
     1
 10
294.7080129521103
 20
334.6603686222033
 11
295.374679650442
 21
338.6603688121931
 97
        0
 75
     0
 76
     1
 98
        0
  0
LWPOLYLINE
  5
397
330
394
100
AcDbEntity
  8
Default
  6
Continuous
 62
     7
 48
25.4
370
    20
100
AcDbPolyline
 90
        4
 70
     1
 43
0.00025
 10
295.3746796504
 20
338.6603688122
 10
294.7080129521
 20
334.6603686222
 10
294.0413462538
 20
338.6603688122
 10
295.3746796504
 20
338.6603688122
  0
HATCH
  5
398
330
394
100
AcDbEntity
  8
Default
  6
Continuous
 62
     7
 48
25.4
100
AcDbHatch
 10
0.0
 20
0.0
 30
0.0
210
0.0
220
0.0
230
1.0
  2
SOLID
 70
     1
 71
     0
 91
        1
 92
        1
 93
        3
 72
     1
 10
295.374679650442
 20
345.9103686035768
 11
294.7080129521103
 21
349.9103687935667
 72
     1
 10
294.7080129521103
 20
349.9103687935667
 11
294.0413462537787
 21
345.9103686035768
 72
     1
 10
294.0413462537787
 20
345.9103686035768
 11
295.374679650442
 21
345.9103686035768
 97
        0
 75
     0
 76
     1
 98
        0
  0
LWPOLYLINE
  5
399
330
394
100
AcDbEntity
  8
Default
  6
Continuous
 62
     7
 48
25.4
370
    20
100
AcDbPolyline
 90
        4
 70
     1
 43
0.00025
 10
295.3746796504
 20
345.9103686036
 10
294.7080129521
 20
349.9103687936
 10
294.0413462538
 20
345.9103686036
 10
295.3746796504
 20
345.9103686036
  0
LINE
  5
39A
330
394
100
AcDbEntity
  8
Default
  6
Continuous
 62
     7
 48
25.4
100
AcDbLine
 10
208.3867707985
 20
334.6603686222
 30
0.0
 11
296.7080130471
 21
334.6603686222
 31
0.0
  0
LINE
  5
39B
330
394
100
AcDbEntity
  8
Default
  6
Continuous
 62
     7
 48
25.4
100
AcDbLine
 10
204.1897025894
 20
349.9103686222
 30
0.0
 11
296.7080130471
 21
349.9103686222
 31
0.0
  0
LINE
  5
39C
330
394
100
AcDbEntity
  8
Default
  6
Continuous
 62
     7
 48
25.4
100
AcDbLine
 10
294.7080129521
 20
275.0240514287
 30
0.0
 11
294.7080129521
 21
349.9103687936
 31
0.0
  0
TEXT
  5
39D
330
394
100
AcDbEntity
  8
Default
  6
Continuous
 62
     7
 48
25.4
100
AcDbText
 10
287.7080129521
 20
291.1370933811
 30
0.0
 40
4.0
  1
43.75
 50
90.0
  7
SEACAD_arial_ttf
 11
283.7080129521
 21
291.1370933811
 31
0.0
100
AcDbText
 73
     3
  0
TEXT
  5
39E
330
394
100
AcDbEntity
  8
Default
  6
Continuous
 62
     7
 48
25.4
100
AcDbText
 10
287.7080129521
 20
276.4240499028
 30
0.0
 40
4.0
  1
MAX
 50
90.0
  7
SEACAD_arial_ttf
 11
283.7080129521
 21
276.4240499028
 31
0.0
100
AcDbText
 73
     3
  0
TEXT
  5
39F
330
394
100
AcDbEntity
  8
Default
  6
Continuous
 62
     7
 48
25.4
100
AcDbText
 10
293.7080129521
 20
276.4240499028
 30
0.0
 40
4.0
  1
MIN 18.25
 50
90.0
  7
SEACAD_arial_ttf
 11
289.7080129521
 21
276.4240499028
 31
0.0
100
AcDbText
 73
     3
  0
ENDBLK
  5
3A1
330
394
100
AcDbEntity
  8
0
100
AcDbBlockEnd
  0
BLOCK
  5
3AD
330
3A2
100
AcDbEntity
  8
0
100
AcDbBlockBegin
  2
GDimGGroup19
 70
     0
 71
     0
 10
0.0
 20
0.0
 30
0.0
  3
GDimGGroup19
  1

  0
HATCH
  5
3A4
330
3A2
100
AcDbEntity
  8
Default
  6
Continuous
 62
     7
 48
25.4
100
AcDbHatch
 10
0.0
 20
0.0
 30
0.0
210
0.0
220
0.0
230
1.0
  2
SOLID
 70
     1
 71
     0
 91
        1
 92
        1
 93
        3
 72
     1
 10
105.9335262471213
 20
282.6603688121931
 11
106.6001929454529
 21
278.6603686222033
 72
     1
 10
106.6001929454529
 20
278.6603686222033
 11
107.2668596437845
 21
282.6603688121931
 72
     1
 10
107.2668596437845
 20
282.6603688121931
 11
105.9335262471213
 21
282.6603688121931
 97
        0
 75
     0
 76
     1
 98
        0
  0
LWPOLYLINE
  5
3A5
330
3A2
100
AcDbEntity
  8
Default
  6
Continuous
 62
     7
 48
25.4
370
    20
100
AcDbPolyline
 90
        4
 70
     1
 43
0.00025
 10
105.9335262471
 20
282.6603688122
 10
106.6001929455
 20
278.6603686222
 10
107.2668596438
 20
282.6603688122
 10
105.9335262471
 20
282.6603688122
  0
HATCH
  5
3A6
330
3A2
100
AcDbEntity
  8
Default
  6
Continuous
 62
     7
 48
25.4
100
AcDbHatch
 10
0.0
 20
0.0
 30
0.0
210
0.0
220
0.0
230
1.0
  2
SOLID
 70
     1
 71
     0
 91
        1
 92
        1
 93
        3
 72
     1
 10
105.9335262471213
 20
304.6603677616612
 11
107.2668596437845
 21
304.6603677616612
 72
     1
 10
107.2668596437845
 20
304.6603677616612
 11
106.6001929454529
 21
308.660367951651
 72
     1
 10
106.6001929454529
 20
308.660367951651
 11
105.9335262471213
 21
304.6603677616612
 97
        0
 75
     0
 76
     1
 98
        0
  0
LWPOLYLINE
  5
3A7
330
3A2
100
AcDbEntity
  8
Default
  6
Continuous
 62
     7
 48
25.4
370
    20
100
AcDbPolyline
 90
        4
 70
     1
 43
0.00025
 10
105.9335262471
 20
304.6603677617
 10
106.6001929455
 20
308.6603679517
 10
107.2668596438
 20
304.6603677617
 10
105.9335262471
 20
304.6603677617
  0
LINE
  5
3A8
330
3A2
100
AcDbEntity
  8
Default
  6
Continuous
 62
     7
 48
25.4
100
AcDbLine
 10
155.3867716454
 20
278.6603686222
 30
0.0
 11
104.6001928505
 21
278.6603686222
 31
0.0
  0
LINE
  5
3A9
330
3A2
100
AcDbEntity
  8
Default
  6
Continuous
 62
     7
 48
25.4
100
AcDbLine
 10
155.3867707985
 20
308.6603686222
 30
0.0
 11
104.6001928505
 21
308.6603686222
 31
0.0
  0
LINE
  5
3AA
330
3A2
100
AcDbEntity
  8
Default
  6
Continuous
 62
     7
 48
25.4
100
AcDbLine
 10
106.6001929455
 20
278.6603686222
 30
0.0
 11
106.6001929455
 21
308.6603679517
 31
0.0
  0
TEXT
  5
3AB
330
3A2
100
AcDbEntity
  8
Default
  6
Continuous
 62
     7
 48
25.4
100
AcDbText
 10
105.6001929455
 20
294.2106352587
 30
0.0
 40
4.0
  1
60
 50
90.0
  7
SEACAD_arial_ttf
 11
101.6001929455
 21
294.2106352587
 31
0.0
100
AcDbText
 73
     3
  0
TEXT
  5
3AC
330
3A2
100
AcDbEntity
  8
Default
  6
Continuous
 62
     7
 48
25.4
100
AcDbText
 10
105.6001929455
 20
286.8492317499
 30
0.0
 40
4.0
  1
O
 50
90.0
  7
SEACAD_semeca1_ttf
 11
101.6001929455
 21
286.8492317499
 31
0.0
100
AcDbText
 73
     3
  0
ENDBLK
  5
3AE
330
3A2
100
AcDbEntity
  8
0
100
AcDbBlockEnd
  0
BLOCK
  5
3BA
330
3AF
100
AcDbEntity
  8
0
100
AcDbBlockBegin
  2
GDimGGroup20
 70
     0
 71
     0
 10
0.0
 20
0.0
 30
0.0
  3
GDimGGroup20
  1

  0
HATCH
  5
3B1
330
3AF
100
AcDbEntity
  8
Default
  6
Continuous
 62
     7
 48
25.4
100
AcDbHatch
 10
0.0
 20
0.0
 30
0.0
210
0.0
220
0.0
230
1.0
  2
SOLID
 70
     1
 71
     0
 91
        1
 92
        1
 93
        3
 72
     1
 10
44.00857454719755
 20
202.4103688121931
 11
44.67524124552919
 21
198.4103686222033
 72
     1
 10
44.67524124552919
 20
198.4103686222033
 11
45.34190794386082
 21
202.4103688121931
 72
     1
 10
45.34190794386082
 20
202.4103688121931
 11
44.00857454719755
 21
202.4103688121931
 97
        0
 75
     0
 76
     1
 98
        0
  0
LWPOLYLINE
  5
3B2
330
3AF
100
AcDbEntity
  8
Default
  6
Continuous
 62
     7
 48
25.4
370
    20
100
AcDbPolyline
 90
        4
 70
     1
 43
0.00025
 10
44.0085745472
 20
202.4103688122
 10
44.6752412455
 20
198.4103686222
 10
45.3419079439
 20
202.4103688122
 10
44.0085745472
 20
202.4103688122
  0
HATCH
  5
3B3
330
3AF
100
AcDbEntity
  8
Default
  6
Continuous
 62
     7
 48
25.4
100
AcDbHatch
 10
0.0
 20
0.0
 30
0.0
210
0.0
220
0.0
230
1.0
  2
SOLID
 70
     1
 71
     0
 91
        1
 92
        1
 93
        3
 72
     1
 10
44.00857454719755
 20
384.9103745118873
 11
45.34190794386082
 21
384.9103745118873
 72
     1
 10
45.34190794386082
 20
384.9103745118873
 11
44.67524124552919
 21
388.9103747018771
 72
     1
 10
44.67524124552919
 20
388.9103747018771
 11
44.00857454719755
 21
384.9103745118873
 97
        0
 75
     0
 76
     1
 98
        0
  0
LWPOLYLINE
  5
3B4
330
3AF
100
AcDbEntity
  8
Default
  6
Continuous
 62
     7
 48
25.4
370
    20
100
AcDbPolyline
 90
        4
 70
     1
 43
0.00025
 10
44.0085745472
 20
384.9103745119
 10
44.6752412455
 20
388.9103747019
 10
45.3419079439
 20
384.9103745119
 10
44.0085745472
 20
384.9103745119
  0
LINE
  5
3B5
330
3AF
100
AcDbEntity
  8
Default
  6
Continuous
 62
     7
 48
25.4
100
AcDbLine
 10
147.8867707985
 20
198.4103686222
 30
0.0
 11
42.6752411505
 21
198.4103686222
 31
0.0
  0
LINE
  5
3B6
330
3AF
100
AcDbEntity
  8
Default
  6
Continuous
 62
     7
 48
25.4
100
AcDbLine
 10
147.8867707985
 20
388.9103686222
 30
0.0
 11
42.6752411505
 21
388.9103686222
 31
0.0
  0
LINE
  5
3B7
330
3AF
100
AcDbEntity
  8
Default
  6
Continuous
 62
     7
 48
25.4
100
AcDbLine
 10
44.6752412455
 20
198.4103686222
 30
0.0
 11
44.6752412455
 21
388.9103747019
 31
0.0
  0
TEXT
  5
3B8
330
3AF
100
AcDbEntity
  8
Default
  6
Continuous
 62
     7
 48
25.4
100
AcDbText
 10
43.6752412455
 20
292.6454212425
 30
0.0
 40
4.0
  1
381
 50
90.0
  7
SEACAD_arial_ttf
 11
39.6752412455
 21
292.6454212425
 31
0.0
100
AcDbText
 73
     3
  0
TEXT
  5
3B9
330
3AF
100
AcDbEntity
  8
Default
  6
Continuous
 62
     7
 48
25.4
100
AcDbText
 10
43.6752412455
 20
285.2840177337
 30
0.0
 40
4.0
  1
O
 50
90.0
  7
SEACAD_semeca1_ttf
 11
39.6752412455
 21
285.2840177337
 31
0.0
100
AcDbText
 73
     3
  0
ENDBLK
  5
3BB
330
3AF
100
AcDbEntity
  8
0
100
AcDbBlockEnd
  0
BLOCK
  5
3C8
330
3BC
100
AcDbEntity
  8
0
100
AcDbBlockBegin
  2
GDimGGroup21
 70
     0
 71
     0
 10
0.0
 20
0.0
 30
0.0
  3
GDimGGroup21
  1

  0
HATCH
  5
3BE
330
3BC
100
AcDbEntity
  8
Default
  6
Continuous
 62
     7
 48
25.4
100
AcDbHatch
 10
0.0
 20
0.0
 30
0.0
210
0.0
220
0.0
230
1.0
  2
SOLID
 70
     1
 71
     0
 91
        1
 92
        1
 93
        3
 72
     1
 10
66.69813543739529
 20
222.6603688121931
 11
67.36480213572693
 21
218.6603686222033
 72
     1
 10
67.36480213572693
 20
218.6603686222033
 11
68.03146883405857
 21
222.6603688121931
 72
     1
 10
68.03146883405857
 20
222.6603688121931
 11
66.69813543739529
 21
222.6603688121931
 97
        0
 75
     0
 76
     1
 98
        0
  0
LWPOLYLINE
  5
3BF
330
3BC
100
AcDbEntity
  8
Default
  6
Continuous
 62
     7
 48
25.4
370
    20
100
AcDbPolyline
 90
        4
 70
     1
 43
0.00025
 10
66.6981354374
 20
222.6603688122
 10
67.3648021357
 20
218.6603686222
 10
68.0314688341
 20
222.6603688122
 10
66.6981354374
 20
222.6603688122
  0
HATCH
  5
3C0
330
3BC
100
AcDbEntity
  8
Default
  6
Continuous
 62
     7
 48
25.4
100
AcDbHatch
 10
0.0
 20
0.0
 30
0.0
210
0.0
220
0.0
230
1.0
  2
SOLID
 70
     1
 71
     0
 91
        1
 92
        1
 93
        3
 72
     1
 10
66.69813543739529
 20
364.660374392678
 11
68.03146883405857
 21
364.660374392678
 72
     1
 10
68.03146883405857
 20
364.660374392678
 11
67.36480213572693
 21
368.6603745826678
 72
     1
 10
67.36480213572693
 20
368.6603745826678
 11
66.69813543739529
 21
364.660374392678
 97
        0
 75
     0
 76
     1
 98
        0
  0
LWPOLYLINE
  5
3C1
330
3BC
100
AcDbEntity
  8
Default
  6
Continuous
 62
     7
 48
25.4
370
    20
100
AcDbPolyline
 90
        4
 70
     1
 43
0.00025
 10
66.6981354374
 20
364.6603743927
 10
67.3648021357
 20
368.6603745827
 10
68.0314688341
 20
364.6603743927
 10
66.6981354374
 20
364.6603743927
  0
LINE
  5
3C2
330
3BC
100
AcDbEntity
  8
Default
  6
Continuous
 62
     7
 48
25.4
100
AcDbLine
 10
139.3867707985
 20
218.6603686222
 30
0.0
 11
65.3648020407
 21
218.6603686222
 31
0.0
  0
LINE
  5
3C3
330
3BC
100
AcDbEntity
  8
Default
  6
Continuous
 62
     7
 48
25.4
100
AcDbLine
 10
139.3867707985
 20
368.6603686222
 30
0.0
 11
65.3648020407
 21
368.6603686222
 31
0.0
  0
LINE
  5
3C4
330
3BC
100
AcDbEntity
  8
Default
  6
Continuous
 62
     7
 48
25.4
100
AcDbLine
 10
67.3648021357
 20
218.6603686222
 30
0.0
 11
67.3648021357
 21
368.6603745827
 31
0.0
  0
TEXT
  5
3C5
330
3BC
100
AcDbEntity
  8
Default
  6
Continuous
 62
     7
 48
25.4
100
AcDbText
 10
66.3648021357
 20
287.8802037916
 30
0.0
 40
4.0
  1
300
 50
90.0
  7
SEACAD_arial_ttf
 11
62.3648021357
 21
287.8802037916
 31
0.0
100
AcDbText
 73
     3
  0
TEXT
  5
3C6
330
3BC
100
AcDbEntity
  8
Default
  6
Continuous
 62
     7
 48
25.4
100
AcDbText
 10
66.3648021357
 20
299.6715081394
 30
0.0
 40
4.0
  1
H6
 50
90.0
  7
SEACAD_arial_ttf
 11
62.3648021357
 21
299.6715081394
 31
0.0
100
AcDbText
 73
     3
  0
TEXT
  5
3C7
330
3BC
100
AcDbEntity
  8
Default
  6
Continuous
 62
     7
 48
25.4
100
AcDbText
 10
66.3648021357
 20
280.5188002828
 30
0.0
 40
4.0
  1
O
 50
90.0
  7
SEACAD_semeca1_ttf
 11
62.3648021357
 21
280.5188002828
 31
0.0
100
AcDbText
 73
     3
  0
ENDBLK
  5
3C9
330
3BC
100
AcDbEntity
  8
0
100
AcDbBlockEnd
  0
BLOCK
  5
3D5
330
3CA
100
AcDbEntity
  8
0
100
AcDbBlockBegin
  2
GDimGGroup22
 70
     0
 71
     0
 10
0.0
 20
0.0
 30
0.0
  3
GDimGGroup22
  1

  0
HATCH
  5
3CC
330
3CA
100
AcDbEntity
  8
Default
  6
Continuous
 62
     7
 48
25.4
100
AcDbHatch
 10
0.0
 20
0.0
 30
0.0
210
0.0
220
0.0
230
1.0
  2
SOLID
 70
     1
 71
     0
 91
        1
 92
        1
 93
        3
 72
     1
 10
88.4507584291956
 20
248.4431188121931
 11
89.11742512752724
 21
244.4431186222033
 72
     1
 10
89.11742512752724
 20
244.4431186222033
 11
89.78409182585888
 21
248.4431188121931
 72
     1
 10
89.78409182585888
 20
248.4431188121931
 11
88.4507584291956
 21
248.4431188121931
 97
        0
 75
     0
 76
     1
 98
        0
  0
LWPOLYLINE
  5
3CD
330
3CA
100
AcDbEntity
  8
Default
  6
Continuous
 62
     7
 48
25.4
370
    20
100
AcDbPolyline
 90
        4
 70
     1
 43
0.00025
 10
88.4507584292
 20
248.4431188122
 10
89.1174251275
 20
244.4431186222
 10
89.7840918259
 20
248.4431188122
 10
88.4507584292
 20
248.4431188122
  0
HATCH
  5
3CE
330
3CA
100
AcDbEntity
  8
Default
  6
Continuous
 62
     7
 48
25.4
100
AcDbHatch
 10
0.0
 20
0.0
 30
0.0
210
0.0
220
0.0
230
1.0
  2
SOLID
 70
     1
 71
     0
 91
        1
 92
        1
 93
        3
 72
     1
 10
88.4507584291956
 20
338.8776188284652
 11
89.78409182585888
 21
338.8776188284652
 72
     1
 10
89.78409182585888
 20
338.8776188284652
 11
89.11742512752724
 21
342.877619018455
 72
     1
 10
89.11742512752724
 20
342.877619018455
 11
88.4507584291956
 21
338.8776188284652
 97
        0
 75
     0
 76
     1
 98
        0
  0
LWPOLYLINE
  5
3CF
330
3CA
100
AcDbEntity
  8
Default
  6
Continuous
 62
     7
 48
25.4
370
    20
100
AcDbPolyline
 90
        4
 70
     1
 43
0.00025
 10
88.4507584292
 20
338.8776188285
 10
89.1174251275
 20
342.8776190185
 10
89.7840918259
 20
338.8776188285
 10
88.4507584292
 20
338.8776188285
  0
LINE
  5
3D0
330
3CA
100
AcDbEntity
  8
Default
  6
Continuous
 62
     7
 48
25.4
100
AcDbLine
 10
138.8867707985
 20
244.4431186222
 30
0.0
 11
87.1174250325
 21
244.4431186222
 31
0.0
  0
LINE
  5
3D1
330
3CA
100
AcDbEntity
  8
Default
  6
Continuous
 62
     7
 48
25.4
100
AcDbLine
 10
138.8867707985
 20
342.8776186222
 30
0.0
 11
87.1174250325
 21
342.8776186222
 31
0.0
  0
LINE
  5
3D2
330
3CA
100
AcDbEntity
  8
Default
  6
Continuous
 62
     7
 48
25.4
100
AcDbLine
 10
89.1174251275
 20
244.4431186222
 30
0.0
 11
89.1174251275
 21
342.8776190185
 31
0.0
  0
TEXT
  5
3D3
330
3CA
100
AcDbEntity
  8
Default
  6
Continuous
 62
     7
 48
25.4
100
AcDbText
 10
88.1174251275
 20
287.1671575312
 30
0.0
 40
4.0
  1
196.869
 50
90.0
  7
SEACAD_arial_ttf
 11
84.1174251275
 21
287.1671575312
 31
0.0
100
AcDbText
 73
     3
  0
TEXT
  5
3D4
330
3CA
100
AcDbEntity
  8
Default
  6
Continuous
 62
     7
 48
25.4
100
AcDbText
 10
88.1174251275
 20
279.8057540225
 30
0.0
 40
4.0
  1
O
 50
90.0
  7
SEACAD_semeca1_ttf
 11
84.1174251275
 21
279.8057540225
 31
0.0
100
AcDbText
 73
     3
  0
ENDBLK
  5
3D6
330
3CA
100
AcDbEntity
  8
0
100
AcDbBlockEnd
  0
BLOCK
  5
3E1
330
3D7
100
AcDbEntity
  8
0
100
AcDbBlockBegin
  2
GDimGGroup23
 70
     0
 71
     0
 10
0.0
 20
0.0
 30
0.0
  3
GDimGGroup23
  1

  0
HATCH
  5
3D9
330
3D7
100
AcDbEntity
  8
Default
  6
Continuous
 62
     7
 48
25.4
100
AcDbHatch
 10
0.0
 20
0.0
 30
0.0
210
0.0
220
0.0
230
1.0
  2
SOLID
 70
     1
 71
     0
 91
        1
 92
        1
 93
        3
 72
     1
 10
209.3867706084759
 20
174.0845507124907
 11
213.3867707984657
 21
174.7512174108223
 72
     1
 10
213.3867707984657
 20
174.7512174108223
 11
209.3867706084759
 21
175.417884109154
 72
     1
 10
209.3867706084759
 20
175.417884109154
 11
209.3867706084759
 21
174.0845507124907
 97
        0
 75
     0
 76
     1
 98
        0
  0
LWPOLYLINE
  5
3DA
330
3D7
100
AcDbEntity
  8
Default
  6
Continuous
 62
     7
 48
25.4
370
    20
100
AcDbPolyline
 90
        4
 70
     1
 43
0.00025
 10
209.3867706085
 20
174.0845507125
 10
213.3867707985
 20
174.7512174108
 10
209.3867706085
 20
175.4178841092
 10
209.3867706085
 20
174.0845507125
  0
HATCH
  5
3DB
330
3D7
100
AcDbEntity
  8
Default
  6
Continuous
 62
     7
 48
25.4
100
AcDbHatch
 10
0.0
 20
0.0
 30
0.0
210
0.0
220
0.0
230
1.0
  2
SOLID
 70
     1
 71
     0
 91
        1
 92
        1
 93
        3
 72
     1
 10
142.8867690215023
 20
174.0845507124907
 11
142.8867690215023
 21
175.417884109154
 72
     1
 10
142.8867690215023
 20
175.417884109154
 11
138.8867688315125
 21
174.7512174108223
 72
     1
 10
138.8867688315125
 20
174.7512174108223
 11
142.8867690215023
 21
174.0845507124907
 97
        0
 75
     0
 76
     1
 98
        0
  0
LWPOLYLINE
  5
3DC
330
3D7
100
AcDbEntity
  8
Default
  6
Continuous
 62
     7
 48
25.4
370
    20
100
AcDbPolyline
 90
        4
 70
     1
 43
0.00025
 10
142.8867690215
 20
174.0845507125
 10
138.8867688315
 20
174.7512174108
 10
142.8867690215
 20
175.4178841092
 10
142.8867690215
 20
174.0845507125
  0
LINE
  5
3DD
330
3D7
100
AcDbEntity
  8
Default
  6
Continuous
 62
     7
 48
25.4
100
AcDbLine
 10
213.3867707985
 20
199.4103686222
 30
0.0
 11
213.3867707985
 21
172.7512173158
 31
0.0
  0
LINE
  5
3DE
330
3D7
100
AcDbEntity
  8
Default
  6
Continuous
 62
     7
 48
25.4
100
AcDbLine
 10
138.8867707985
 20
219.1603686222
 30
0.0
 11
138.8867707985
 21
172.7512173158
 31
0.0
  0
LINE
  5
3DF
330
3D7
100
AcDbEntity
  8
Default
  6
Continuous
 62
     7
 48
25.4
100
AcDbLine
 10
213.3867707985
 20
174.7512174108
 30
0.0
 11
138.8867688315
 21
174.7512174108
 31
0.0
  0
TEXT
  5
3E0
330
3D7
100
AcDbEntity
  8
Default
  6
Continuous
 62
     7
 48
25.4
100
AcDbText
 10
171.4411176411
 20
175.7512174108
 30
0.0
 40
4.0
  1
149
  7
SEACAD_arial_ttf
 11
171.4411176411
 21
179.7512174108
 31
0.0
100
AcDbText
 73
     3
  0
ENDBLK
  5
3E2
330
3D7
100
AcDbEntity
  8
0
100
AcDbBlockEnd
  0
BLOCK
  5
3ED
330
3E3
100
AcDbEntity
  8
0
100
AcDbBlockBegin
  2
GDimGGroup24
 70
     0
 71
     0
 10
0.0
 20
0.0
 30
0.0
  3
GDimGGroup24
  1

  0
HATCH
  5
3E5
330
3E3
100
AcDbEntity
  8
Default
  6
Continuous
 62
     7
 48
25.4
100
AcDbHatch
 10
0.0
 20
0.0
 30
0.0
210
0.0
220
0.0
230
1.0
  2
SOLID
 70
     1
 71
     0
 91
        1
 92
        1
 93
        3
 72
     1
 10
153.8867709884555
 20
184.8624564001805
 11
153.8867709884555
 21
186.1957897968437
 72
     1
 10
153.8867709884555
 20
186.1957897968437
 11
149.8867707984657
 21
185.5291230985121
 72
     1
 10
149.8867707984657
 20
185.5291230985121
 11
153.8867709884555
 21
184.8624564001805
 97
        0
 75
     0
 76
     1
 98
        0
  0
LWPOLYLINE
  5
3E6
330
3E3
100
AcDbEntity
  8
Default
  6
Continuous
 62
     7
 48
25.4
370
    20
100
AcDbPolyline
 90
        4
 70
     1
 43
0.00025
 10
153.8867709885
 20
184.8624564002
 10
149.8867707985
 20
185.5291230985
 10
153.8867709885
 20
186.1957897968
 10
153.8867709885
 20
184.8624564002
  0
HATCH
  5
3E7
330
3E3
100
AcDbEntity
  8
Default
  6
Continuous
 62
     7
 48
25.4
100
AcDbHatch
 10
0.0
 20
0.0
 30
0.0
210
0.0
220
0.0
230
1.0
  2
SOLID
 70
     1
 71
     0
 91
        1
 92
        1
 93
        3
 72
     1
 10
134.8867706084759
 20
184.8624564001805
 11
138.8867707984657
 21
185.5291230985121
 72
     1
 10
138.8867707984657
 20
185.5291230985121
 11
134.8867706084759
 21
186.1957897968437
 72
     1
 10
134.8867706084759
 20
186.1957897968437
 11
134.8867706084759
 21
184.8624564001805
 97
        0
 75
     0
 76
     1
 98
        0
  0
LWPOLYLINE
  5
3E8
330
3E3
100
AcDbEntity
  8
Default
  6
Continuous
 62
     7
 48
25.4
370
    20
100
AcDbPolyline
 90
        4
 70
     1
 43
0.00025
 10
134.8867706085
 20
184.8624564002
 10
138.8867707985
 20
185.5291230985
 10
134.8867706085
 20
186.1957897968
 10
134.8867706085
 20
184.8624564002
  0
LINE
  5
3E9
330
3E3
100
AcDbEntity
  8
Default
  6
Continuous
 62
     7
 48
25.4
100
AcDbLine
 10
149.8867707985
 20
218.6603686222
 30
0.0
 11
149.8867707985
 21
183.5291230035
 31
0.0
  0
LINE
  5
3EA
330
3E3
100
AcDbEntity
  8
Default
  6
Continuous
 62
     7
 48
25.4
100
AcDbLine
 10
138.8867707985
 20
219.1603686222
 30
0.0
 11
138.8867707985
 21
183.5291230035
 31
0.0
  0
LINE
  5
3EB
330
3E3
100
AcDbEntity
  8
Default
  6
Continuous
 62
     7
 48
25.4
100
AcDbLine
 10
157.8867711784
 20
185.5291230985
 30
0.0
 11
130.8867714094
 21
185.5291230985
 31
0.0
  0
TEXT
  5
3EC
330
3E3
100
AcDbEntity
  8
Default
  6
Continuous
 62
     7
 48
25.4
100
AcDbText
 10
141.2563360457
 20
186.5291230985
 30
0.0
 40
4.0
  1
22
  7
SEACAD_arial_ttf
 11
141.2563360457
 21
190.5291230985
 31
0.0
100
AcDbText
 73
     3
  0
ENDBLK
  5
3EE
330
3E3
100
AcDbEntity
  8
0
100
AcDbBlockEnd
  0
BLOCK
  5
3F9
330
3EF
100
AcDbEntity
  8
0
100
AcDbBlockBegin
  2
GDimGGroup25
 70
     0
 71
     0
 10
0.0
 20
0.0
 30
0.0
  3
GDimGGroup25
  1

  0
HATCH
  5
3F1
330
3EF
100
AcDbEntity
  8
Default
  6
Continuous
 62
     7
 48
25.4
100
AcDbHatch
 10
0.0
 20
0.0
 30
0.0
210
0.0
220
0.0
230
1.0
  2
SOLID
 70
     1
 71
     0
 91
        1
 92
        1
 93
        3
 72
     1
 10
128.8867709884555
 20
206.4294904062992
 11
128.8867709884555
 21
207.7628238029625
 72
     1
 10
128.8867709884555
 20
207.7628238029625
 11
124.8867707984657
 21
207.0961571046309
 72
     1
 10
124.8867707984658
 20
207.0961571046309
 11
128.8867709884556
 21
206.4294904062992
 97
        0
 75
     0
 76
     1
 98
        0
  0
LWPOLYLINE
  5
3F2
330
3EF
100
AcDbEntity
  8
Default
  6
Continuous
 62
     7
 48
25.4
370
    20
100
AcDbPolyline
 90
        4
 70
     1
 43
0.00025
 10
128.8867709885
 20
206.4294904063
 10
124.8867707985
 20
207.0961571046
 10
128.8867709885
 20
207.762823803
 10
128.8867709885
 20
206.4294904063
  0
HATCH
  5
3F3
330
3EF
100
AcDbEntity
  8
Default
  6
Continuous
 62
     7
 48
25.4
100
AcDbHatch
 10
0.0
 20
0.0
 30
0.0
210
0.0
220
0.0
230
1.0
  2
SOLID
 70
     1
 71
     0
 91
        1
 92
        1
 93
        3
 72
     1
 10
134.8867710406096
 20
206.4294904062992
 11
138.8867712305994
 21
207.0961571046309
 72
     1
 10
138.8867712305994
 20
207.0961571046309
 11
134.8867710406096
 21
207.7628238029625
 72
     1
 10
134.8867710406096
 20
207.7628238029625
 11
134.8867710406096
 21
206.4294904062992
 97
        0
 75
     0
 76
     1
 98
        0
  0
LWPOLYLINE
  5
3F4
330
3EF
100
AcDbEntity
  8
Default
  6
Continuous
 62
     7
 48
25.4
370
    20
100
AcDbPolyline
 90
        4
 70
     1
 43
0.00025
 10
134.8867710406
 20
206.4294904063
 10
138.8867712306
 20
207.0961571046
 10
134.8867710406
 20
207.762823803
 10
134.8867710406
 20
206.4294904063
  0
LINE
  5
3F5
330
3EF
100
AcDbEntity
  8
Default
  6
Continuous
 62
     7
 48
25.4
100
AcDbLine
 10
124.8867707985
 20
230.4103686222
 30
0.0
 11
124.8867707985
 21
205.0961570096
 31
0.0
  0
LINE
  5
3F6
330
3EF
100
AcDbEntity
  8
Default
  6
Continuous
 62
     7
 48
25.4
100
AcDbLine
 10
138.8867707985
 20
219.1603686222
 30
0.0
 11
138.8867707985
 21
205.0961570096
 31
0.0
  0
LINE
  5
3F7
330
3EF
100
AcDbEntity
  8
Default
  6
Continuous
 62
     7
 48
25.4
100
AcDbLine
 10
124.8867707985
 20
207.0961571046
 30
0.0
 11
138.8867712306
 21
207.0961571046
 31
0.0
  0
TEXT
  5
3F8
330
3EF
100
AcDbEntity
  8
Default
  6
Continuous
 62
     7
 48
25.4
100
AcDbText
 10
128.7563362319
 20
208.0961571046
 30
0.0
 40
4.0
  1
28
  7
SEACAD_arial_ttf
 11
128.7563362319
 21
212.0961571046
 31
0.0
100
AcDbText
 73
     3
  0
ENDBLK
  5
3FA
330
3EF
100
AcDbEntity
  8
0
100
AcDbBlockEnd
  0
BLOCK
  5
407
330
3FB
100
AcDbEntity
  8
0
100
AcDbBlockBegin
  2
GDimGGroup26
 70
     0
 71
     0
 10
0.0
 20
0.0
 30
0.0
  3
GDimGGroup26
  1

  0
HATCH
  5
3FD
330
3FB
100
AcDbEntity
  8
Default
  6
Continuous
 62
     7
 48
25.4
100
AcDbHatch
 10
0.0
 20
0.0
 30
0.0
210
0.0
220
0.0
230
1.0
  2
SOLID
 70
     1
 71
     0
 91
        1
 92
        1
 93
        3
 72
     1
 10
89.48857977197081
 20
352.996728691261
 11
89.4998569054499
 21
348.9415691589068
 72
     1
 10
89.4998569054499
 20
348.9415691589068
 11
90.8043762221116
 21
352.7811883273973
 72
     1
 10
90.8043762221116
 20
352.7811883273973
 11
89.48857977197081
 21
352.996728691261
 97
        0
 75
     0
 76
     1
 98
        0
  0
LWPOLYLINE
  5
3FE
330
3FB
100
AcDbEntity
  8
Default
  6
Continuous
 62
     7
 48
25.4
370
    20
100
AcDbPolyline
 90
        4
 70
     1
 43
0.00025
 10
89.488579772
 20
352.9967286913
 10
89.4998569054
 20
348.9415691589
 10
90.8043762221
 20
352.7811883274
 10
89.488579772
 20
352.9967286913
  0
HATCH
  5
3FF
330
3FB
100
AcDbEntity
  8
Default
  6
Continuous
 62
     7
 48
25.4
100
AcDbHatch
 10
0.0
 20
0.0
 30
0.0
210
0.0
220
0.0
230
1.0
  2
SOLID
 70
     1
 71
     0
 91
        1
 92
        1
 93
        3
 72
     1
 10
89.95583357024603
 20
338.9076384817475
 11
89.12896980216218
 21
342.8776186222033
 72
     1
 10
89.12896980216218
 20
342.8776186222033
 11
88.62357710479641
 21
338.8540599699612
 72
     1
 10
88.6235771047964
 20
338.8540599699612
 11
89.95583357024603
 21
338.9076384817475
 97
        0
 75
     0
 76
     1
 98
        0
  0
LWPOLYLINE
  5
400
330
3FB
100
AcDbEntity
  8
Default
  6
Continuous
 62
     7
 48
25.4
370
    20
100
AcDbPolyline
 90
        4
 70
     1
 43
0.00025
 10
89.9558335702
 20
338.9076384817
 10
89.1289698022
 20
342.8776186222
 10
88.6235771048
 20
338.85405997
 10
89.9558335702
 20
338.9076384817
  0
LINE
  5
401
330
3FB
100
AcDbEntity
  8
Default
  6
Continuous
 62
     7
 48
25.4
100
AcDbLine
 10
146.9091320269
 20
341.8925965214
 30
0.0
 11
87.5147642768
 21
349.1853078857
 31
0.0
  0
LINE
  5
402
330
3FB
100
AcDbEntity
  8
Default
  6
Continuous
 62
     7
 48
25.4
100
AcDbLine
 10
138.8867707985
 20
342.8776186222
 30
0.0
 11
87.1289694743
 21
342.8776186222
 31
0.0
  0
ARC
  5
403
330
3FB
100
AcDbEntity
  8
Default
  6
Continuous
 62
     7
 48
25.4
100
AcDbCircle
 10
138.8867707985
 20
342.8776186222
 30
0.0
 40
49.757800996304
100
AcDbArc
 50
163.7880530032
 51
180.0000000525
  0
ARC
  5
404
330
3FB
100
AcDbEntity
  8
Default
  6
Continuous
 62
     7
 48
25.4
100
AcDbCircle
 10
138.8867707985
 20
342.8776186222
 30
0.0
 40
49.75780099630644
100
AcDbArc
 50
180.0
 51
189.2119469968
  0
TEXT
  5
405
330
3FB
100
AcDbEntity
  8
Default
  6
Continuous
 62
     7
 48
25.4
100
AcDbText
 10
87.5940470902
 20
335.6825006697
 30
0.0
 40
4.0
  1
7°
 50
86.5
  7
SEACAD_arial_ttf
 11
83.6015078965
 21
335.9266948279
 31
0.0
100
AcDbText
 73
     3
  0
TEXT
  5
406
330
3FB
100
AcDbEntity
  8
Default
  6
Continuous
 62
     7
 48
25.4
100
AcDbText
 10
88.0941142575
 20
343.8585265838
 30
0.0
 40
4.0
  1
7'30"
 50
86.5
  7
SEACAD_arial_ttf
 11
84.1015750638
 21
344.1027207419
 31
0.0
100
AcDbText
 73
     3
  0
ENDBLK
  5
408
330
3FB
100
AcDbEntity
  8
0
100
AcDbBlockEnd
  0
BLOCK
  5
413
330
409
100
AcDbEntity
  8
0
100
AcDbBlockBegin
  2
GDimGGroup27
 70
     0
 71
     0
 10
0.0
 20
0.0
 30
0.0
  3
GDimGGroup27
  1

  0
HATCH
  5
40B
330
409
100
AcDbEntity
  8
Default
  6
Continuous
 62
     7
 48
25.4
100
AcDbHatch
 10
0.0
 20
0.0
 30
0.0
210
0.0
220
0.0
230
1.0
  2
SOLID
 70
     1
 71
     0
 91
        1
 92
        1
 93
        3
 72
     1
 10
151.3867706084759
 20
263.6043042387661
 11
151.3867706084759
 21
262.2709708421028
 72
     1
 10
151.3867706084759
 20
262.2709708421028
 11
155.3867707984657
 21
262.9376375404344
 72
     1
 10
155.3867707984657
 20
262.9376375404344
 11
151.3867706084759
 21
263.6043042387661
 97
        0
 75
     0
 76
     1
 98
        0
  0
LWPOLYLINE
  5
40C
330
409
100
AcDbEntity
  8
Default
  6
Continuous
 62
     7
 48
25.4
370
    20
100
AcDbPolyline
 90
        4
 70
     1
 43
0.00025
 10
151.3867706085
 20
263.6043042388
 10
155.3867707985
 20
262.9376375404
 10
151.3867706085
 20
262.2709708421
 10
151.3867706085
 20
263.6043042388
  0
HATCH
  5
40D
330
409
100
AcDbEntity
  8
Default
  6
Continuous
 62
     7
 48
25.4
100
AcDbHatch
 10
0.0
 20
0.0
 30
0.0
210
0.0
220
0.0
230
1.0
  2
SOLID
 70
     1
 71
     0
 91
        1
 92
        1
 93
        3
 72
     1
 10
142.8867709884555
 20
263.6043042387661
 11
138.8867707984657
 21
262.9376375404344
 72
     1
 10
138.8867707984657
 20
262.9376375404344
 11
142.8867709884555
 21
262.2709708421028
 72
     1
 10
142.8867709884555
 20
262.2709708421028
 11
142.8867709884555
 21
263.6043042387661
 97
        0
 75
     0
 76
     1
 98
        0
  0
LWPOLYLINE
  5
40E
330
409
100
AcDbEntity
  8
Default
  6
Continuous
 62
     7
 48
25.4
370
    20
100
AcDbPolyline
 90
        4
 70
     1
 43
0.00025
 10
142.8867709885
 20
263.6043042388
 10
138.8867707985
 20
262.9376375404
 10
142.8867709885
 20
262.2709708421
 10
142.8867709885
 20
263.6043042388
  0
LINE
  5
40F
330
409
100
AcDbEntity
  8
Default
  6
Continuous
 62
     7
 48
25.4
100
AcDbLine
 10
155.3867707985
 20
262.9376375404
 30
0.0
 11
112.9675048428
 21
262.9376375404
 31
0.0
  0
TEXT
  5
410
330
409
100
AcDbEntity
  8
Default
  6
Continuous
 62
     7
 48
25.4
100
AcDbText
 10
129.0805494806
 20
269.9376375404
 30
0.0
 40
4.0
  1
33
  7
SEACAD_arial_ttf
 11
129.0805494806
 21
273.9376375404
 31
0.0
100
AcDbText
 73
     3
  0
TEXT
  5
411
330
409
100
AcDbEntity
  8
Default
  6
Continuous
 62
     7
 48
25.4
100
AcDbText
 10
114.3675060023
 20
269.9376375404
 30
0.0
 40
4.0
  1
MAX
  7
SEACAD_arial_ttf
 11
114.3675060023
 21
273.9376375404
 31
0.0
100
AcDbText
 73
     3
  0
TEXT
  5
412
330
409
100
AcDbEntity
  8
Default
  6
Continuous
 62
     7
 48
25.4
100
AcDbText
 10
114.3675060023
 20
263.9376375404
 30
0.0
 40
4.0
  1
MIN 10
  7
SEACAD_arial_ttf
 11
114.3675060023
 21
267.9376375404
 31
0.0
100
AcDbText
 73
     3
  0
ENDBLK
  5
414
330
409
100
AcDbEntity
  8
0
100
AcDbBlockEnd
  0
BLOCK
  5
41D
330
415
100
AcDbEntity
  8
0
100
AcDbBlockBegin
  2
GDimGGroup28
 70
     0
 71
     0
 10
0.0
 20
0.0
 30
0.0
  3
GDimGGroup28
  1

  0
HATCH
  5
417
330
415
100
AcDbEntity
  8
Default
  6
Continuous
 62
     7
 48
25.4
100
AcDbHatch
 10
0.0
 20
0.0
 30
0.0
210
0.0
220
0.0
230
1.0
  2
SOLID
 70
     1
 71
     0
 91
        1
 92
        1
 93
        3
 72
     1
 10
159.3867709884555
 20
315.6718271637803
 11
159.3867709884555
 21
317.0051605604436
 72
     1
 10
159.3867709884555
 20
317.0051605604436
 11
155.3867707984657
 21
316.338493862112
 72
     1
 10
155.3867707984657
 20
316.338493862112
 11
159.3867709884555
 21
315.6718271637803
 97
        0
 75
     0
 76
     1
 98
        0
  0
LWPOLYLINE
  5
418
330
415
100
AcDbEntity
  8
Default
  6
Continuous
 62
     7
 48
25.4
370
    20
100
AcDbPolyline
 90
        4
 70
     1
 43
0.00025
 10
159.3867709885
 20
315.6718271638
 10
155.3867707985
 20
316.3384938621
 10
159.3867709885
 20
317.0051605604
 10
159.3867709885
 20
315.6718271638
  0
HATCH
  5
419
330
415
100
AcDbEntity
  8
Default
  6
Continuous
 62
     7
 48
25.4
100
AcDbHatch
 10
0.0
 20
0.0
 30
0.0
210
0.0
220
0.0
230
1.0
  2
SOLID
 70
     1
 71
     0
 91
        1
 92
        1
 93
        3
 72
     1
 10
170.9071688378365
 20
315.6718271637803
 11
174.9071690278263
 21
316.338493862112
 72
     1
 10
174.9071690278263
 20
316.338493862112
 11
170.9071688378365
 21
317.0051605604436
 72
     1
 10
170.9071688378365
 20
317.0051605604436
 11
170.9071688378365
 21
315.6718271637803
 97
        0
 75
     0
 76
     1
 98
        0
  0
LWPOLYLINE
  5
41A
330
415
100
AcDbEntity
  8
Default
  6
Continuous
 62
     7
 48
25.4
370
    20
100
AcDbPolyline
 90
        4
 70
     1
 43
0.00025
 10
170.9071688378
 20
315.6718271638
 10
174.9071690278
 20
316.3384938621
 10
170.9071688378
 20
317.0051605604
 10
170.9071688378
 20
315.6718271638
  0
LINE
  5
41B
330
415
100
AcDbEntity
  8
Default
  6
Continuous
 62
     7
 48
25.4
100
AcDbLine
 10
128.3913037764
 20
316.3384938621
 30
0.0
 11
174.9071690278
 21
316.3384938621
 31
0.0
  0
TEXT
  5
41C
330
415
100
AcDbEntity
  8
Default
  6
Continuous
 62
     7
 48
25.4
100
AcDbText
 10
129.7913032046
 20
317.3384938621
 30
0.0
 40
4.0
  1
39
  7
SEACAD_arial_ttf
 11
129.7913032046
 21
321.3384938621
 31
0.0
100
AcDbText
 73
     3
  0
ENDBLK
  5
41E
330
415
100
AcDbEntity
  8
0
100
AcDbBlockEnd
  0
BLOCK
  5
428
330
41F
100
AcDbEntity
  8
0
100
AcDbBlockBegin
  2
GDimGGroup29
 70
     0
 71
     0
 10
0.0
 20
0.0
 30
0.0
  3
GDimGGroup29
  1

  0
HATCH
  5
421
330
41F
100
AcDbEntity
  8
Default
  6
Continuous
 62
     7
 48
25.4
100
AcDbHatch
 10
0.0
 20
0.0
 30
0.0
210
0.0
220
0.0
230
1.0
  2
SOLID
 70
     1
 71
     0
 91
        1
 92
        1
 93
        3
 72
     1
 10
196.3672501823578
 20
268.2853688121931
 11
195.0339167856945
 21
268.2853688121931
 72
     1
 10
195.0339167856945
 20
268.2853688121931
 11
195.7005834840262
 21
264.2853686222033
 72
     1
 10
195.7005834840262
 20
264.2853686222033
 11
196.3672501823578
 21
268.2853688121931
 97
        0
 75
     0
 76
     1
 98
        0
  0
LWPOLYLINE
  5
422
330
41F
100
AcDbEntity
  8
Default
  6
Continuous
 62
     7
 48
25.4
370
    20
100
AcDbPolyline
 90
        4
 70
     1
 43
0.00025
 10
196.3672501824
 20
268.2853688122
 10
195.700583484
 20
264.2853686222
 10
195.0339167857
 20
268.2853688122
 10
196.3672501824
 20
268.2853688122
  0
HATCH
  5
423
330
41F
100
AcDbEntity
  8
Default
  6
Continuous
 62
     7
 48
25.4
100
AcDbHatch
 10
0.0
 20
0.0
 30
0.0
210
0.0
220
0.0
230
1.0
  2
SOLID
 70
     1
 71
     0
 91
        1
 92
        1
 93
        3
 72
     1
 10
196.3672501823578
 20
319.0353682832019
 11
195.7005834840262
 21
323.0353684731917
 72
     1
 10
195.7005834840262
 20
323.0353684731917
 11
195.0339167856945
 21
319.0353682832019
 72
     1
 10
195.0339167856945
 20
319.0353682832019
 11
196.3672501823578
 21
319.0353682832019
 97
        0
 75
     0
 76
     1
 98
        0
  0
LWPOLYLINE
  5
424
330
41F
100
AcDbEntity
  8
Default
  6
Continuous
 62
     7
 48
25.4
370
    20
100
AcDbPolyline
 90
        4
 70
     1
 43
0.00025
 10
196.3672501824
 20
319.0353682832
 10
195.700583484
 20
323.0353684732
 10
195.0339167857
 20
319.0353682832
 10
196.3672501824
 20
319.0353682832
  0
LINE
  5
425
330
41F
100
AcDbEntity
  8
Default
  6
Continuous
 62
     7
 48
25.4
100
AcDbLine
 10
195.700583484
 20
264.2853686222
 30
0.0
 11
195.700583484
 21
323.0353684732
 31
0.0
  0
TEXT
  5
426
330
41F
100
AcDbEntity
  8
Default
  6
Continuous
 62
     7
 48
25.4
100
AcDbText
 10
194.700583484
 20
290.2975920412
 30
0.0
 40
4.0
  1
117.5
 50
90.0
  7
SEACAD_arial_ttf
 11
190.700583484
 21
290.2975920412
 31
0.0
100
AcDbText
 73
     3
  0
TEXT
  5
427
330
41F
100
AcDbEntity
  8
Default
  6
Continuous
 62
     7
 48
25.4
100
AcDbText
 10
194.700583484
 20
282.9361885324
 30
0.0
 40
4.0
  1
O
 50
90.0
  7
SEACAD_semeca1_ttf
 11
190.700583484
 21
282.9361885324
 31
0.0
100
AcDbText
 73
     3
  0
ENDBLK
  5
429
330
41F
100
AcDbEntity
  8
0
100
AcDbBlockEnd
  0
BLOCK
  5
432
330
42A
100
AcDbEntity
  8
0
100
AcDbBlockBegin
  2
GDimGGroup30
 70
     0
 71
     0
 10
0.0
 20
0.0
 30
0.0
  3
GDimGGroup30
  1

  0
LINE
  5
42C
330
42A
100
AcDbEntity
  8
Default
  6
Continuous
 62
     7
 48
25.4
100
AcDbLine
 10
434.9573763507
 20
291.9416635387
 30
0.0
 11
405.8134433819
 21
350.0418430665
 31
0.0
  0
HATCH
  5
42D
330
42A
100
AcDbEntity
  8
Default
  6
Continuous
 62
     7
 48
25.4
100
AcDbHatch
 10
0.0
 20
0.0
 30
0.0
210
0.0
220
0.0
230
1.0
  2
SOLID
 70
     1
 71
     0
 91
        1
 92
        1
 93
        3
 72
     1
 10
407.011015934576
 20
346.167537075243
 11
408.2028145893149
 21
346.7653613915936
 72
     1
 10
408.202814589315
 20
346.7653613915936
 11
405.8134423128938
 21
350.0418451976351
 72
     1
 10
405.8134423128938
 20
350.0418451976352
 11
407.0110159345761
 21
346.167537075243
 97
        0
 75
     0
 76
     1
 98
        0
  0
LWPOLYLINE
  5
42E
330
42A
100
AcDbEntity
  8
Default
  6
Continuous
 62
     7
 48
25.4
370
    20
100
AcDbPolyline
 90
        4
 70
     1
 43
0.00025
 10
407.0110159346
 20
346.1675370752
 10
405.8134423129
 20
350.0418451976
 10
408.2028145893
 20
346.7653613916
 10
407.0110159346
 20
346.1675370752
  0
ARC
  5
42F
330
42A
100
AcDbEntity
  8
Default
  6
Continuous
 62
     7
 48
25.4
100
AcDbCircle
 10
434.9573763508
 20
291.9416635386
 30
0.0
 40
65.00000000011136
100
AcDbArc
 50
114.8760914251
 51
117.7961803213
  0
TEXT
  5
430
330
42A
100
AcDbEntity
  8
Default
  6
Continuous
 62
     7
 48
25.4
100
AcDbText
 10
408.9027720607
 20
346.1133906725
 30
0.0
 40
4.0
  1
R
 50
296.639038487
  7
SEACAD_arial_ttf
 11
412.4781678551
 21
347.9068635364
 31
0.0
100
AcDbText
 73
     3
  0
TEXT
  5
431
330
42A
100
AcDbEntity
  8
Default
  6
Continuous
 62
     7
 48
25.4
100
AcDbText
 10
411.7723286429
 20
340.3927574015
 30
0.0
 40
4.0
  1
130
 50
296.639038487
  7
SEACAD_arial_ttf
 11
415.3477244373
 21
342.1862302654
 31
0.0
100
AcDbText
 73
     3
  0
ENDBLK
  5
433
330
42A
100
AcDbEntity
  8
0
100
AcDbBlockEnd
  0
ENDSEC
  0
SECTION
  2
ENTITIES
  0
INSERT
  5
2C
330
1F
100
AcDbEntity
  8
Default
100
AcDbBlockReference
  2
SEANNOT_GROUP
 10
0.0
 20
0.0
 30
0.0
  0
INSERT
  5
37
330
1F
100
AcDbEntity
  8
Default
100
AcDbBlockReference
  2
SEANNOT_GROUP1
 10
0.0
 20
0.0
 30
0.0
  0
INSERT
  5
40
330
1F
100
AcDbEntity
  8
Default
100
AcDbBlockReference
  2
SEANNOT_GROUP2
 10
0.0
 20
0.0
 30
0.0
  0
INSERT
  5
4A
330
1F
100
AcDbEntity
  8
Default
100
AcDbBlockReference
  2
SEANNOT_GROUP3
 10
0.0
 20
0.0
 30
0.0
  0
INSERT
  5
55
330
1F
100
AcDbEntity
  8
Default
100
AcDbBlockReference
  2
SEANNOT_GROUP4
 10
0.0
 20
0.0
 30
0.0
  0
INSERT
  5
5E
330
1F
100
AcDbEntity
  8
Default
100
AcDbBlockReference
  2
SE
 10
0.0
 20
0.0
 30
0.0
  0
INSERT
  5
13A
330
1F
100
AcDbEntity
  8
Default
100
AcDbBlockReference
  2
SE1
 10
0.0
 20
0.0
 30
0.0
  0
INSERT
  5
218
330
1F
100
AcDbEntity
  8
Default
100
AcDbBlockReference
  2
SE2
 10
0.0
 20
0.0
 30
0.0
  0
INSERT
  5
2BB
330
1F
100
AcDbEntity
  8
Default
100
AcDbBlockReference
  2
GDimGGroup
 10
0.0
 20
0.0
 30
0.0
  0
INSERT
  5
2C8
330
1F
100
AcDbEntity
  8
Default
100
AcDbBlockReference
  2
GDimGGroup1
 10
0.0
 20
0.0
 30
0.0
  0
INSERT
  5
2D4
330
1F
100
AcDbEntity
  8
Default
100
AcDbBlockReference
  2
GDimGGroup2
 10
0.0
 20
0.0
 30
0.0
  0
INSERT
  5
2E0
330
1F
100
AcDbEntity
  8
Default
100
AcDbBlockReference
  2
GDimGGroup3
 10
0.0
 20
0.0
 30
0.0
  0
INSERT
  5
2EC
330
1F
100
AcDbEntity
  8
Default
100
AcDbBlockReference
  2
GDimGGroup4
 10
0.0
 20
0.0
 30
0.0
  0
INSERT
  5
2F8
330
1F
100
AcDbEntity
  8
Default
100
AcDbBlockReference
  2
GDimGGroup5
 10
0.0
 20
0.0
 30
0.0
  0
INSERT
  5
304
330
1F
100
AcDbEntity
  8
Default
100
AcDbBlockReference
  2
GDimGGroup6
 10
0.0
 20
0.0
 30
0.0
  0
INSERT
  5
310
330
1F
100
AcDbEntity
  8
Default
100
AcDbBlockReference
  2
GDimGGroup7
 10
0.0
 20
0.0
 30
0.0
  0
INSERT
  5
31C
330
1F
100
AcDbEntity
  8
Default
100
AcDbBlockReference
  2
GDimGGroup8
 10
0.0
 20
0.0
 30
0.0
  0
INSERT
  5
328
330
1F
100
AcDbEntity
  8
Default
100
AcDbBlockReference
  2
GDimGGroup9
 10
0.0
 20
0.0
 30
0.0
  0
INSERT
  5
334
330
1F
100
AcDbEntity
  8
Default
100
AcDbBlockReference
  2
GDimGGroup10
 10
0.0
 20
0.0
 30
0.0
  0
INSERT
  5
341
330
1F
100
AcDbEntity
  8
Default
100
AcDbBlockReference
  2
GDimGGroup11
 10
0.0
 20
0.0
 30
0.0
  0
INSERT
  5
34C
330
1F
100
AcDbEntity
  8
Default
100
AcDbBlockReference
  2
GDimGGroup12
 10
0.0
 20
0.0
 30
0.0
  0
INSERT
  5
357
330
1F
100
AcDbEntity
  8
Default
100
AcDbBlockReference
  2
GDimGGroup13
 10
0.0
 20
0.0
 30
0.0
  0
INSERT
  5
363
330
1F
100
AcDbEntity
  8
Default
100
AcDbBlockReference
  2
GDimGGroup14
 10
0.0
 20
0.0
 30
0.0
  0
INSERT
  5
36F
330
1F
100
AcDbEntity
  8
Default
100
AcDbBlockReference
  2
GDimGGroup15
 10
0.0
 20
0.0
 30
0.0
  0
INSERT
  5
37B
330
1F
100
AcDbEntity
  8
Default
100
AcDbBlockReference
  2
GDimGGroup16
 10
0.0
 20
0.0
 30
0.0
  0
INSERT
  5
387
330
1F
100
AcDbEntity
  8
Default
100
AcDbBlockReference
  2
GDimGGroup17
 10
0.0
 20
0.0
 30
0.0
  0
INSERT
  5
395
330
1F
100
AcDbEntity
  8
Default
100
AcDbBlockReference
  2
GDimGGroup18
 10
0.0
 20
0.0
 30
0.0
  0
INSERT
  5
3A3
330
1F
100
AcDbEntity
  8
Default
100
AcDbBlockReference
  2
GDimGGroup19
 10
0.0
 20
0.0
 30
0.0
  0
INSERT
  5
3B0
330
1F
100
AcDbEntity
  8
Default
100
AcDbBlockReference
  2
GDimGGroup20
 10
0.0
 20
0.0
 30
0.0
  0
INSERT
  5
3BD
330
1F
100
AcDbEntity
  8
Default
100
AcDbBlockReference
  2
GDimGGroup21
 10
0.0
 20
0.0
 30
0.0
  0
INSERT
  5
3CB
330
1F
100
AcDbEntity
  8
Default
100
AcDbBlockReference
  2
GDimGGroup22
 10
0.0
 20
0.0
 30
0.0
  0
INSERT
  5
3D8
330
1F
100
AcDbEntity
  8
Default
100
AcDbBlockReference
  2
GDimGGroup23
 10
0.0
 20
0.0
 30
0.0
  0
INSERT
  5
3E4
330
1F
100
AcDbEntity
  8
Default
100
AcDbBlockReference
  2
GDimGGroup24
 10
0.0
 20
0.0
 30
0.0
  0
INSERT
  5
3F0
330
1F
100
AcDbEntity
  8
Default
100
AcDbBlockReference
  2
GDimGGroup25
 10
0.0
 20
0.0
 30
0.0
  0
INSERT
  5
3FC
330
1F
100
AcDbEntity
  8
Default
100
AcDbBlockReference
  2
GDimGGroup26
 10
0.0
 20
0.0
 30
0.0
  0
INSERT
  5
40A
330
1F
100
AcDbEntity
  8
Default
100
AcDbBlockReference
  2
GDimGGroup27
 10
0.0
 20
0.0
 30
0.0
  0
INSERT
  5
416
330
1F
100
AcDbEntity
  8
Default
100
AcDbBlockReference
  2
GDimGGroup28
 10
0.0
 20
0.0
 30
0.0
  0
INSERT
  5
420
330
1F
100
AcDbEntity
  8
Default
100
AcDbBlockReference
  2
GDimGGroup29
 10
0.0
 20
0.0
 30
0.0
  0
INSERT
  5
42B
330
1F
100
AcDbEntity
  8
Default
100
AcDbBlockReference
  2
GDimGGroup30
 10
0.0
 20
0.0
 30
0.0
  0
LINE
  5
435
330
1F
100
AcDbEntity
  8
BORDER
  6
Continuous
 62
     7
 48
25.4
100
AcDbLine
 10
6.2292620399
 20
410.0
 30
0.0
 11
586.2292620399
 21
410.0
 31
0.0
  0
LINE
  5
436
330
1F
100
AcDbEntity
  8
BORDER
  6
Continuous
 62
     7
 48
25.4
100
AcDbLine
 10
6.2292620399
 20
410.0
 30
0.0
 11
6.2292620399
 21
10.0
 31
0.0
  0
LINE
  5
437
330
1F
100
AcDbEntity
  8
BORDER
  6
Continuous
 62
     7
 48
25.4
100
AcDbLine
 10
6.2292620399
 20
10.0
 30
0.0
 11
586.2292620399
 21
10.0
 31
0.0
  0
LINE
  5
438
330
1F
100
AcDbEntity
  8
BORDER
  6
Continuous
 62
     7
 48
25.4
100
AcDbLine
 10
586.2292620399
 20
10.0
 30
0.0
 11
586.2292620399
 21
410.0
 31
0.0
  0
LINE
  5
439
330
1F
100
AcDbEntity
  8
Default
  6
Continuous
 62
     7
 48
25.4
100
AcDbLine
 10
3.7292620399
 20
412.5
 30
0.0
 11
588.7292620399
 21
412.5
 31
0.0
  0
LINE
  5
43A
330
1F
100
AcDbEntity
  8
Default
  6
Continuous
 62
     7
 48
25.4
100
AcDbLine
 10
588.7292620399
 20
412.5
 30
0.0
 11
588.7292620399
 21
7.5
 31
0.0
  0
LINE
  5
43B
330
1F
100
AcDbEntity
  8
Default
  6
Continuous
 62
     7
 48
25.4
100
AcDbLine
 10
588.7292620399
 20
7.5
 30
0.0
 11
3.7292620399
 21
7.5
 31
0.0
  0
LINE
  5
43C
330
1F
100
AcDbEntity
  8
Default
  6
Continuous
 62
     7
 48
25.4
100
AcDbLine
 10
3.7292620399
 20
7.5
 30
0.0
 11
3.7292620399
 21
412.5
 31
0.0
  0
TEXT
  5
43D
330
1F
100
AcDbEntity
  8
Default
  6
Continuous
 62
     7
 48
25.4
100
AcDbText
 10
473.5242219525
 20
28.1561611714
 30
0.0
 40
5.0
  1
TITLE :
  7
SEACAD_arial_ttf
 11
473.5242219525
 21
33.1561611714
 31
0.0
100
AcDbText
 73
     3
  0
TEXT
  5
43E
330
1F
100
AcDbEntity
  8
Default
  6
Continuous
 62
     7
 48
25.4
100
AcDbText
 10
473.4498030642
 20
40.2710242694
 30
0.0
 40
5.0
  1
KITAGAWA EUROPE LIMITED
  7
SEACAD_arial_ttf
 11
473.4498030642
 21
45.2710242694
 31
0.0
100
AcDbText
 73
     3
  0
TEXT
  5
43F
330
1F
100
AcDbEntity
  8
Default
  6
Continuous
 62
     7
 48
25.4
100
AcDbText
 10
474.0233693351
 20
14.6180387033
 30
0.0
 40
5.0
  1
www.kitagawaeurope.com
  7
SEACAD_arial_ttf
 11
474.0233693351
 21
19.6180387033
 31
0.0
100
AcDbText
 73
     3
  0
TEXT
  5
440
330
1F
100
AcDbEntity
  8
Default
  6
Continuous
 62
     7
 48
25.4
100
AcDbText
 10
497.8463064412
 20
27.8559210467
 30
0.0
 40
5.0
  1
B-15A11 POWER CHUCK
  7
SEACAD_arial_ttf
 11
497.8463064412
 21
32.8559210467
 31
0.0
100
AcDbText
 73
     3
  0
LINE
  5
441
330
1F
100
AcDbEntity
  8
Default
  6
Continuous
 62
     7
 48
25.4
100
AcDbLine
 10
471.5030858285
 20
50.0
 30
0.0
 11
586.2292620399
 21
50.0
 31
0.0
  0
LINE
  5
442
330
1F
100
AcDbEntity
  8
Default
  6
Continuous
 62
     7
 48
25.4
100
AcDbLine
 10
471.5030858285
 20
36.7
 30
0.0
 11
586.2292620399
 21
36.7
 31
0.0
  0
LINE
  5
443
330
1F
100
AcDbEntity
  8
Default
  6
Continuous
 62
     7
 48
25.4
100
AcDbLine
 10
586.2292620399
 20
23.4
 30
0.0
 11
471.5030858285
 21
23.4
 31
0.0
  0
LINE
  5
444
330
1F
100
AcDbEntity
  8
Default
  6
Continuous
 62
     7
 48
25.4
100
AcDbLine
 10
471.5030858285
 20
50.0
 30
0.0
 11
471.5030858285
 21
10.0
 31
0.0
  0
ENDSEC
  0
SECTION
  2
OBJECTS
  0
DICTIONARY
  5
C
330
0
100
AcDbDictionary
281
     1
  3
ACAD_GROUP
350
D
  3
ACAD_LAYOUT
350
1A
  3
ACAD_MLINESTYLE
350
17
  3
ACAD_PLOTSETTINGS
350
19
  3
ACAD_PLOTSTYLENAME
350
E
  0
DICTIONARY
  5
D
102
{ACAD_REACTORS
330
C
102
}
330
C
100
AcDbDictionary
281
     1
  0
DICTIONARY
  5
1A
102
{ACAD_REACTORS
330
C
102
}
330
C
100
AcDbDictionary
281
     1
  3
Layout1
350
1E
  3
Model
350
22
  0
DICTIONARY
  5
17
102
{ACAD_REACTORS
330
C
102
}
330
C
100
AcDbDictionary
281
     1
  3
Standard
350
18
  0
DICTIONARY
  5
19
102
{ACAD_REACTORS
330
C
102
}
330
C
100
AcDbDictionary
281
     1
  0
ACDBDICTIONARYWDFLT
  5
E
102
{ACAD_REACTORS
330
C
102
}
330
C
100
AcDbDictionary
281
     1
  3
Normal
350
F
100
AcDbDictionaryWithDefault
340
F
  0
LAYOUT
  5
1E
102
{ACAD_REACTORS
330
1A
102
}
330
1A
100
AcDbPlotSettings
  1

  2

  4

  6

 40
0.0
 41
0.0
 42
0.0
 43
0.0
 44
0.0
 45
0.0
 46
0.0
 47
0.0
 48
0.0
 49
0.0
140
0.0
141
0.0
142
1.0
143
1.0
 70
   688
 72
     0
 73
     0
 74
     5
  7

 75
    16
147
1.0
148
0.0
149
0.0
100
AcDbLayout
  1
Layout1
 70
     1
 71
     1
 10
0.0
 20
0.0
 11
594.0
 21
420.0
 12
0.0
 22
0.0
 32
0.0
 14
0.0
 24
0.0
 34
0.0
 15
594.0
 25
420.0
 35
0.0
146
0.0
 13
0.0
 23
0.0
 33
0.0
 16
1.0
 26
0.0
 36
0.0
 17
0.0
 27
1.0
 37
0.0
 76
     0
330
1B
  0
LAYOUT
  5
22
102
{ACAD_REACTORS
330
1A
102
}
330
1A
100
AcDbPlotSettings
  1

  2

  4

  6

 40
0.0
 41
0.0
 42
0.0
 43
0.0
 44
0.0
 45
0.0
 46
0.0
 47
0.0
 48
0.0
 49
0.0
140
0.0
141
0.0
142
1.0
143
1.0
 70
  1712
 72
     0
 73
     0
 74
     0
  7

 75
     0
147
1.0
148
0.0
149
0.0
100
AcDbLayout
  1
Model
 70
     1
 71
     0
 10
0.0
 20
0.0
 11
594.0
 21
420.0
 12
0.0
 22
0.0
 32
0.0
 14
0.0
 24
0.0
 34
0.0
 15
594.0
 25
420.0
 35
0.0
146
0.0
 13
0.0
 23
0.0
 33
0.0
 16
1.0
 26
0.0
 36
0.0
 17
0.0
 27
1.0
 37
0.0
 76
     0
330
1F
  0
MLINESTYLE
  5
18
102
{ACAD_REACTORS
330
17
102
}
330
17
100
AcDbMlineStyle
  2
Standard
 70
     0
  3

 62
   256
 51
90.0
 52
90.0
 71
     2
 49
0.5
 62
   256
  6
BYLAYER
 49
-0.5
 62
   256
  6
BYLAYER
  0
ACDBPLACEHOLDER
  5
F
102
{ACAD_REACTORS
330
E
102
}
330
E
  0
ENDSEC
  0
EOF
