  0
SECTION
  2
HEADER
  9
$ACADVER
  1
AC1015
  9
$ACADMAINTVER
 70
     6
  9
$DWGCODEPAGE
  3
ANSI_1252
  9
$INSBASE
 10
0.0
 20
0.0
 30
0.0
  9
$EXTMIN
 10
0.0
 20
0.0
 30
0.0
  9
$EXTMAX
 10
594.0
 20
420.0
 30
0.0
  9
$LIMMIN
 10
0.0
 20
0.0
  9
$LIMMAX
 10
594.0
 20
420.0
  9
$ORTHOMODE
 70
     0
  9
$REGENMODE
 70
     1
  9
$FILLMODE
 70
     1
  9
$QTEXTMODE
 70
     0
  9
$MIRRTEXT
 70
     1
  9
$LTSCALE
 40
1.0
  9
$ATTMODE
 70
     1
  9
$TEXTSIZE
 40
0.2
  9
$TRACEWID
 40
0.05
  9
$TEXTSTYLE
  7
Standard
  9
$CLAYER
  8
0
  9
$CELTYPE
  6
ByLayer
  9
$CECOLOR
 62
   256
  9
$CELTSCALE
 40
25.4
  9
$DISPSILH
 70
     0
  9
$DIMSCALE
 40
1.0
  9
$DIMASZ
 40
0.18
  9
$DIMEXO
 40
0.0625
  9
$DIMDLI
 40
0.38
  9
$DIMRND
 40
0.0
  9
$DIMDLE
 40
0.0
  9
$DIMEXE
 40
0.18
  9
$DIMTP
 40
0.0
  9
$DIMTM
 40
0.0
  9
$DIMTXT
 40
0.18
  9
$DIMCEN
 40
0.09
  9
$DIMTSZ
 40
0.0
  9
$DIMTOL
 70
     0
  9
$DIMLIM
 70
     0
  9
$DIMTIH
 70
     1
  9
$DIMTOH
 70
     1
  9
$DIMSE1
 70
     0
  9
$DIMSE2
 70
     0
  9
$DIMTAD
 70
     0
  9
$DIMZIN
 70
     0
  9
$DIMBLK
  1

  9
$DIMASO
 70
     1
  9
$DIMSHO
 70
     1
  9
$DIMPOST
  1

  9
$DIMAPOST
  1

  9
$DIMALT
 70
     0
  9
$DIMALTD
 70
     2
  9
$DIMALTF
 40
25.4
  9
$DIMLFAC
 40
1.0
  9
$DIMTOFL
 70
     0
  9
$DIMTVP
 40
0.0
  9
$DIMTIX
 70
     0
  9
$DIMSOXD
 70
     0
  9
$DIMSAH
 70
     0
  9
$DIMBLK1
  1

  9
$DIMBLK2
  1

  9
$DIMSTYLE
  2
Standard
  9
$DIMCLRD
 70
     0
  9
$DIMCLRE
 70
     0
  9
$DIMCLRT
 70
     0
  9
$DIMTFAC
 40
1.0
  9
$DIMGAP
 40
0.09
  9
$DIMJUST
 70
     0
  9
$DIMSD1
 70
     0
  9
$DIMSD2
 70
     0
  9
$DIMTOLJ
 70
     1
  9
$DIMTZIN
 70
     0
  9
$DIMALTZ
 70
     0
  9
$DIMALTTZ
 70
     0
  9
$DIMUPT
 70
     0
  9
$DIMDEC
 70
     4
  9
$DIMTDEC
 70
     4
  9
$DIMALTU
 70
     2
  9
$DIMALTTD
 70
     2
  9
$DIMTXSTY
  7
Standard
  9
$DIMAUNIT
 70
     0
  9
$DIMADEC
 70
     0
  9
$DIMALTRND
 40
0.0
  9
$DIMAZIN
 70
     0
  9
$DIMDSEP
 70
    46
  9
$DIMATFIT
 70
     3
  9
$DIMFRAC
 70
     0
  9
$DIMLDRBLK
  1

  9
$DIMLUNIT
 70
     2
  9
$DIMLWD
 70
    -2
  9
$DIMLWE
 70
    -2
  9
$DIMTMOVE
 70
     0
  9
$LUNITS
 70
     2
  9
$LUPREC
 70
     4
  9
$SKETCHINC
 40
0.1
  9
$FILLETRAD
 40
0.5
  9
$AUNITS
 70
     0
  9
$AUPREC
 70
     0
  9
$MENU
  1
.
  9
$ELEVATION
 40
0.0
  9
$PELEVATION
 40
0.0
  9
$THICKNESS
 40
0.0
  9
$LIMCHECK
 70
     0
  9
$CHAMFERA
 40
0.5
  9
$CHAMFERB
 40
0.5
  9
$CHAMFERC
 40
1.0
  9
$CHAMFERD
 40
0.0
  9
$SKPOLY
 70
     0
  9
$TDCREATE
 40
2454900.417235405
  9
$TDUCREATE
 40
2454900.417235405
  9
$TDUPDATE
 40
2454900.417235417
  9
$TDUUPDATE
 40
2454900.417235417
  9
$TDINDWG
 40
0.0000000116
  9
$TDUSRTIMER
 40
0.0000000116
  9
$USRTIMER
 70
     1
  9
$ANGBASE
 50
0.0
  9
$ANGDIR
 70
     0
  9
$PDMODE
 70
     0
  9
$PDSIZE
 40
0.0
  9
$PLINEWID
 40
0.0
  9
$SPLFRAME
 70
     0
  9
$SPLINETYPE
 70
     6
  9
$SPLINESEGS
 70
     8
  9
$HANDSEED
  5
472
  9
$SURFTAB1
 70
     6
  9
$SURFTAB2
 70
     6
  9
$SURFTYPE
 70
     6
  9
$SURFU
 70
     6
  9
$SURFV
 70
     6
  9
$UCSBASE
  2

  9
$UCSNAME
  2

  9
$UCSORG
 10
0.0
 20
0.0
 30
0.0
  9
$UCSXDIR
 10
1.0
 20
0.0
 30
0.0
  9
$UCSYDIR
 10
0.0
 20
1.0
 30
0.0
  9
$UCSORTHOREF
  2

  9
$UCSORTHOVIEW
 70
     0
  9
$UCSORGTOP
 10
0.0
 20
0.0
 30
0.0
  9
$UCSORGBOTTOM
 10
0.0
 20
0.0
 30
0.0
  9
$UCSORGLEFT
 10
0.0
 20
0.0
 30
0.0
  9
$UCSORGRIGHT
 10
0.0
 20
0.0
 30
0.0
  9
$UCSORGFRONT
 10
0.0
 20
0.0
 30
0.0
  9
$UCSORGBACK
 10
0.0
 20
0.0
 30
0.0
  9
$PUCSBASE
  2

  9
$PUCSNAME
  2

  9
$PUCSORG
 10
0.0
 20
0.0
 30
0.0
  9
$PUCSXDIR
 10
1.0
 20
0.0
 30
0.0
  9
$PUCSYDIR
 10
0.0
 20
1.0
 30
0.0
  9
$PUCSORTHOREF
  2

  9
$PUCSORTHOVIEW
 70
     0
  9
$PUCSORGTOP
 10
0.0
 20
0.0
 30
0.0
  9
$PUCSORGBOTTOM
 10
0.0
 20
0.0
 30
0.0
  9
$PUCSORGLEFT
 10
0.0
 20
0.0
 30
0.0
  9
$PUCSORGRIGHT
 10
0.0
 20
0.0
 30
0.0
  9
$PUCSORGFRONT
 10
0.0
 20
0.0
 30
0.0
  9
$PUCSORGBACK
 10
0.0
 20
0.0
 30
0.0
  9
$USERI1
 70
     0
  9
$USERI2
 70
     0
  9
$USERI3
 70
     0
  9
$USERI4
 70
     0
  9
$USERI5
 70
     0
  9
$USERR1
 40
0.0
  9
$USERR2
 40
0.0
  9
$USERR3
 40
0.0
  9
$USERR4
 40
0.0
  9
$USERR5
 40
0.0
  9
$WORLDVIEW
 70
     1
  9
$SHADEDGE
 70
     3
  9
$SHADEDIF
 70
    70
  9
$TILEMODE
 70
     1
  9
$MAXACTVP
 70
    64
  9
$PINSBASE
 10
0.0
 20
0.0
 30
0.0
  9
$PLIMCHECK
 70
     0
  9
$PEXTMIN
 10
0.0
 20
0.0
 30
0.0
  9
$PEXTMAX
 10
594.0
 20
420.0
 30
0.0
  9
$PLIMMIN
 10
0.0
 20
0.0
  9
$PLIMMAX
 10
594.0
 20
420.0
  9
$UNITMODE
 70
     0
  9
$VISRETAIN
 70
     1
  9
$PLINEGEN
 70
     0
  9
$PSLTSCALE
 70
     1
  9
$TREEDEPTH
 70
  3020
  9
$CMLSTYLE
  2
Standard
  9
$CMLJUST
 70
     0
  9
$CMLSCALE
 40
1.0
  9
$PROXYGRAPHICS
 70
     1
  9
$MEASUREMENT
 70
     1
  9
$CELWEIGHT
370
    -1
  9
$ENDCAPS
280
     0
  9
$JOINSTYLE
280
     0
  9
$LWDISPLAY
290
     0
  9
$INSUNITS
 70
     1
  9
$HYPERLINKBASE
  1

  9
$STYLESHEET
  1

  9
$XEDIT
290
     1
  9
$CEPSNTYPE
380
     0
  9
$PSTYLEMODE
290
     1
  9
$FINGERPRINTGUID
  2
{5E1E1976-8398-4FD5-9DF0-654F9C3E2D1B}
  9
$VERSIONGUID
  2
{FAEB1C32-E019-11D5-929B-00C0DF256EC4}
  9
$EXTNAMES
290
     1
  9
$PSVPSCALE
 40
0.0
  9
$OLESTARTUP
290
     0
  0
ENDSEC
  0
SECTION
  2
CLASSES
  0
CLASS
  1
ACDBDICTIONARYWDFLT
  2
AcDbDictionaryWithDefault
  3
ObjectDBX Classes
 90
        0
280
     0
281
     0
  0
CLASS
  1
ACDBPLACEHOLDER
  2
AcDbPlaceHolder
  3
ObjectDBX Classes
 90
        0
280
     0
281
     0
  0
CLASS
  1
LAYOUT
  2
AcDbLayout
  3
ObjectDBX Classes
 90
        0
280
     0
281
     0
  0
ENDSEC
  0
SECTION
  2
TABLES
  0
TABLE
  2
VPORT
  5
8
330
0
100
AcDbSymbolTable
 70
     1
  0
VPORT
  5
29
330
8
100
AcDbSymbolTableRecord
100
AcDbViewportTableRecord
  2
*Active
 70
     0
 10
0.0
 20
0.0
 11
1.0
 21
1.0
 12
10.4299065421
 22
4.5
 13
0.0
 23
0.0
 14
0.5
 24
0.5
 15
0.5
 25
0.5
 16
0.0
 26
0.0
 36
1.0
 17
0.0
 27
0.0
 37
0.0
 40
9.0
 41
1.9729729729
 42
50.0
 43
0.0
 44
0.0
 50
0.0
 51
0.0
 71
     0
 72
   100
 73
     1
 74
     3
 75
     0
 76
     0
 77
     0
 78
     0
281
     0
 65
     1
110
0.0
120
0.0
130
0.0
111
1.0
121
0.0
131
0.0
112
0.0
122
1.0
132
0.0
 79
     0
146
0.0
  0
ENDTAB
  0
TABLE
  2
LTYPE
  5
5
330
0
100
AcDbSymbolTable
 70
     3
  0
LTYPE
  5
14
330
5
100
AcDbSymbolTableRecord
100
AcDbLinetypeTableRecord
  2
ByBlock
 70
     0
  3

 72
    65
 73
     0
 40
0.0
  0
LTYPE
  5
15
330
5
100
AcDbSymbolTableRecord
100
AcDbLinetypeTableRecord
  2
ByLayer
 70
     0
  3

 72
    65
 73
     0
 40
0.0
  0
LTYPE
  5
16
330
5
100
AcDbSymbolTableRecord
100
AcDbLinetypeTableRecord
  2
Continuous
 70
     0
  3
Solid line
 72
    65
 73
     0
 40
0.0
  0
LTYPE
  5
6A
330
5
100
AcDbSymbolTableRecord
100
AcDbLinetypeTableRecord
  2
CENTER2
 70
     0
  3
___ _ ___ _ ___ _ ___ _ ___ _ ___ _ ___ _ ___ _
 72
    65
 73
     4
 40
1.125
 49
0.75
 74
     4
 75
     0
340
0
 46
0.0
 50
0.0
 44
0.0
 45
0.0
 49
-0.125
 74
     4
 75
     0
340
0
 46
0.0
 50
0.0
 44
0.0
 45
0.0
 49
0.125
 74
     4
 75
     0
340
0
 46
0.0
 50
0.0
 44
0.0
 45
0.0
 49
-0.125
 74
     4
 75
     0
340
0
 46
0.0
 50
0.0
 44
0.0
 45
0.0
  0
LTYPE
  5
12A
330
5
100
AcDbSymbolTableRecord
100
AcDbLinetypeTableRecord
  2
HIDDEN2
 70
     0
  3
_ _ _ _ _ _ _ _ _ _ _ _ _ _ _ _ _ _ _ _ _ _ _ _
 72
    65
 73
     2
 40
0.1875
 49
0.125
 74
     4
 75
     0
340
0
 46
0.0
 50
0.0
 44
0.0
 45
0.0
 49
-0.0625
 74
     4
 75
     0
340
0
 46
0.0
 50
0.0
 44
0.0
 45
0.0
  0
ENDTAB
  0
TABLE
  2
LAYER
  5
2
330
0
100
AcDbSymbolTable
 70
     6
  0
LAYER
  5
10
330
2
100
AcDbSymbolTableRecord
100
AcDbLayerTableRecord
  2
0
 70
     0
 62
     7
  6
Continuous
370
    -3
390
F
  0
LAYER
  5
2A
330
2
100
AcDbSymbolTableRecord
100
AcDbLayerTableRecord
  2
Default
 70
     0
 62
     7
  6
Continuous
370
    -3
390
F
  0
LAYER
  5
69
330
2
100
AcDbSymbolTableRecord
100
AcDbLayerTableRecord
  2
DV1_Default
 70
     0
 62
     7
  6
Continuous
370
    -3
390
F
  0
LAYER
  5
141
330
2
100
AcDbSymbolTableRecord
100
AcDbLayerTableRecord
  2
DV2_Default
 70
     0
 62
     7
  6
Continuous
370
    -3
390
F
  0
LAYER
  5
26C
330
2
100
AcDbSymbolTableRecord
100
AcDbLayerTableRecord
  2
DV3_Default
 70
     0
 62
     7
  6
Continuous
370
    -3
390
F
  0
LAYER
  5
461
330
2
100
AcDbSymbolTableRecord
100
AcDbLayerTableRecord
  2
BORDER
 70
     0
 62
     7
  6
Continuous
370
    -3
390
F
  0
ENDTAB
  0
TABLE
  2
STYLE
  5
3
330
0
100
AcDbSymbolTable
 70
     3
  0
STYLE
  5
11
330
3
100
AcDbSymbolTableRecord
100
AcDbTextStyleTableRecord
  2
Standard
 70
     0
 40
0.0
 41
1.0
 50
0.0
 71
     0
 42
0.2
  3
txt
  4

  0
STYLE
  5
31
330
3
100
AcDbSymbolTableRecord
100
AcDbTextStyleTableRecord
  2
SEACAD_arial_ttf
 70
     0
 40
0.2
 41
1.0
 50
0.0
 71
     0
 42
0.2
  3
arial.ttf
  4

  0
STYLE
  5
4F
330
3
100
AcDbSymbolTableRecord
100
AcDbTextStyleTableRecord
  2
SEACAD_semeca1_ttf
 70
     0
 40
0.2
 41
1.0
 50
0.0
 71
     0
 42
0.2
  3
semeca1.ttf
  4

  0
ENDTAB
  0
TABLE
  2
VIEW
  5
6
330
0
100
AcDbSymbolTable
 70
     0
  0
ENDTAB
  0
TABLE
  2
UCS
  5
7
330
0
100
AcDbSymbolTable
 70
     0
  0
ENDTAB
  0
TABLE
  2
APPID
  5
9
330
0
100
AcDbSymbolTable
 70
     1
  0
APPID
  5
12
330
9
100
AcDbSymbolTableRecord
100
AcDbRegAppTableRecord
  2
ACAD
 70
     0
  0
ENDTAB
  0
TABLE
  2
DIMSTYLE
  5
A
330
0
100
AcDbSymbolTable
 70
     1
100
AcDbDimStyleTable
  0
DIMSTYLE
105
27
330
A
100
AcDbSymbolTableRecord
100
AcDbDimStyleTableRecord
  2
Standard
 70
     0
340
11
  0
ENDTAB
  0
TABLE
  2
BLOCK_RECORD
  5
1
330
0
100
AcDbSymbolTable
 70
    42
  0
BLOCK_RECORD
  5
1F
330
1
100
AcDbSymbolTableRecord
100
AcDbBlockTableRecord
  2
*Model_Space
340
22
  0
BLOCK_RECORD
  5
1B
330
1
100
AcDbSymbolTableRecord
100
AcDbBlockTableRecord
  2
*Paper_Space
340
1E
  0
BLOCK_RECORD
  5
2B
330
1
100
AcDbSymbolTableRecord
100
AcDbBlockTableRecord
  2
SEANNOT_GROUP
340
0
102
{BLKREFS
331
2C
102
}
  0
BLOCK_RECORD
  5
36
330
1
100
AcDbSymbolTableRecord
100
AcDbBlockTableRecord
  2
SEANNOT_GROUP1
340
0
102
{BLKREFS
331
37
102
}
  0
BLOCK_RECORD
  5
3F
330
1
100
AcDbSymbolTableRecord
100
AcDbBlockTableRecord
  2
SEANNOT_GROUP2
340
0
102
{BLKREFS
331
40
102
}
  0
BLOCK_RECORD
  5
49
330
1
100
AcDbSymbolTableRecord
100
AcDbBlockTableRecord
  2
SEANNOT_GROUP3
340
0
102
{BLKREFS
331
4A
102
}
  0
BLOCK_RECORD
  5
54
330
1
100
AcDbSymbolTableRecord
100
AcDbBlockTableRecord
  2
SEANNOT_GROUP4
340
0
102
{BLKREFS
331
55
102
}
  0
BLOCK_RECORD
  5
5E
330
1
100
AcDbSymbolTableRecord
100
AcDbBlockTableRecord
  2
SEANNOT_GROUP5
340
0
102
{BLKREFS
331
5F
102
}
  0
BLOCK_RECORD
  5
67
330
1
100
AcDbSymbolTableRecord
100
AcDbBlockTableRecord
  2
SE
340
0
102
{BLKREFS
331
68
102
}
  0
BLOCK_RECORD
  5
13F
330
1
100
AcDbSymbolTableRecord
100
AcDbBlockTableRecord
  2
SE1
340
0
102
{BLKREFS
331
140
102
}
  0
BLOCK_RECORD
  5
1E2
330
1
100
AcDbSymbolTableRecord
100
AcDbBlockTableRecord
  2
GDimGGroup
340
0
102
{BLKREFS
331
1E3
102
}
  0
BLOCK_RECORD
  5
1EF
330
1
100
AcDbSymbolTableRecord
100
AcDbBlockTableRecord
  2
GDimGGroup1
340
0
102
{BLKREFS
331
1F0
102
}
  0
BLOCK_RECORD
  5
1FB
330
1
100
AcDbSymbolTableRecord
100
AcDbBlockTableRecord
  2
GDimGGroup2
340
0
102
{BLKREFS
331
1FC
102
}
  0
BLOCK_RECORD
  5
207
330
1
100
AcDbSymbolTableRecord
100
AcDbBlockTableRecord
  2
GDimGGroup3
340
0
102
{BLKREFS
331
208
102
}
  0
BLOCK_RECORD
  5
213
330
1
100
AcDbSymbolTableRecord
100
AcDbBlockTableRecord
  2
GDimGGroup4
340
0
102
{BLKREFS
331
214
102
}
  0
BLOCK_RECORD
  5
21F
330
1
100
AcDbSymbolTableRecord
100
AcDbBlockTableRecord
  2
GDimGGroup5
340
0
102
{BLKREFS
331
220
102
}
  0
BLOCK_RECORD
  5
22C
330
1
100
AcDbSymbolTableRecord
100
AcDbBlockTableRecord
  2
GDimGGroup6
340
0
102
{BLKREFS
331
22D
102
}
  0
BLOCK_RECORD
  5
238
330
1
100
AcDbSymbolTableRecord
100
AcDbBlockTableRecord
  2
GDimGGroup7
340
0
102
{BLKREFS
331
239
102
}
  0
BLOCK_RECORD
  5
245
330
1
100
AcDbSymbolTableRecord
100
AcDbBlockTableRecord
  2
GDimGGroup8
340
0
102
{BLKREFS
331
246
102
}
  0
BLOCK_RECORD
  5
252
330
1
100
AcDbSymbolTableRecord
100
AcDbBlockTableRecord
  2
GDimGGroup9
340
0
102
{BLKREFS
331
253
102
}
  0
BLOCK_RECORD
  5
260
330
1
100
AcDbSymbolTableRecord
100
AcDbBlockTableRecord
  2
GDimGGroup10
340
0
102
{BLKREFS
331
261
102
}
  0
BLOCK_RECORD
  5
26A
330
1
100
AcDbSymbolTableRecord
100
AcDbBlockTableRecord
  2
SE2
340
0
102
{BLKREFS
331
26B
102
}
  0
BLOCK_RECORD
  5
360
330
1
100
AcDbSymbolTableRecord
100
AcDbBlockTableRecord
  2
GDimGGroup11
340
0
102
{BLKREFS
331
361
102
}
  0
BLOCK_RECORD
  5
36C
330
1
100
AcDbSymbolTableRecord
100
AcDbBlockTableRecord
  2
GDimGGroup12
340
0
102
{BLKREFS
331
36D
102
}
  0
BLOCK_RECORD
  5
378
330
1
100
AcDbSymbolTableRecord
100
AcDbBlockTableRecord
  2
GDimGGroup13
340
0
102
{BLKREFS
331
379
102
}
  0
BLOCK_RECORD
  5
385
330
1
100
AcDbSymbolTableRecord
100
AcDbBlockTableRecord
  2
GDimGGroup14
340
0
102
{BLKREFS
331
386
102
}
  0
BLOCK_RECORD
  5
393
330
1
100
AcDbSymbolTableRecord
100
AcDbBlockTableRecord
  2
GDimGGroup15
340
0
102
{BLKREFS
331
394
102
}
  0
BLOCK_RECORD
  5
39F
330
1
100
AcDbSymbolTableRecord
100
AcDbBlockTableRecord
  2
GDimGGroup16
340
0
102
{BLKREFS
331
3A0
102
}
  0
BLOCK_RECORD
  5
3AA
330
1
100
AcDbSymbolTableRecord
100
AcDbBlockTableRecord
  2
GDimGGroup17
340
0
102
{BLKREFS
331
3AB
102
}
  0
BLOCK_RECORD
  5
3B5
330
1
100
AcDbSymbolTableRecord
100
AcDbBlockTableRecord
  2
GDimGGroup18
340
0
102
{BLKREFS
331
3B6
102
}
  0
BLOCK_RECORD
  5
3C1
330
1
100
AcDbSymbolTableRecord
100
AcDbBlockTableRecord
  2
GDimGGroup19
340
0
102
{BLKREFS
331
3C2
102
}
  0
BLOCK_RECORD
  5
3CD
330
1
100
AcDbSymbolTableRecord
100
AcDbBlockTableRecord
  2
GDimGGroup20
340
0
102
{BLKREFS
331
3CE
102
}
  0
BLOCK_RECORD
  5
3D9
330
1
100
AcDbSymbolTableRecord
100
AcDbBlockTableRecord
  2
GDimGGroup21
340
0
102
{BLKREFS
331
3DA
102
}
  0
BLOCK_RECORD
  5
3E5
330
1
100
AcDbSymbolTableRecord
100
AcDbBlockTableRecord
  2
GDimGGroup22
340
0
102
{BLKREFS
331
3E6
102
}
  0
BLOCK_RECORD
  5
3F3
330
1
100
AcDbSymbolTableRecord
100
AcDbBlockTableRecord
  2
GDimGGroup23
340
0
102
{BLKREFS
331
3F4
102
}
  0
BLOCK_RECORD
  5
401
330
1
100
AcDbSymbolTableRecord
100
AcDbBlockTableRecord
  2
GDimGGroup24
340
0
102
{BLKREFS
331
402
102
}
  0
BLOCK_RECORD
  5
40C
330
1
100
AcDbSymbolTableRecord
100
AcDbBlockTableRecord
  2
GDimGGroup25
340
0
102
{BLKREFS
331
40D
102
}
  0
BLOCK_RECORD
  5
418
330
1
100
AcDbSymbolTableRecord
100
AcDbBlockTableRecord
  2
GDimGGroup26
340
0
102
{BLKREFS
331
419
102
}
  0
BLOCK_RECORD
  5
425
330
1
100
AcDbSymbolTableRecord
100
AcDbBlockTableRecord
  2
GDimGGroup27
340
0
102
{BLKREFS
331
426
102
}
  0
BLOCK_RECORD
  5
431
330
1
100
AcDbSymbolTableRecord
100
AcDbBlockTableRecord
  2
GDimGGroup28
340
0
102
{BLKREFS
331
432
102
}
  0
BLOCK_RECORD
  5
43D
330
1
100
AcDbSymbolTableRecord
100
AcDbBlockTableRecord
  2
GDimGGroup29
340
0
102
{BLKREFS
331
43E
102
}
  0
BLOCK_RECORD
  5
449
330
1
100
AcDbSymbolTableRecord
100
AcDbBlockTableRecord
  2
GDimGGroup30
340
0
102
{BLKREFS
331
44A
102
}
  0
BLOCK_RECORD
  5
455
330
1
100
AcDbSymbolTableRecord
100
AcDbBlockTableRecord
  2
GDimGGroup31
340
0
102
{BLKREFS
331
456
102
}
  0
ENDTAB
  0
ENDSEC
  0
SECTION
  2
BLOCKS
  0
BLOCK
  5
20
330
1F
100
AcDbEntity
  8
0
100
AcDbBlockBegin
  2
*Model_Space
 70
     0
 71
     0
 10
0.0
 20
0.0
 30
0.0
  3
*Model_Space
  1

  0
ENDBLK
  5
21
330
1F
100
AcDbEntity
  8
0
100
AcDbBlockEnd
  0
BLOCK
  5
1C
330
1B
100
AcDbEntity
 67
     1
  8
0
100
AcDbBlockBegin
  2
*Paper_Space
 70
     0
 71
     0
 10
0.0
 20
0.0
 30
0.0
  3
*Paper_Space
  1

  0
ENDBLK
  5
1D
330
1B
100
AcDbEntity
 67
     1
  8
0
100
AcDbBlockEnd
  0
BLOCK
  5
34
330
2B
100
AcDbEntity
  8
0
100
AcDbBlockBegin
  2
SEANNOT_GROUP
 70
     0
 71
     0
 10
0.0
 20
0.0
 30
0.0
  3
SEANNOT_GROUP
  1

  0
LWPOLYLINE
  5
2D
330
2B
100
AcDbEntity
  8
Default
  6
Continuous
 62
     7
 48
25.4
100
AcDbPolyline
 90
        2
 70
     0
 43
0.0
 10
251.9708289381
 20
396.963110459
 10
215.941040703
 20
379.4044234011
  0
HATCH
  5
2E
330
2B
100
AcDbEntity
  8
Default
  6
Continuous
 62
     7
 48
25.4
100
AcDbHatch
 10
0.0
 20
0.0
 30
0.0
210
0.0
220
0.0
230
1.0
  2
SOLID
 70
     1
 71
     0
 91
        1
 92
        1
 93
        3
 72
     1
 10
219.2447193931474
 20
381.7560511605092
 11
215.9410407029741
 21
379.4044234011311
 72
     1
 10
215.9410407029741
 20
379.4044234011311
 11
219.8288322507742
 21
380.5574727875138
 72
     1
 10
219.8288322507742
 20
380.5574727875138
 11
219.2447193931474
 21
381.7560511605093
 97
        0
 75
     0
 76
     1
 98
        0
  0
LWPOLYLINE
  5
2F
330
2B
100
AcDbEntity
  8
Default
  6
Continuous
 62
     7
 48
25.4
370
    20
100
AcDbPolyline
 90
        4
 70
     1
 43
0.0
 10
219.2447193931
 20
381.7560511605
 10
215.941040703
 20
379.4044234011
 10
219.8288322508
 20
380.5574727875
 10
219.2447193931
 20
381.7560511605
  0
LINE
  5
30
330
2B
100
AcDbEntity
  8
Default
  6
Continuous
 62
     7
 48
25.4
100
AcDbLine
 10
251.9708289381
 20
396.963110459
 30
0.0
 11
323.8114086483
 21
396.963110459
 31
0.0
  0
TEXT
  5
32
330
2B
100
AcDbEntity
  8
Default
  6
Continuous
 62
     7
 48
25.4
100
AcDbText
 10
251.9708289381
 20
397.963110459
 30
0.0
 40
4.0
  1
SERRATION PITCH 1.5X60
  7
SEACAD_arial_ttf
 11
251.9708289381
 21
401.963110459
 31
0.0
100
AcDbText
 73
     3
  0
TEXT
  5
33
330
2B
100
AcDbEntity
  8
Default
  6
Continuous
 62
     7
 48
25.4
100
AcDbText
 10
322.1447419816
 20
397.963110459
 30
0.0
 40
4.0
  1
°
  7
SEACAD_arial_ttf
 11
322.1447419816
 21
401.963110459
 31
0.0
100
AcDbText
 73
     3
  0
ENDBLK
  5
35
330
2B
100
AcDbEntity
  8
0
100
AcDbBlockEnd
  0
BLOCK
  5
3D
330
36
100
AcDbEntity
  8
0
100
AcDbBlockBegin
  2
SEANNOT_GROUP1
 70
     0
 71
     0
 10
0.0
 20
0.0
 30
0.0
  3
SEANNOT_GROUP1
  1

  0
LWPOLYLINE
  5
38
330
36
100
AcDbEntity
  8
Default
  6
Continuous
 62
     7
 48
25.4
100
AcDbPolyline
 90
        2
 70
     0
 43
0.0
 10
172.6560187709
 20
345.2266180416
 10
169.6437672326
 20
319.9539053514
  0
HATCH
  5
39
330
36
100
AcDbEntity
  8
Default
  6
Continuous
 62
     7
 48
25.4
100
AcDbHatch
 10
0.0
 20
0.0
 30
0.0
210
0.0
220
0.0
230
1.0
  2
SOLID
 70
     1
 71
     0
 91
        1
 92
        1
 93
        3
 72
     1
 10
169.4551947960692
 20
324.004693724423
 11
169.6437672326214
 21
319.9539053514325
 72
     1
 10
169.6437672326214
 20
319.9539053514325
 11
170.7791571027987
 21
323.8468908188189
 72
     1
 10
170.7791571027987
 20
323.8468908188189
 11
169.4551947960692
 21
324.004693724423
 97
        0
 75
     0
 76
     1
 98
        0
  0
LWPOLYLINE
  5
3A
330
36
100
AcDbEntity
  8
Default
  6
Continuous
 62
     7
 48
25.4
370
    20
100
AcDbPolyline
 90
        4
 70
     1
 43
0.0
 10
169.4551947961
 20
324.0046937244
 10
169.6437672326
 20
319.9539053514
 10
170.7791571028
 20
323.8468908188
 10
169.4551947961
 20
324.0046937244
  0
LINE
  5
3B
330
36
100
AcDbEntity
  8
Default
  6
Continuous
 62
     7
 48
25.4
100
AcDbLine
 10
172.6560187709
 20
345.2266180416
 30
0.0
 11
211.5255839882
 21
345.2266180416
 31
0.0
  0
TEXT
  5
3C
330
36
100
AcDbEntity
  8
Default
  6
Continuous
 62
     7
 48
25.4
100
AcDbText
 10
172.6560187709
 20
346.2266180416
 30
0.0
 40
4.0
  1
MAX M130X2.0
  7
SEACAD_arial_ttf
 11
172.6560187709
 21
350.2266180416
 31
0.0
100
AcDbText
 73
     3
  0
ENDBLK
  5
3E
330
36
100
AcDbEntity
  8
0
100
AcDbBlockEnd
  0
BLOCK
  5
47
330
3F
100
AcDbEntity
  8
0
100
AcDbBlockBegin
  2
SEANNOT_GROUP2
 70
     0
 71
     0
 10
0.0
 20
0.0
 30
0.0
  3
SEANNOT_GROUP2
  1

  0
LWPOLYLINE
  5
41
330
3F
100
AcDbEntity
  8
Default
  6
Continuous
 62
     7
 48
25.4
100
AcDbPolyline
 90
        2
 70
     0
 43
0.0
 10
127.99368085
 20
231.5254365684
 10
149.4114866877
 20
242.7539053514
  0
HATCH
  5
42
330
3F
100
AcDbEntity
  8
Default
  6
Continuous
 62
     7
 48
25.4
100
AcDbHatch
 10
0.0
 20
0.0
 30
0.0
210
0.0
220
0.0
230
1.0
  2
SOLID
 70
     1
 71
     0
 91
        1
 92
        1
 93
        3
 72
     1
 10
146.1783605688182
 20
240.3061836544015
 11
149.4114866876801
 21
242.7539053514325
 72
     1
 10
149.4114866876801
 20
242.7539053514325
 11
145.5592684572872
 21
241.4870743792773
 72
     1
 10
145.5592684572872
 20
241.4870743792773
 11
146.1783605688182
 21
240.3061836544015
 97
        0
 75
     0
 76
     1
 98
        0
  0
LWPOLYLINE
  5
43
330
3F
100
AcDbEntity
  8
Default
  6
Continuous
 62
     7
 48
25.4
370
    20
100
AcDbPolyline
 90
        4
 70
     1
 43
0.0
 10
146.1783605688
 20
240.3061836544
 10
149.4114866877
 20
242.7539053514
 10
145.5592684573
 20
241.4870743793
 10
146.1783605688
 20
240.3061836544
  0
LINE
  5
44
330
3F
100
AcDbEntity
  8
Default
  6
Continuous
 62
     7
 48
25.4
100
AcDbLine
 10
127.99368085
 20
231.5254365684
 30
0.0
 11
112.1675938935
 21
231.5254365684
 31
0.0
  0
LINE
  5
45
330
3F
100
AcDbEntity
  8
Default
  6
Continuous
 62
     7
 48
25.4
100
AcDbLine
 10
154.175355278
 20
242.7539053514
 30
0.0
 11
147.4114866877
 21
242.7539053514
 31
0.0
  0
TEXT
  5
46
330
3F
100
AcDbEntity
  8
Default
  6
Continuous
 62
     7
 48
25.4
100
AcDbText
 10
112.1675938935
 20
232.5254365684
 30
0.0
 40
4.0
  1
6-M20
  7
SEACAD_arial_ttf
 11
112.1675938935
 21
236.5254365684
 31
0.0
100
AcDbText
 73
     3
  0
ENDBLK
  5
48
330
3F
100
AcDbEntity
  8
0
100
AcDbBlockEnd
  0
BLOCK
  5
52
330
49
100
AcDbEntity
  8
0
100
AcDbBlockBegin
  2
SEANNOT_GROUP3
 70
     0
 71
     0
 10
0.0
 20
0.0
 30
0.0
  3
SEANNOT_GROUP3
  1

  0
LWPOLYLINE
  5
4B
330
49
100
AcDbEntity
  8
Default
  6
Continuous
 62
     7
 48
25.4
100
AcDbPolyline
 90
        2
 70
     0
 43
0.0
 10
238.1833615452
 20
269.9691457177
 10
238.1833615452
 20
246.9539053514
  0
HATCH
  5
4C
330
49
100
AcDbEntity
  8
Default
  6
Continuous
 62
     7
 48
25.4
100
AcDbHatch
 10
0.0
 20
0.0
 30
0.0
210
0.0
220
0.0
230
1.0
  2
SOLID
 70
     1
 71
     0
 91
        1
 92
        1
 93
        3
 72
     1
 10
237.5166948468789
 20
250.9539055414223
 11
238.1833615452105
 21
246.9539053514325
 72
     1
 10
238.1833615452105
 20
246.9539053514325
 11
238.8500282435421
 21
250.9539055414223
 72
     1
 10
238.8500282435421
 20
250.9539055414223
 11
237.5166948468789
 21
250.9539055414223
 97
        0
 75
     0
 76
     1
 98
        0
  0
LWPOLYLINE
  5
4D
330
49
100
AcDbEntity
  8
Default
  6
Continuous
 62
     7
 48
25.4
370
    20
100
AcDbPolyline
 90
        4
 70
     1
 43
0.0
 10
237.5166948469
 20
250.9539055414
 10
238.1833615452
 20
246.9539053514
 10
238.8500282435
 20
250.9539055414
 10
237.5166948469
 20
250.9539055414
  0
LINE
  5
4E
330
49
100
AcDbEntity
  8
Default
  6
Continuous
 62
     7
 48
25.4
100
AcDbLine
 10
226.5196156501
 20
246.9539053514
 30
0.0
 11
240.1833615452
 21
246.9539053514
 31
0.0
  0
TEXT
  5
50
330
49
100
AcDbEntity
  8
Default
  6
Continuous
 62
     7
 48
25.4
100
AcDbText
 10
239.5833615452
 20
267.9691457177
 30
0.0
 40
4.0
  1
O
  7
SEACAD_semeca1_ttf
 11
239.5833615452
 21
271.9691457177
 31
0.0
100
AcDbText
 73
     3
  0
TEXT
  5
51
330
49
100
AcDbEntity
  8
Default
  6
Continuous
 62
     7
 48
25.4
100
AcDbText
 10
244.144765054
 20
267.9691457177
 30
0.0
 40
4.0
  1
235
  7
SEACAD_arial_ttf
 11
244.144765054
 21
271.9691457177
 31
0.0
100
AcDbText
 73
     3
  0
ENDBLK
  5
53
330
49
100
AcDbEntity
  8
0
100
AcDbBlockEnd
  0
BLOCK
  5
5C
330
54
100
AcDbEntity
  8
0
100
AcDbBlockBegin
  2
SEANNOT_GROUP4
 70
     0
 71
     0
 10
0.0
 20
0.0
 30
0.0
  3
SEANNOT_GROUP4
  1

  0
LWPOLYLINE
  5
56
330
54
100
AcDbEntity
  8
Default
  6
Continuous
 62
     7
 48
25.4
100
AcDbPolyline
 90
        2
 70
     0
 43
0.0
 10
132.5458851727
 20
342.449309717
 10
132.5458851727
 20
357.9539053514
  0
HATCH
  5
57
330
54
100
AcDbEntity
  8
Default
  6
Continuous
 62
     7
 48
25.4
100
AcDbHatch
 10
0.0
 20
0.0
 30
0.0
210
0.0
220
0.0
230
1.0
  2
SOLID
 70
     1
 71
     0
 91
        1
 92
        1
 93
        3
 72
     1
 10
133.2125518710031
 20
353.9539051614427
 11
132.5458851726715
 21
357.9539053514325
 72
     1
 10
132.5458851726715
 20
357.9539053514325
 11
131.8792184743399
 21
353.9539051614427
 72
     1
 10
131.8792184743399
 20
353.9539051614427
 11
133.2125518710031
 21
353.9539051614427
 97
        0
 75
     0
 76
     1
 98
        0
  0
LWPOLYLINE
  5
58
330
54
100
AcDbEntity
  8
Default
  6
Continuous
 62
     7
 48
25.4
370
    20
100
AcDbPolyline
 90
        4
 70
     1
 43
0.0
 10
133.212551871
 20
353.9539051614
 10
132.5458851727
 20
357.9539053514
 10
131.8792184743
 20
353.9539051614
 10
133.212551871
 20
353.9539051614
  0
LINE
  5
59
330
54
100
AcDbEntity
  8
Default
  6
Continuous
 62
     7
 48
25.4
100
AcDbLine
 10
149.274114938
 20
357.9539053514
 30
0.0
 11
130.5458851727
 21
357.9539053514
 31
0.0
  0
TEXT
  5
5A
330
54
100
AcDbEntity
  8
Default
  6
Continuous
 62
     7
 48
25.4
100
AcDbText
 10
133.9458851727
 20
340.449309717
 30
0.0
 40
4.0
  1
O
  7
SEACAD_semeca1_ttf
 11
133.9458851727
 21
344.449309717
 31
0.0
100
AcDbText
 73
     3
  0
TEXT
  5
5B
330
54
100
AcDbEntity
  8
Default
  6
Continuous
 62
     7
 48
25.4
100
AcDbText
 10
138.5072886814
 20
340.449309717
 30
0.0
 40
4.0
  1
320
  7
SEACAD_arial_ttf
 11
138.5072886814
 21
344.449309717
 31
0.0
100
AcDbText
 73
     3
  0
ENDBLK
  5
5D
330
54
100
AcDbEntity
  8
0
100
AcDbBlockEnd
  0
BLOCK
  5
65
330
5E
100
AcDbEntity
  8
0
100
AcDbBlockBegin
  2
SEANNOT_GROUP5
 70
     0
 71
     0
 10
0.0
 20
0.0
 30
0.0
  3
SEANNOT_GROUP5
  1

  0
LWPOLYLINE
  5
60
330
5E
100
AcDbEntity
  8
Default
  6
Continuous
 62
     7
 48
25.4
100
AcDbPolyline
 90
        2
 70
     0
 43
0.0
 10
382.390341838
 20
378.7175667752
 10
404.4503081424
 20
349.1545471417
  0
HATCH
  5
61
330
5E
100
AcDbEntity
  8
Default
  6
Continuous
 62
     7
 48
25.4
100
AcDbHatch
 10
0.0
 20
0.0
 30
0.0
210
0.0
220
0.0
230
1.0
  2
SOLID
 70
     1
 71
     0
 91
        1
 92
        1
 93
        3
 72
     1
 10
401.5238028957283
 20
351.961683235285
 11
404.4503081424206
 21
349.1545471417431
 72
     1
 10
404.4503081424206
 20
349.1545471417431
 11
402.592414885347
 21
352.7590829859126
 72
     1
 10
402.5924148853469
 20
352.7590829859127
 11
401.5238028957283
 21
351.9616832352851
 97
        0
 75
     0
 76
     1
 98
        0
  0
LWPOLYLINE
  5
62
330
5E
100
AcDbEntity
  8
Default
  6
Continuous
 62
     7
 48
25.4
370
    20
100
AcDbPolyline
 90
        4
 70
     1
 43
0.0
 10
401.5238028957
 20
351.9616832353
 10
404.4503081424
 20
349.1545471417
 10
402.5924148853
 20
352.7590829859
 10
401.5238028957
 20
351.9616832353
  0
LINE
  5
63
330
5E
100
AcDbEntity
  8
Default
  6
Continuous
 62
     7
 48
25.4
100
AcDbLine
 10
382.390341838
 20
378.7175667752
 30
0.0
 11
366.5642548814
 21
378.7175667752
 31
0.0
  0
TEXT
  5
64
330
5E
100
AcDbEntity
  8
Default
  6
Continuous
 62
     7
 48
25.4
100
AcDbText
 10
366.5642548814
 20
379.7175667752
 30
0.0
 40
4.0
  1
3-M10
  7
SEACAD_arial_ttf
 11
366.5642548814
 21
383.7175667752
 31
0.0
100
AcDbText
 73
     3
  0
ENDBLK
  5
66
330
5E
100
AcDbEntity
  8
0
100
AcDbBlockEnd
  0
BLOCK
  5
13D
330
67
100
AcDbEntity
  8
0
100
AcDbBlockBegin
  2
SE
 70
     0
 71
     0
 10
0.0
 20
0.0
 30
0.0
  3
SE
  1

  0
LINE
  5
6B
330
67
100
AcDbEntity
  8
DV1_Default
  6
CENTER2
 62
     7
 48
25.4
100
AcDbLine
 10
137.4759023655
 20
293.9539053514
 30
0.0
 11
235.5555905081
 21
293.9539053514
 31
0.0
  0
LINE
  5
6C
330
67
100
AcDbEntity
  8
DV1_Default
  6
Continuous
 62
     7
 48
25.4
100
AcDbLine
 10
213.775355278
 20
383.2911630379
 30
0.0
 11
202.3731273095
 21
383.2911630379
 31
0.0
  0
LINE
  5
6D
330
67
100
AcDbEntity
  8
DV1_Default
  6
Continuous
 62
     7
 48
25.4
100
AcDbLine
 10
162.975355278
 20
251.1539053514
 30
0.0
 11
162.975355278
 21
293.9539053514
 31
0.0
  0
LINE
  5
6E
330
67
100
AcDbEntity
  8
DV1_Default
  6
CENTER2
 62
     7
 48
25.4
100
AcDbLine
 10
226.5196156501
 20
246.9539053514
 30
0.0
 11
136.1300156509
 21
246.9539053514
 31
0.0
  0
LINE
  5
6F
330
67
100
AcDbEntity
  8
DV1_Default
  6
Continuous
 62
     7
 48
25.4
100
AcDbLine
 10
184.5916741457
 20
293.9539053514
 30
0.0
 11
184.5916741457
 21
267.0546465459
 31
0.0
  0
LINE
  5
70
330
67
100
AcDbEntity
  8
DV1_Default
  6
Continuous
 62
     7
 48
25.4
100
AcDbLine
 10
184.5916741457
 20
267.0546465459
 30
0.0
 11
182.1916741457
 21
267.0546465459
 31
0.0
  0
LINE
  5
71
330
67
100
AcDbEntity
  8
DV1_Default
  6
Continuous
 62
     7
 48
25.4
100
AcDbLine
 10
182.1916741457
 20
267.0546465459
 30
0.0
 11
182.1916741457
 21
265.0546465459
 31
0.0
  0
LINE
  5
72
330
67
100
AcDbEntity
  8
DV1_Default
  6
Continuous
 62
     7
 48
25.4
100
AcDbLine
 10
182.1916741457
 20
265.0546465459
 30
0.0
 11
178.9916741457
 21
265.0546465459
 31
0.0
  0
LINE
  5
73
330
67
100
AcDbEntity
  8
DV1_Default
  6
Continuous
 62
     7
 48
25.4
100
AcDbLine
 10
178.9916741457
 20
266.1539053514
 30
0.0
 11
178.9916741457
 21
265.0546465459
 31
0.0
  0
LINE
  5
74
330
67
100
AcDbEntity
  8
DV1_Default
  6
Continuous
 62
     7
 48
25.4
100
AcDbLine
 10
167.375355278
 20
267.9539053514
 30
0.0
 11
182.975355278
 21
267.9539053514
 31
0.0
  0
LINE
  5
75
330
67
100
AcDbEntity
  8
DV1_Default
  6
Continuous
 62
     7
 48
25.4
100
AcDbLine
 10
182.9916741457
 20
267.9539053514
 30
0.0
 11
182.9916741457
 21
268.7539053514
 31
0.0
  0
LINE
  5
76
330
67
100
AcDbEntity
  8
DV1_Default
  6
Continuous
 62
     7
 48
25.4
100
AcDbLine
 10
182.9916741457
 20
267.9539053514
 30
0.0
 11
182.9916741457
 21
293.9539053514
 31
0.0
  0
LINE
  5
77
330
67
100
AcDbEntity
  8
DV1_Default
  6
Continuous
 62
     7
 48
25.4
100
AcDbLine
 10
182.9916741457
 20
267.9539053514
 30
0.0
 11
180.5916741457
 21
267.9539053514
 31
0.0
  0
LINE
  5
78
330
67
100
AcDbEntity
  8
DV1_Default
  6
Continuous
 62
     7
 48
25.4
100
AcDbLine
 10
180.5916741457
 20
267.9539053514
 30
0.0
 11
180.5916741457
 21
293.9539053514
 31
0.0
  0
LINE
  5
79
330
67
100
AcDbEntity
  8
DV1_Default
  6
Continuous
 62
     7
 48
25.4
100
AcDbLine
 10
184.5916741457
 20
267.0546465459
 30
0.0
 11
184.9916741457
 21
267.0546465459
 31
0.0
  0
LINE
  5
7A
330
67
100
AcDbEntity
  8
DV1_Default
  6
Continuous
 62
     7
 48
25.4
100
AcDbLine
 10
184.9916741457
 20
267.0546465459
 30
0.0
 11
184.9916741457
 21
269.6539053514
 31
0.0
  0
LINE
  5
7B
330
67
100
AcDbEntity
  8
DV1_Default
  6
Continuous
 62
     7
 48
25.4
100
AcDbLine
 10
213.775355278
 20
261.8139053514
 30
0.0
 11
209.775355278
 21
261.8139053514
 31
0.0
  0
LINE
  5
7C
330
67
100
AcDbEntity
  8
DV1_Default
  6
Continuous
 62
     7
 48
25.4
100
AcDbLine
 10
209.775355278
 20
269.2539053514
 30
0.0
 11
209.775355278
 21
261.8139053514
 31
0.0
  0
LINE
  5
7D
330
67
100
AcDbEntity
  8
DV1_Default
  6
Continuous
 62
     7
 48
25.4
100
AcDbLine
 10
184.9916741457
 20
269.6539053514
 30
0.0
 11
185.7916741457
 21
270.4539053514
 31
0.0
  0
LINE
  5
7E
330
67
100
AcDbEntity
  8
DV1_Default
  6
Continuous
 62
     7
 48
25.4
100
AcDbLine
 10
184.9916741457
 20
269.6539053514
 30
0.0
 11
184.9916741457
 21
293.9539053514
 31
0.0
  0
LINE
  5
7F
330
67
100
AcDbEntity
  8
DV1_Default
  6
Continuous
 62
     7
 48
25.4
100
AcDbLine
 10
185.7916741457
 20
270.4539053514
 30
0.0
 11
185.7916741457
 21
293.9539053514
 31
0.0
  0
LINE
  5
80
330
67
100
AcDbEntity
  8
DV1_Default
  6
Continuous
 62
     7
 48
25.4
100
AcDbLine
 10
213.775355278
 20
262.6139053514
 30
0.0
 11
211.375355278
 21
262.6139053514
 31
0.0
  0
LINE
  5
81
330
67
100
AcDbEntity
  8
DV1_Default
  6
Continuous
 62
     7
 48
25.4
100
AcDbLine
 10
211.375355278
 20
262.6139053514
 30
0.0
 11
211.375355278
 21
267.4139053514
 31
0.0
  0
LINE
  5
82
330
67
100
AcDbEntity
  8
DV1_Default
  6
Continuous
 62
     7
 48
25.4
100
AcDbLine
 10
211.375355278
 20
267.4139053514
 30
0.0
 11
213.775355278
 21
267.4139053514
 31
0.0
  0
LINE
  5
83
330
67
100
AcDbEntity
  8
DV1_Default
  6
CENTER2
 62
     7
 48
25.4
100
AcDbLine
 10
215.8379586155
 20
265.0139053514
 30
0.0
 11
203.972253317
 21
265.0139053514
 31
0.0
  0
LINE
  5
84
330
67
100
AcDbEntity
  8
DV1_Default
  6
Continuous
 62
     7
 48
25.4
100
AcDbLine
 10
213.775355278
 20
253.3539053514
 30
0.0
 11
202.975355278
 21
253.3539053514
 31
0.0
  0
LINE
  5
85
330
67
100
AcDbEntity
  8
DV1_Default
  6
Continuous
 62
     7
 48
25.4
100
AcDbLine
 10
202.975355278
 20
253.3539053514
 30
0.0
 11
202.975355278
 21
240.5539053514
 31
0.0
  0
LINE
  5
86
330
67
100
AcDbEntity
  8
DV1_Default
  6
Continuous
 62
     7
 48
25.4
100
AcDbLine
 10
202.975355278
 20
240.5539053514
 30
0.0
 11
213.775355278
 21
240.5539053514
 31
0.0
  0
LINE
  5
87
330
67
100
AcDbEntity
  8
DV1_Default
  6
Continuous
 62
     7
 48
25.4
100
AcDbLine
 10
202.975355278
 20
242.7539053514
 30
0.0
 11
154.175355278
 21
242.7539053514
 31
0.0
  0
LINE
  5
88
330
67
100
AcDbEntity
  8
DV1_Default
  6
Continuous
 62
     7
 48
25.4
100
AcDbLine
 10
202.975355278
 20
251.6313291088
 30
0.0
 11
162.975355278
 21
251.6313291088
 31
0.0
  0
LINE
  5
89
330
67
100
AcDbEntity
  8
DV1_Default
  6
Continuous
 62
     7
 48
25.4
100
AcDbLine
 10
202.975355278
 20
252.9539053514
 30
0.0
 11
210.375355278
 21
252.9539053514
 31
0.0
  0
LINE
  5
8A
330
67
100
AcDbEntity
  8
DV1_Default
  6
Continuous
 62
     7
 48
25.4
100
AcDbLine
 10
210.975355278
 20
252.3539053514
 30
0.0
 11
210.975355278
 21
241.5539053514
 31
0.0
  0
LINE
  5
8B
330
67
100
AcDbEntity
  8
DV1_Default
  6
Continuous
 62
     7
 48
25.4
100
AcDbLine
 10
210.375355278
 20
240.9539053514
 30
0.0
 11
202.975355278
 21
240.9539053514
 31
0.0
  0
LINE
  5
8C
330
67
100
AcDbEntity
  8
DV1_Default
  6
Continuous
 62
     7
 48
25.4
100
AcDbLine
 10
173.041786113
 20
251.1539053514
 30
0.0
 11
173.041786113
 21
242.7539053514
 31
0.0
  0
LINE
  5
8D
330
67
100
AcDbEntity
  8
DV1_Default
  6
Continuous
 62
     7
 48
25.4
100
AcDbLine
 10
173.041786113
 20
250.7539053514
 30
0.0
 11
154.175355278
 21
250.7539053514
 31
0.0
  0
LINE
  5
8E
330
67
100
AcDbEntity
  8
DV1_Default
  6
Continuous
 62
     7
 48
25.4
100
AcDbLine
 10
173.041786113
 20
243.2538906822
 30
0.0
 11
154.175355278
 21
243.2538906822
 31
0.0
  0
LINE
  5
8F
330
67
100
AcDbEntity
  8
DV1_Default
  6
Continuous
 62
     7
 48
25.4
100
AcDbLine
 10
184.5916741457
 20
293.9539053514
 30
0.0
 11
184.5916741457
 21
320.8531641569
 31
0.0
  0
LINE
  5
90
330
67
100
AcDbEntity
  8
DV1_Default
  6
Continuous
 62
     7
 48
25.4
100
AcDbLine
 10
184.5916741457
 20
320.8531641569
 30
0.0
 11
182.1916741457
 21
320.8531641569
 31
0.0
  0
LINE
  5
91
330
67
100
AcDbEntity
  8
DV1_Default
  6
Continuous
 62
     7
 48
25.4
100
AcDbLine
 10
182.1916741457
 20
320.8531641569
 30
0.0
 11
182.1916741457
 21
322.8531641569
 31
0.0
  0
LINE
  5
92
330
67
100
AcDbEntity
  8
DV1_Default
  6
Continuous
 62
     7
 48
25.4
100
AcDbLine
 10
182.1916741457
 20
322.8531641569
 30
0.0
 11
178.9916741457
 21
322.8531641569
 31
0.0
  0
LINE
  5
93
330
67
100
AcDbEntity
  8
DV1_Default
  6
Continuous
 62
     7
 48
25.4
100
AcDbLine
 10
178.9916741457
 20
321.7539053514
 30
0.0
 11
178.9916741457
 21
322.8531641569
 31
0.0
  0
LINE
  5
94
330
67
100
AcDbEntity
  8
DV1_Default
  6
Continuous
 62
     7
 48
25.4
100
AcDbLine
 10
182.9916741457
 20
319.9539053514
 30
0.0
 11
182.9916741457
 21
319.1539053514
 31
0.0
  0
LINE
  5
95
330
67
100
AcDbEntity
  8
DV1_Default
  6
Continuous
 62
     7
 48
25.4
100
AcDbLine
 10
182.9916741457
 20
319.9539053514
 30
0.0
 11
182.9916741457
 21
293.9539053514
 31
0.0
  0
LINE
  5
96
330
67
100
AcDbEntity
  8
DV1_Default
  6
Continuous
 62
     7
 48
25.4
100
AcDbLine
 10
180.5916741457
 20
319.9539053514
 30
0.0
 11
180.5916741457
 21
293.9539053514
 31
0.0
  0
LINE
  5
97
330
67
100
AcDbEntity
  8
DV1_Default
  6
Continuous
 62
     7
 48
25.4
100
AcDbLine
 10
184.5916741457
 20
320.8531641569
 30
0.0
 11
184.9916741457
 21
320.8531641569
 31
0.0
  0
LINE
  5
98
330
67
100
AcDbEntity
  8
DV1_Default
  6
Continuous
 62
     7
 48
25.4
100
AcDbLine
 10
184.9916741457
 20
320.8531641569
 30
0.0
 11
184.9916741457
 21
318.2539053514
 31
0.0
  0
LINE
  5
99
330
67
100
AcDbEntity
  8
DV1_Default
  6
Continuous
 62
     7
 48
25.4
100
AcDbLine
 10
184.9916741457
 20
318.2539053514
 30
0.0
 11
185.7916741457
 21
317.4539053514
 31
0.0
  0
LINE
  5
9A
330
67
100
AcDbEntity
  8
DV1_Default
  6
Continuous
 62
     7
 48
25.4
100
AcDbLine
 10
184.9916741457
 20
318.2539053514
 30
0.0
 11
184.9916741457
 21
293.9539053514
 31
0.0
  0
LINE
  5
9B
330
67
100
AcDbEntity
  8
DV1_Default
  6
Continuous
 62
     7
 48
25.4
100
AcDbLine
 10
185.7916741457
 20
317.4539053514
 30
0.0
 11
185.7916741457
 21
293.9539053514
 31
0.0
  0
LINE
  5
9C
330
67
100
AcDbEntity
  8
DV1_Default
  6
Continuous
 62
     7
 48
25.4
100
AcDbLine
 10
211.375355278
 20
267.4139053514
 30
0.0
 11
211.375355278
 21
267.0139053514
 31
0.0
  0
LINE
  5
9D
330
67
100
AcDbEntity
  8
DV1_Default
  6
Continuous
 62
     7
 48
25.4
100
AcDbLine
 10
211.375355278
 20
267.0139053514
 30
0.0
 11
213.175355278
 21
267.0139053514
 31
0.0
  0
LINE
  5
9E
330
67
100
AcDbEntity
  8
DV1_Default
  6
Continuous
 62
     7
 48
25.4
100
AcDbLine
 10
213.375355278
 20
266.8139053514
 30
0.0
 11
213.375355278
 21
263.2139053514
 31
0.0
  0
LINE
  5
9F
330
67
100
AcDbEntity
  8
DV1_Default
  6
Continuous
 62
     7
 48
25.4
100
AcDbLine
 10
213.175355278
 20
263.0139053514
 30
0.0
 11
211.375355278
 21
263.0139053514
 31
0.0
  0
LINE
  5
A0
330
67
100
AcDbEntity
  8
DV1_Default
  6
Continuous
 62
     7
 48
25.4
100
AcDbLine
 10
213.375355278
 20
266.8139053514
 30
0.0
 11
213.175355278
 21
267.0139053514
 31
0.0
  0
LINE
  5
A1
330
67
100
AcDbEntity
  8
DV1_Default
  6
Continuous
 62
     7
 48
25.4
100
AcDbLine
 10
213.175355278
 20
263.0139053514
 30
0.0
 11
213.375355278
 21
263.2139053514
 31
0.0
  0
LINE
  5
A2
330
67
100
AcDbEntity
  8
DV1_Default
  6
Continuous
 62
     7
 48
25.4
100
AcDbLine
 10
213.175355278
 20
267.0139053514
 30
0.0
 11
213.175355278
 21
263.0139053514
 31
0.0
  0
LINE
  5
A3
330
67
100
AcDbEntity
  8
DV1_Default
  6
Continuous
 62
     7
 48
25.4
100
AcDbLine
 10
211.375355278
 20
267.4139053514
 30
0.0
 11
211.375355278
 21
265.0139053514
 31
0.0
  0
LINE
  5
A4
330
67
100
AcDbEntity
  8
DV1_Default
  6
Continuous
 62
     7
 48
25.4
100
AcDbLine
 10
211.375355278
 20
265.0139053514
 30
0.0
 11
211.375355278
 21
266.2139053514
 31
0.0
  0
LINE
  5
A5
330
67
100
AcDbEntity
  8
DV1_Default
  6
Continuous
 62
     7
 48
25.4
100
AcDbLine
 10
211.375355278
 20
266.2139053514
 30
0.0
 11
205.375355278
 21
266.2139053514
 31
0.0
  0
LINE
  5
A6
330
67
100
AcDbEntity
  8
DV1_Default
  6
Continuous
 62
     7
 48
25.4
100
AcDbLine
 10
205.375355278
 20
266.2139053514
 30
0.0
 11
205.375355278
 21
263.8139053514
 31
0.0
  0
LINE
  5
A7
330
67
100
AcDbEntity
  8
DV1_Default
  6
Continuous
 62
     7
 48
25.4
100
AcDbLine
 10
205.375355278
 20
263.8139053514
 30
0.0
 11
211.375355278
 21
263.8139053514
 31
0.0
  0
LINE
  5
A8
330
67
100
AcDbEntity
  8
DV1_Default
  6
Continuous
 62
     7
 48
25.4
100
AcDbLine
 10
211.375355278
 20
266.0469758118
 30
0.0
 11
205.375355278
 21
266.0469758118
 31
0.0
  0
LINE
  5
A9
330
67
100
AcDbEntity
  8
DV1_Default
  6
Continuous
 62
     7
 48
25.4
100
AcDbLine
 10
211.375355278
 20
263.9629063941
 30
0.0
 11
205.375355278
 21
263.9629063941
 31
0.0
  0
LINE
  5
AA
330
67
100
AcDbEntity
  8
DV1_Default
  6
Continuous
 62
     7
 48
25.4
100
AcDbLine
 10
216.175355278
 20
384.0911630379
 30
0.0
 11
241.775355278
 21
384.0911630379
 31
0.0
  0
LINE
  5
AB
330
67
100
AcDbEntity
  8
DV1_Default
  6
Continuous
 62
     7
 48
25.4
100
AcDbLine
 10
213.775355278
 20
383.2911630379
 30
0.0
 11
215.375355278
 21
383.2911630379
 31
0.0
  0
LINE
  5
AC
330
67
100
AcDbEntity
  8
DV1_Default
  6
Continuous
 62
     7
 48
25.4
100
AcDbLine
 10
218.575355278
 20
318.0911630379
 30
0.0
 11
218.575355278
 21
348.0911630379
 31
0.0
  0
LINE
  5
AD
330
67
100
AcDbEntity
  8
DV1_Default
  6
Continuous
 62
     7
 48
25.4
100
AcDbLine
 10
215.375355278
 20
318.4911630379
 30
0.0
 11
215.375355278
 21
339.2311630379
 31
0.0
  0
LINE
  5
AE
330
67
100
AcDbEntity
  8
DV1_Default
  6
Continuous
 62
     7
 48
25.4
100
AcDbLine
 10
215.375355278
 20
383.2911630379
 30
0.0
 11
215.6581979905
 21
383.0083203254
 31
0.0
  0
LINE
  5
AF
330
67
100
AcDbEntity
  8
DV1_Default
  6
Continuous
 62
     7
 48
25.4
100
AcDbLine
 10
215.941040703
 20
339.7968484629
 30
0.0
 11
215.941040703
 21
382.725477613
 31
0.0
  0
LINE
  5
B0
330
67
100
AcDbEntity
  8
DV1_Default
  6
Continuous
 62
     7
 48
25.4
100
AcDbLine
 10
215.375355278
 20
383.2911630379
 30
0.0
 11
215.941040703
 21
382.725477613
 31
0.0
  0
LINE
  5
B1
330
67
100
AcDbEntity
  8
DV1_Default
  6
Continuous
 62
     7
 48
25.4
100
AcDbLine
 10
215.375355278
 20
383.2911630379
 30
0.0
 11
215.375355278
 21
339.2311630379
 31
0.0
  0
LINE
  5
B2
330
67
100
AcDbEntity
  8
DV1_Default
  6
Continuous
 62
     7
 48
25.4
100
AcDbLine
 10
215.375355278
 20
383.2911630379
 30
0.0
 11
216.175355278
 21
384.0911630379
 31
0.0
  0
LINE
  5
B3
330
67
100
AcDbEntity
  8
DV1_Default
  6
Continuous
 62
     7
 48
25.4
100
AcDbLine
 10
215.941040703
 20
339.7968484629
 30
0.0
 11
215.941040703
 21
318.0911630379
 31
0.0
  0
LINE
  5
B4
330
67
100
AcDbEntity
  8
DV1_Default
  6
Continuous
 62
     7
 48
25.4
100
AcDbLine
 10
215.941040703
 20
377.5247785054
 30
0.0
 11
218.141040703
 21
377.5247785054
 31
0.0
  0
LINE
  5
B5
330
67
100
AcDbEntity
  8
DV1_Default
  6
Continuous
 62
     7
 48
25.4
100
AcDbLine
 10
218.141040703
 20
377.5247785054
 30
0.0
 11
218.141040703
 21
342.4219058774
 31
0.0
  0
LINE
  5
B6
330
67
100
AcDbEntity
  8
DV1_Default
  6
Continuous
 62
     7
 48
25.4
100
AcDbLine
 10
218.141040703
 20
342.4219058774
 30
0.0
 11
215.941040703
 21
342.4219058774
 31
0.0
  0
LINE
  5
B7
330
67
100
AcDbEntity
  8
DV1_Default
  6
Continuous
 62
     7
 48
25.4
100
AcDbLine
 10
241.775355278
 20
375.2911630379
 30
0.0
 11
227.375355278
 21
375.2911630379
 31
0.0
  0
LINE
  5
B8
330
67
100
AcDbEntity
  8
DV1_Default
  6
Continuous
 62
     7
 48
25.4
100
AcDbLine
 10
227.375355278
 20
375.2911630379
 30
0.0
 11
227.375355278
 21
363.2911630379
 31
0.0
  0
LINE
  5
B9
330
67
100
AcDbEntity
  8
DV1_Default
  6
Continuous
 62
     7
 48
25.4
100
AcDbLine
 10
227.375355278
 20
363.2911630379
 30
0.0
 11
241.775355278
 21
363.2911630379
 31
0.0
  0
LINE
  5
BA
330
67
100
AcDbEntity
  8
DV1_Default
  6
Continuous
 62
     7
 48
25.4
100
AcDbLine
 10
227.375355278
 20
373.2911630379
 30
0.0
 11
218.575355278
 21
373.2911630379
 31
0.0
  0
LINE
  5
BB
330
67
100
AcDbEntity
  8
DV1_Default
  6
Continuous
 62
     7
 48
25.4
100
AcDbLine
 10
227.375355278
 20
365.2911630379
 30
0.0
 11
218.575355278
 21
365.2911630379
 31
0.0
  0
LINE
  5
BC
330
67
100
AcDbEntity
  8
DV1_Default
  6
Continuous
 62
     7
 48
25.4
100
AcDbLine
 10
218.575355278
 20
372.8911630379
 30
0.0
 11
219.375355278
 21
372.8911630379
 31
0.0
  0
LINE
  5
BD
330
67
100
AcDbEntity
  8
DV1_Default
  6
Continuous
 62
     7
 48
25.4
100
AcDbLine
 10
219.375355278
 20
365.6911630379
 30
0.0
 11
218.575355278
 21
365.6911630379
 31
0.0
  0
LINE
  5
BE
330
67
100
AcDbEntity
  8
DV1_Default
  6
Continuous
 62
     7
 48
25.4
100
AcDbLine
 10
219.375355278
 20
372.8911630379
 30
0.0
 11
219.375355278
 21
365.6911630379
 31
0.0
  0
LINE
  5
BF
330
67
100
AcDbEntity
  8
DV1_Default
  6
Continuous
 62
     7
 48
25.4
100
AcDbLine
 10
227.375355278
 20
374.8911630379
 30
0.0
 11
234.975355278
 21
374.8911630379
 31
0.0
  0
LINE
  5
C0
330
67
100
AcDbEntity
  8
DV1_Default
  6
Continuous
 62
     7
 48
25.4
100
AcDbLine
 10
235.375355278
 20
374.4911630379
 30
0.0
 11
235.375355278
 21
364.0911630379
 31
0.0
  0
LINE
  5
C1
330
67
100
AcDbEntity
  8
DV1_Default
  6
Continuous
 62
     7
 48
25.4
100
AcDbLine
 10
234.975355278
 20
363.6911630379
 30
0.0
 11
227.375355278
 21
363.6911630379
 31
0.0
  0
LINE
  5
C2
330
67
100
AcDbEntity
  8
DV1_Default
  6
Continuous
 62
     7
 48
25.4
100
AcDbLine
 10
234.975355278
 20
374.8911630379
 30
0.0
 11
235.375355278
 21
374.4911630379
 31
0.0
  0
LINE
  5
C3
330
67
100
AcDbEntity
  8
DV1_Default
  6
Continuous
 62
     7
 48
25.4
100
AcDbLine
 10
234.975355278
 20
363.6911630379
 30
0.0
 11
235.375355278
 21
364.0911630379
 31
0.0
  0
LINE
  5
C4
330
67
100
AcDbEntity
  8
DV1_Default
  6
Continuous
 62
     7
 48
25.4
100
AcDbLine
 10
234.975355278
 20
374.8911630379
 30
0.0
 11
234.975355278
 21
363.6911630379
 31
0.0
  0
LINE
  5
C5
330
67
100
AcDbEntity
  8
DV1_Default
  6
Continuous
 62
     7
 48
25.4
100
AcDbLine
 10
218.575355278
 20
373.2911630379
 30
0.0
 11
218.575355278
 21
384.0911630379
 31
0.0
  0
LINE
  5
C6
330
67
100
AcDbEntity
  8
DV1_Default
  6
Continuous
 62
     7
 48
25.4
100
AcDbLine
 10
218.575355278
 20
373.6911630379
 30
0.0
 11
227.375355278
 21
373.6911630379
 31
0.0
  0
LINE
  5
C7
330
67
100
AcDbEntity
  8
DV1_Default
  6
Continuous
 62
     7
 48
25.4
100
AcDbLine
 10
218.575355278
 20
372.8911630379
 30
0.0
 11
218.141040703
 21
372.8911630379
 31
0.0
  0
LINE
  5
C8
330
67
100
AcDbEntity
  8
DV1_Default
  6
Continuous
 62
     7
 48
25.4
100
AcDbLine
 10
218.575355278
 20
365.6911630379
 30
0.0
 11
218.141040703
 21
365.6911630379
 31
0.0
  0
LINE
  5
C9
330
67
100
AcDbEntity
  8
DV1_Default
  6
Continuous
 62
     7
 48
25.4
100
AcDbLine
 10
218.575355278
 20
364.8911630379
 30
0.0
 11
227.375355278
 21
364.8911630379
 31
0.0
  0
LINE
  5
CA
330
67
100
AcDbEntity
  8
DV1_Default
  6
Continuous
 62
     7
 48
25.4
100
AcDbLine
 10
241.775355278
 20
346.0911630379
 30
0.0
 11
227.375355278
 21
346.0911630379
 31
0.0
  0
LINE
  5
CB
330
67
100
AcDbEntity
  8
DV1_Default
  6
Continuous
 62
     7
 48
25.4
100
AcDbLine
 10
227.375355278
 20
346.0911630379
 30
0.0
 11
227.375355278
 21
358.0911630379
 31
0.0
  0
LINE
  5
CC
330
67
100
AcDbEntity
  8
DV1_Default
  6
Continuous
 62
     7
 48
25.4
100
AcDbLine
 10
227.375355278
 20
358.0911630379
 30
0.0
 11
241.775355278
 21
358.0911630379
 31
0.0
  0
LINE
  5
CD
330
67
100
AcDbEntity
  8
DV1_Default
  6
Continuous
 62
     7
 48
25.4
100
AcDbLine
 10
227.375355278
 20
348.0911630379
 30
0.0
 11
218.575355278
 21
348.0911630379
 31
0.0
  0
LINE
  5
CE
330
67
100
AcDbEntity
  8
DV1_Default
  6
Continuous
 62
     7
 48
25.4
100
AcDbLine
 10
227.375355278
 20
356.0911630379
 30
0.0
 11
218.575355278
 21
356.0911630379
 31
0.0
  0
LINE
  5
CF
330
67
100
AcDbEntity
  8
DV1_Default
  6
Continuous
 62
     7
 48
25.4
100
AcDbLine
 10
218.575355278
 20
348.4911630379
 30
0.0
 11
219.375355278
 21
348.4911630379
 31
0.0
  0
LINE
  5
D0
330
67
100
AcDbEntity
  8
DV1_Default
  6
Continuous
 62
     7
 48
25.4
100
AcDbLine
 10
219.375355278
 20
355.6911630379
 30
0.0
 11
218.575355278
 21
355.6911630379
 31
0.0
  0
LINE
  5
D1
330
67
100
AcDbEntity
  8
DV1_Default
  6
Continuous
 62
     7
 48
25.4
100
AcDbLine
 10
219.375355278
 20
348.4911630379
 30
0.0
 11
219.375355278
 21
355.6911630379
 31
0.0
  0
LINE
  5
D2
330
67
100
AcDbEntity
  8
DV1_Default
  6
Continuous
 62
     7
 48
25.4
100
AcDbLine
 10
227.375355278
 20
352.0911630379
 30
0.0
 11
227.375355278
 21
346.4911630379
 31
0.0
  0
LINE
  5
D3
330
67
100
AcDbEntity
  8
DV1_Default
  6
Continuous
 62
     7
 48
25.4
100
AcDbLine
 10
227.375355278
 20
346.4911630379
 30
0.0
 11
234.975355278
 21
346.4911630379
 31
0.0
  0
LINE
  5
D4
330
67
100
AcDbEntity
  8
DV1_Default
  6
Continuous
 62
     7
 48
25.4
100
AcDbLine
 10
235.375355278
 20
346.8911630379
 30
0.0
 11
235.375355278
 21
357.2911630379
 31
0.0
  0
LINE
  5
D5
330
67
100
AcDbEntity
  8
DV1_Default
  6
Continuous
 62
     7
 48
25.4
100
AcDbLine
 10
234.975355278
 20
357.6911630379
 30
0.0
 11
227.375355278
 21
357.6911630379
 31
0.0
  0
LINE
  5
D6
330
67
100
AcDbEntity
  8
DV1_Default
  6
Continuous
 62
     7
 48
25.4
100
AcDbLine
 10
234.975355278
 20
346.4911630379
 30
0.0
 11
235.375355278
 21
346.8911630379
 31
0.0
  0
LINE
  5
D7
330
67
100
AcDbEntity
  8
DV1_Default
  6
Continuous
 62
     7
 48
25.4
100
AcDbLine
 10
234.975355278
 20
357.6911630379
 30
0.0
 11
235.375355278
 21
357.2911630379
 31
0.0
  0
LINE
  5
D8
330
67
100
AcDbEntity
  8
DV1_Default
  6
Continuous
 62
     7
 48
25.4
100
AcDbLine
 10
234.975355278
 20
346.4911630379
 30
0.0
 11
234.975355278
 21
357.6911630379
 31
0.0
  0
LINE
  5
D9
330
67
100
AcDbEntity
  8
DV1_Default
  6
Continuous
 62
     7
 48
25.4
100
AcDbLine
 10
218.575355278
 20
347.6911630379
 30
0.0
 11
227.375355278
 21
347.6911630379
 31
0.0
  0
LINE
  5
DA
330
67
100
AcDbEntity
  8
DV1_Default
  6
Continuous
 62
     7
 48
25.4
100
AcDbLine
 10
218.575355278
 20
348.4911630379
 30
0.0
 11
218.141040703
 21
348.4911630379
 31
0.0
  0
LINE
  5
DB
330
67
100
AcDbEntity
  8
DV1_Default
  6
Continuous
 62
     7
 48
25.4
100
AcDbLine
 10
218.575355278
 20
355.6911630379
 30
0.0
 11
218.141040703
 21
355.6911630379
 31
0.0
  0
LINE
  5
DC
330
67
100
AcDbEntity
  8
DV1_Default
  6
Continuous
 62
     7
 48
25.4
100
AcDbLine
 10
218.575355278
 20
356.4911630379
 30
0.0
 11
227.375355278
 21
356.4911630379
 31
0.0
  0
LINE
  5
DD
330
67
100
AcDbEntity
  8
DV1_Default
  6
Continuous
 62
     7
 48
25.4
100
AcDbLine
 10
218.575355278
 20
356.0911630379
 30
0.0
 11
218.575355278
 21
365.2911630379
 31
0.0
  0
LINE
  5
DE
330
67
100
AcDbEntity
  8
DV1_Default
  6
Continuous
 62
     7
 48
25.4
100
AcDbLine
 10
209.775355278
 20
318.6539053514
 30
0.0
 11
209.775355278
 21
326.7539053514
 31
0.0
  0
LINE
  5
DF
330
67
100
AcDbEntity
  8
DV1_Default
  6
Continuous
 62
     7
 48
25.4
100
AcDbLine
 10
209.775355278
 20
326.7539053514
 30
0.0
 11
215.375355278
 21
326.7539053514
 31
0.0
  0
LINE
  5
E0
330
67
100
AcDbEntity
  8
DV1_Default
  6
Continuous
 62
     7
 48
25.4
100
AcDbLine
 10
162.975355278
 20
242.3539053514
 30
0.0
 11
202.975355278
 21
242.3539053514
 31
0.0
  0
LINE
  5
E1
330
67
100
AcDbEntity
  8
DV1_Default
  6
Continuous
 62
     7
 48
25.4
100
AcDbLine
 10
241.775355278
 20
384.0911630379
 30
0.0
 11
241.775355278
 21
318.0911630379
 31
0.0
  0
LINE
  5
E2
330
67
100
AcDbEntity
  8
DV1_Default
  6
Continuous
 62
     7
 48
25.4
100
AcDbLine
 10
215.775355278
 20
318.0911630379
 30
0.0
 11
215.375355278
 21
318.4911630379
 31
0.0
  0
LINE
  5
E3
330
67
100
AcDbEntity
  8
DV1_Default
  6
Continuous
 62
     7
 48
25.4
100
AcDbLine
 10
215.775355278
 20
318.0911630379
 30
0.0
 11
241.775355278
 21
318.0911630379
 31
0.0
  0
LINE
  5
E4
330
67
100
AcDbEntity
  8
DV1_Default
  6
Continuous
 62
     7
 48
25.4
100
AcDbLine
 10
154.175355278
 20
251.1539053514
 30
0.0
 11
202.975355278
 21
251.1539053514
 31
0.0
  0
LINE
  5
E5
330
67
100
AcDbEntity
  8
DV1_Default
  6
Continuous
 62
     7
 48
25.4
100
AcDbLine
 10
182.9916741457
 20
319.9539053514
 30
0.0
 11
182.9916741457
 21
319.1539053514
 31
0.0
  0
LINE
  5
E6
330
67
100
AcDbEntity
  8
DV1_Default
  6
Continuous
 62
     7
 48
25.4
100
AcDbLine
 10
184.5916741457
 20
320.8531641569
 30
0.0
 11
184.9916741457
 21
320.8531641569
 31
0.0
  0
LINE
  5
E7
330
67
100
AcDbEntity
  8
DV1_Default
  6
Continuous
 62
     7
 48
25.4
100
AcDbLine
 10
184.9916741457
 20
320.8531641569
 30
0.0
 11
184.9916741457
 21
318.2539053514
 31
0.0
  0
LINE
  5
E8
330
67
100
AcDbEntity
  8
DV1_Default
  6
Continuous
 62
     7
 48
25.4
100
AcDbLine
 10
184.9916741457
 20
318.2539053514
 30
0.0
 11
185.7916741457
 21
317.4539053514
 31
0.0
  0
LINE
  5
E9
330
67
100
AcDbEntity
  8
DV1_Default
  6
Continuous
 62
     7
 48
25.4
100
AcDbLine
 10
168.175355278
 20
266.1539053514
 30
0.0
 11
178.9916741457
 21
266.1539053514
 31
0.0
  0
LINE
  5
EA
330
67
100
AcDbEntity
  8
DV1_Default
  6
Continuous
 62
     7
 48
25.4
100
AcDbLine
 10
168.175355278
 20
321.7539053514
 30
0.0
 11
178.9916741457
 21
321.7539053514
 31
0.0
  0
LINE
  5
EB
330
67
100
AcDbEntity
  8
DV1_Default
  6
Continuous
 62
     7
 48
25.4
100
AcDbLine
 10
180.5916741457
 20
319.9539053514
 30
0.0
 11
167.375355278
 21
319.9539053514
 31
0.0
  0
LINE
  5
EC
330
67
100
AcDbEntity
  8
DV1_Default
  6
Continuous
 62
     7
 48
25.4
100
AcDbLine
 10
167.375355278
 20
319.1539053514
 30
0.0
 11
180.5916741457
 21
319.1539053514
 31
0.0
  0
LINE
  5
ED
330
67
100
AcDbEntity
  8
DV1_Default
  6
Continuous
 62
     7
 48
25.4
100
AcDbLine
 10
167.375355278
 20
266.9539053514
 30
0.0
 11
167.375355278
 21
320.9539053514
 31
0.0
  0
LINE
  5
EE
330
67
100
AcDbEntity
  8
DV1_Default
  6
Continuous
 62
     7
 48
25.4
100
AcDbLine
 10
167.375355278
 20
266.9539053514
 30
0.0
 11
168.175355278
 21
266.1539053514
 31
0.0
  0
LINE
  5
EF
330
67
100
AcDbEntity
  8
DV1_Default
  6
Continuous
 62
     7
 48
25.4
100
AcDbLine
 10
167.375355278
 20
320.9539053514
 30
0.0
 11
168.175355278
 21
321.7539053514
 31
0.0
  0
LINE
  5
F0
330
67
100
AcDbEntity
  8
DV1_Default
  6
Continuous
 62
     7
 48
25.4
100
AcDbLine
 10
167.375355278
 20
305.9539053514
 30
0.0
 11
180.5916741457
 21
305.9539053514
 31
0.0
  0
LINE
  5
F1
330
67
100
AcDbEntity
  8
DV1_Default
  6
Continuous
 62
     7
 48
25.4
100
AcDbLine
 10
167.375355278
 20
281.9539053514
 30
0.0
 11
180.5916741457
 21
281.9539053514
 31
0.0
  0
LINE
  5
F2
330
67
100
AcDbEntity
  8
DV1_Default
  6
Continuous
 62
     7
 48
25.4
100
AcDbLine
 10
167.375355278
 20
268.7539053514
 30
0.0
 11
180.5916741457
 21
268.7539053514
 31
0.0
  0
LINE
  5
F3
330
67
100
AcDbEntity
  8
DV1_Default
  6
Continuous
 62
     7
 48
25.4
100
AcDbLine
 10
154.175355278
 20
251.1539053514
 30
0.0
 11
143.575355278
 21
251.1539053514
 31
0.0
  0
LINE
  5
F4
330
67
100
AcDbEntity
  8
DV1_Default
  6
Continuous
 62
     7
 48
25.4
100
AcDbLine
 10
142.975355278
 20
250.5539053514
 30
0.0
 11
142.975355278
 21
243.3539053514
 31
0.0
  0
LINE
  5
F5
330
67
100
AcDbEntity
  8
DV1_Default
  6
Continuous
 62
     7
 48
25.4
100
AcDbLine
 10
143.575355278
 20
242.7539053514
 30
0.0
 11
154.175355278
 21
242.7539053514
 31
0.0
  0
LINE
  5
F6
330
67
100
AcDbEntity
  8
DV1_Default
  6
Continuous
 62
     7
 48
25.4
100
AcDbLine
 10
154.175355278
 20
243.2538906822
 30
0.0
 11
143.0753699473
 21
243.2538906822
 31
0.0
  0
LINE
  5
F7
330
67
100
AcDbEntity
  8
DV1_Default
  6
Continuous
 62
     7
 48
25.4
100
AcDbLine
 10
154.175355278
 20
250.7539053514
 30
0.0
 11
143.175355278
 21
250.7539053514
 31
0.0
  0
LINE
  5
F8
330
67
100
AcDbEntity
  8
DV1_Default
  6
Continuous
 62
     7
 48
25.4
100
AcDbLine
 10
142.975355278
 20
243.3539053514
 30
0.0
 11
143.575355278
 21
242.7539053514
 31
0.0
  0
LINE
  5
F9
330
67
100
AcDbEntity
  8
DV1_Default
  6
Continuous
 62
     7
 48
25.4
100
AcDbLine
 10
142.975355278
 20
250.5539053514
 30
0.0
 11
143.575355278
 21
251.1539053514
 31
0.0
  0
LINE
  5
FA
330
67
100
AcDbEntity
  8
DV1_Default
  6
Continuous
 62
     7
 48
25.4
100
AcDbLine
 10
143.575355278
 20
251.1539053514
 30
0.0
 11
143.575355278
 21
242.7539053514
 31
0.0
  0
LINE
  5
FB
330
67
100
AcDbEntity
  8
DV1_Default
  6
Continuous
 62
     7
 48
25.4
100
AcDbLine
 10
210.975355278
 20
241.5539053514
 30
0.0
 11
210.375355278
 21
240.9539053514
 31
0.0
  0
LINE
  5
FC
330
67
100
AcDbEntity
  8
DV1_Default
  6
Continuous
 62
     7
 48
25.4
100
AcDbLine
 10
210.375355278
 20
252.9539053514
 30
0.0
 11
210.975355278
 21
252.3539053514
 31
0.0
  0
LINE
  5
FD
330
67
100
AcDbEntity
  8
DV1_Default
  6
Continuous
 62
     7
 48
25.4
100
AcDbLine
 10
210.375355278
 20
252.9539053514
 30
0.0
 11
210.375355278
 21
240.9539053514
 31
0.0
  0
LINE
  5
FE
330
67
100
AcDbEntity
  8
DV1_Default
  6
Continuous
 62
     7
 48
25.4
100
AcDbLine
 10
154.175355278
 20
333.3277053514
 30
0.0
 11
160.5932445141
 21
332.5396876397
 31
0.0
  0
LINE
  5
FF
330
67
100
AcDbEntity
  8
DV1_Default
  6
Continuous
 62
     7
 48
25.4
100
AcDbLine
 10
160.5932445141
 20
332.5396876397
 30
0.0
 11
162.975355278
 21
332.5396876397
 31
0.0
  0
LINE
  5
100
330
67
100
AcDbEntity
  8
DV1_Default
  6
Continuous
 62
     7
 48
25.4
100
AcDbLine
 10
154.175355278
 20
254.5801053514
 30
0.0
 11
160.5932445141
 21
255.3681230632
 31
0.0
  0
LINE
  5
101
330
67
100
AcDbEntity
  8
DV1_Default
  6
Continuous
 62
     7
 48
25.4
100
AcDbLine
 10
160.5932445141
 20
255.3681230632
 30
0.0
 11
162.975355278
 21
255.3681230632
 31
0.0
  0
LINE
  5
102
330
67
100
AcDbEntity
  8
DV1_Default
  6
Continuous
 62
     7
 48
25.4
100
AcDbLine
 10
162.975355278
 20
254.1539053514
 30
0.0
 11
191.5179815265
 21
254.1539053514
 31
0.0
  0
LINE
  5
103
330
67
100
AcDbEntity
  8
DV1_Default
  6
Continuous
 62
     7
 48
25.4
100
AcDbLine
 10
167.375355278
 20
319.9539053514
 30
0.0
 11
180.5916741457
 21
319.9539053514
 31
0.0
  0
LINE
  5
104
330
67
100
AcDbEntity
  8
DV1_Default
  6
Continuous
 62
     7
 48
25.4
100
AcDbLine
 10
182.9916741457
 20
319.9539053514
 30
0.0
 11
182.9916741457
 21
319.1539053514
 31
0.0
  0
LINE
  5
105
330
67
100
AcDbEntity
  8
DV1_Default
  6
Continuous
 62
     7
 48
25.4
100
AcDbLine
 10
182.9916741457
 20
319.9539053514
 30
0.0
 11
180.5916741457
 21
319.9539053514
 31
0.0
  0
LINE
  5
106
330
67
100
AcDbEntity
  8
DV1_Default
  6
Continuous
 62
     7
 48
25.4
100
AcDbLine
 10
184.5916741457
 20
320.8531641569
 30
0.0
 11
184.9916741457
 21
320.8531641569
 31
0.0
  0
LINE
  5
107
330
67
100
AcDbEntity
  8
DV1_Default
  6
Continuous
 62
     7
 48
25.4
100
AcDbLine
 10
184.9916741457
 20
320.8531641569
 30
0.0
 11
184.9916741457
 21
318.2539053514
 31
0.0
  0
LINE
  5
108
330
67
100
AcDbEntity
  8
DV1_Default
  6
Continuous
 62
     7
 48
25.4
100
AcDbLine
 10
184.9916741457
 20
318.2539053514
 30
0.0
 11
185.7916741457
 21
317.4539053514
 31
0.0
  0
LINE
  5
109
330
67
100
AcDbEntity
  8
DV1_Default
  6
Continuous
 62
     7
 48
25.4
100
AcDbLine
 10
167.375355278
 20
320.9539053514
 30
0.0
 11
168.175355278
 21
321.7539053514
 31
0.0
  0
LINE
  5
10A
330
67
100
AcDbEntity
  8
DV1_Default
  6
Continuous
 62
     7
 48
25.4
100
AcDbLine
 10
167.375355278
 20
319.1539053514
 30
0.0
 11
180.5916741457
 21
319.1539053514
 31
0.0
  0
LINE
  5
10B
330
67
100
AcDbEntity
  8
DV1_Default
  6
Continuous
 62
     7
 48
25.4
100
AcDbLine
 10
160.5932445141
 20
332.5396876397
 30
0.0
 11
160.5932445141
 21
255.3681230632
 31
0.0
  0
LINE
  5
10C
330
67
100
AcDbEntity
  8
DV1_Default
  6
Continuous
 62
     7
 48
25.4
100
AcDbLine
 10
154.175355278
 20
361.5539053514
 30
0.0
 11
158.575355278
 21
361.5539053514
 31
0.0
  0
LINE
  5
10D
330
67
100
AcDbEntity
  8
DV1_Default
  6
Continuous
 62
     7
 48
25.4
100
AcDbLine
 10
158.575355278
 20
361.5539053514
 30
0.0
 11
158.575355278
 21
354.3539053514
 31
0.0
  0
LINE
  5
10E
330
67
100
AcDbEntity
  8
DV1_Default
  6
Continuous
 62
     7
 48
25.4
100
AcDbLine
 10
158.575355278
 20
354.3539053514
 30
0.0
 11
154.175355278
 21
354.3539053514
 31
0.0
  0
LINE
  5
10F
330
67
100
AcDbEntity
  8
DV1_Default
  6
Continuous
 62
     7
 48
25.4
100
AcDbLine
 10
154.575355278
 20
361.1539053514
 30
0.0
 11
158.575355278
 21
361.1539053514
 31
0.0
  0
LINE
  5
110
330
67
100
AcDbEntity
  8
DV1_Default
  6
Continuous
 62
     7
 48
25.4
100
AcDbLine
 10
158.575355278
 20
361.1539053514
 30
0.0
 11
158.575355278
 21
354.7539053514
 31
0.0
  0
LINE
  5
111
330
67
100
AcDbEntity
  8
DV1_Default
  6
Continuous
 62
     7
 48
25.4
100
AcDbLine
 10
158.575355278
 20
354.7539053514
 30
0.0
 11
154.575355278
 21
354.7539053514
 31
0.0
  0
LINE
  5
112
330
67
100
AcDbEntity
  8
DV1_Default
  6
Continuous
 62
     7
 48
25.4
100
AcDbLine
 10
154.575355278
 20
354.7539053514
 30
0.0
 11
154.575355278
 21
361.1539053514
 31
0.0
  0
LINE
  5
113
330
67
100
AcDbEntity
  8
DV1_Default
  6
CENTER2
 62
     7
 48
25.4
100
AcDbLine
 10
173.8284725746
 20
357.9539053514
 30
0.0
 11
149.274114938
 21
357.9539053514
 31
0.0
  0
LINE
  5
114
330
67
100
AcDbEntity
  8
DV1_Default
  6
Continuous
 62
     7
 48
25.4
100
AcDbLine
 10
158.575355278
 20
359.9539053514
 30
0.0
 11
162.975355278
 21
359.9539053514
 31
0.0
  0
LINE
  5
115
330
67
100
AcDbEntity
  8
DV1_Default
  6
Continuous
 62
     7
 48
25.4
100
AcDbLine
 10
158.575355278
 20
359.9539053514
 30
0.0
 11
158.575355278
 21
355.9539053514
 31
0.0
  0
LINE
  5
116
330
67
100
AcDbEntity
  8
DV1_Default
  6
Continuous
 62
     7
 48
25.4
100
AcDbLine
 10
158.575355278
 20
355.9539053514
 30
0.0
 11
170.575355278
 21
355.9539053514
 31
0.0
  0
LINE
  5
117
330
67
100
AcDbEntity
  8
DV1_Default
  6
Continuous
 62
     7
 48
25.4
100
AcDbLine
 10
170.575355278
 20
355.9539053514
 30
0.0
 11
170.575355278
 21
359.9539053514
 31
0.0
  0
LINE
  5
118
330
67
100
AcDbEntity
  8
DV1_Default
  6
Continuous
 62
     7
 48
25.4
100
AcDbLine
 10
170.575355278
 20
359.9539053514
 30
0.0
 11
162.975355278
 21
359.9539053514
 31
0.0
  0
LINE
  5
119
330
67
100
AcDbEntity
  8
DV1_Default
  6
Continuous
 62
     7
 48
25.4
100
AcDbLine
 10
158.575355278
 20
359.9539053514
 30
0.0
 11
158.575355278
 21
359.5539053514
 31
0.0
  0
LINE
  5
11A
330
67
100
AcDbEntity
  8
DV1_Default
  6
Continuous
 62
     7
 48
25.4
100
AcDbLine
 10
158.575355278
 20
359.5539053514
 30
0.0
 11
170.575355278
 21
359.5539053514
 31
0.0
  0
LINE
  5
11B
330
67
100
AcDbEntity
  8
DV1_Default
  6
Continuous
 62
     7
 48
25.4
100
AcDbLine
 10
170.575355278
 20
355.9539053514
 30
0.0
 11
170.575355278
 21
356.3539053514
 31
0.0
  0
LINE
  5
11C
330
67
100
AcDbEntity
  8
DV1_Default
  6
Continuous
 62
     7
 48
25.4
100
AcDbLine
 10
170.575355278
 20
356.3539053514
 30
0.0
 11
158.575355278
 21
356.3539053514
 31
0.0
  0
LINE
  5
11D
330
67
100
AcDbEntity
  8
DV1_Default
  6
Continuous
 62
     7
 48
25.4
100
AcDbLine
 10
184.9916741457
 20
318.6539053514
 30
0.0
 11
209.775355278
 21
318.6539053514
 31
0.0
  0
LINE
  5
11E
330
67
100
AcDbEntity
  8
DV1_Default
  6
Continuous
 62
     7
 48
25.4
100
AcDbLine
 10
209.775355278
 20
269.2539053514
 30
0.0
 11
184.9916741457
 21
269.2539053514
 31
0.0
  0
LINE
  5
11F
330
67
100
AcDbEntity
  8
DV1_Default
  6
Continuous
 62
     7
 48
25.4
100
AcDbLine
 10
185.7916741457
 20
317.4539053514
 30
0.0
 11
213.775355278
 21
317.4539053514
 31
0.0
  0
LINE
  5
120
330
67
100
AcDbEntity
  8
DV1_Default
  6
Continuous
 62
     7
 48
25.4
100
AcDbLine
 10
185.7916741457
 20
270.4539053514
 30
0.0
 11
213.775355278
 21
270.4539053514
 31
0.0
  0
LINE
  5
121
330
67
100
AcDbEntity
  8
DV1_Default
  6
Continuous
 62
     7
 48
25.4
100
AcDbLine
 10
172.175355278
 20
254.1539053514
 30
0.0
 11
172.175355278
 21
266.1539053514
 31
0.0
  0
LINE
  5
122
330
67
100
AcDbEntity
  8
DV1_Default
  6
Continuous
 62
     7
 48
25.4
100
AcDbLine
 10
162.975355278
 20
333.7539053514
 30
0.0
 11
191.5179815265
 21
333.7539053514
 31
0.0
  0
LINE
  5
123
330
67
100
AcDbEntity
  8
DV1_Default
  6
Continuous
 62
     7
 48
25.4
100
AcDbLine
 10
172.175355278
 20
333.7539053514
 30
0.0
 11
172.175355278
 21
321.7539053514
 31
0.0
  0
LINE
  5
124
330
67
100
AcDbEntity
  8
DV1_Default
  6
Continuous
 62
     7
 48
25.4
100
AcDbLine
 10
212.975355278
 20
203.9539053514
 30
0.0
 11
161.3932445141
 21
203.9539053514
 31
0.0
  0
LINE
  5
125
330
67
100
AcDbEntity
  8
DV1_Default
  6
Continuous
 62
     7
 48
25.4
100
AcDbLine
 10
160.5932445141
 20
204.7539053514
 30
0.0
 11
160.5932445141
 21
217.9539053514
 31
0.0
  0
LINE
  5
126
330
67
100
AcDbEntity
  8
DV1_Default
  6
Continuous
 62
     7
 48
25.4
100
AcDbLine
 10
213.775355278
 20
293.9539053514
 30
0.0
 11
213.775355278
 21
204.7539053514
 31
0.0
  0
LINE
  5
127
330
67
100
AcDbEntity
  8
DV1_Default
  6
Continuous
 62
     7
 48
25.4
100
AcDbLine
 10
160.5932445141
 20
204.7539053514
 30
0.0
 11
161.3932445141
 21
203.9539053514
 31
0.0
  0
LINE
  5
128
330
67
100
AcDbEntity
  8
DV1_Default
  6
Continuous
 62
     7
 48
25.4
100
AcDbLine
 10
212.975355278
 20
203.9539053514
 30
0.0
 11
213.775355278
 21
204.7539053514
 31
0.0
  0
LINE
  5
129
330
67
100
AcDbEntity
  8
DV1_Default
  6
Continuous
 62
     7
 48
25.4
100
AcDbLine
 10
213.775355278
 20
293.9539053514
 30
0.0
 11
213.775355278
 21
326.7539053514
 31
0.0
  0
LINE
  5
12B
330
67
100
AcDbEntity
  8
DV1_Default
  6
HIDDEN2
 62
     7
 48
25.4
100
AcDbLine
 10
213.775355278
 20
326.7539053514
 30
0.0
 11
213.775355278
 21
383.1539053514
 31
0.0
  0
LINE
  5
12C
330
67
100
AcDbEntity
  8
DV1_Default
  6
Continuous
 62
     7
 48
25.4
100
AcDbLine
 10
212.975355278
 20
383.9539053514
 30
0.0
 11
161.3932445141
 21
383.9539053514
 31
0.0
  0
LINE
  5
12D
330
67
100
AcDbEntity
  8
DV1_Default
  6
Continuous
 62
     7
 48
25.4
100
AcDbLine
 10
160.5932445141
 20
369.9539053514
 30
0.0
 11
160.5932445141
 21
383.1539053514
 31
0.0
  0
LINE
  5
12E
330
67
100
AcDbEntity
  8
DV1_Default
  6
Continuous
 62
     7
 48
25.4
100
AcDbLine
 10
154.575355278
 20
217.9539053514
 30
0.0
 11
162.575355278
 21
217.9539053514
 31
0.0
  0
LINE
  5
12F
330
67
100
AcDbEntity
  8
DV1_Default
  6
Continuous
 62
     7
 48
25.4
100
AcDbLine
 10
154.175355278
 20
218.3539053514
 30
0.0
 11
154.175355278
 21
293.9539053514
 31
0.0
  0
LINE
  5
130
330
67
100
AcDbEntity
  8
DV1_Default
  6
Continuous
 62
     7
 48
25.4
100
AcDbLine
 10
162.975355278
 20
218.3539053514
 30
0.0
 11
162.975355278
 21
242.3539053514
 31
0.0
  0
LINE
  5
131
330
67
100
AcDbEntity
  8
DV1_Default
  6
Continuous
 62
     7
 48
25.4
100
AcDbLine
 10
154.175355278
 20
293.9539053514
 30
0.0
 11
154.175355278
 21
369.5539053514
 31
0.0
  0
LINE
  5
132
330
67
100
AcDbEntity
  8
DV1_Default
  6
Continuous
 62
     7
 48
25.4
100
AcDbLine
 10
154.575355278
 20
369.9539053514
 30
0.0
 11
162.575355278
 21
369.9539053514
 31
0.0
  0
LINE
  5
133
330
67
100
AcDbEntity
  8
DV1_Default
  6
Continuous
 62
     7
 48
25.4
100
AcDbLine
 10
160.5932445141
 20
383.1539053514
 30
0.0
 11
161.3932445141
 21
383.9539053514
 31
0.0
  0
LINE
  5
134
330
67
100
AcDbEntity
  8
DV1_Default
  6
Continuous
 62
     7
 48
25.4
100
AcDbLine
 10
212.975355278
 20
383.9539053514
 30
0.0
 11
213.775355278
 21
383.1539053514
 31
0.0
  0
LINE
  5
135
330
67
100
AcDbEntity
  8
DV1_Default
  6
Continuous
 62
     7
 48
25.4
100
AcDbLine
 10
154.175355278
 20
369.5539053514
 30
0.0
 11
154.575355278
 21
369.9539053514
 31
0.0
  0
LINE
  5
136
330
67
100
AcDbEntity
  8
DV1_Default
  6
Continuous
 62
     7
 48
25.4
100
AcDbLine
 10
162.975355278
 20
369.5539053514
 30
0.0
 11
162.575355278
 21
369.9539053514
 31
0.0
  0
LINE
  5
137
330
67
100
AcDbEntity
  8
DV1_Default
  6
Continuous
 62
     7
 48
25.4
100
AcDbLine
 10
154.575355278
 20
217.9539053514
 30
0.0
 11
154.175355278
 21
218.3539053514
 31
0.0
  0
LINE
  5
138
330
67
100
AcDbEntity
  8
DV1_Default
  6
Continuous
 62
     7
 48
25.4
100
AcDbLine
 10
162.975355278
 20
218.3539053514
 30
0.0
 11
162.575355278
 21
217.9539053514
 31
0.0
  0
LINE
  5
139
330
67
100
AcDbEntity
  8
DV1_Default
  6
Continuous
 62
     7
 48
25.4
100
AcDbLine
 10
162.975355278
 20
369.5539053514
 30
0.0
 11
162.975355278
 21
293.9539053514
 31
0.0
  0
LINE
  5
13A
330
67
100
AcDbEntity
  8
DV1_Default
  6
Continuous
 62
     7
 48
25.4
100
AcDbLine
 10
215.375355278
 20
326.7539053514
 30
0.0
 11
215.941040703
 21
327.3195907764
 31
0.0
  0
LINE
  5
13B
330
67
100
AcDbEntity
  8
DV1_Default
  6
CENTER2
 62
     7
 48
25.4
100
AcDbLine
 10
210.2526833932
 20
369.2911630379
 30
0.0
 11
247.5397937234
 21
369.2911630379
 31
0.0
  0
LINE
  5
13C
330
67
100
AcDbEntity
  8
DV1_Default
  6
CENTER2
 62
     7
 48
25.4
100
AcDbLine
 10
211.1661987316
 20
352.0911630379
 30
0.0
 11
247.8876845233
 21
352.0911630379
 31
0.0
  0
ENDBLK
  5
13E
330
67
100
AcDbEntity
  8
0
100
AcDbBlockEnd
  0
BLOCK
  5
1E0
330
13F
100
AcDbEntity
  8
0
100
AcDbBlockBegin
  2
SE1
 70
     0
 71
     0
 10
0.0
 20
0.0
 30
0.0
  3
SE1
  1

  0
LINE
  5
142
330
13F
100
AcDbEntity
  8
DV2_Default
  6
Continuous
 62
     7
 48
25.4
100
AcDbLine
 10
409.4958819805
 20
132.3164649913
 30
0.0
 11
289.4958819805
 21
132.3164649913
 31
0.0
  0
LINE
  5
143
330
13F
100
AcDbEntity
  8
DV2_Default
  6
Continuous
 62
     7
 48
25.4
100
AcDbLine
 10
409.4958819805
 20
132.3164649913
 30
0.0
 11
409.4958819805
 21
40.5164649913
 31
0.0
  0
LINE
  5
144
330
13F
100
AcDbEntity
  8
DV2_Default
  6
Continuous
 62
     7
 48
25.4
100
AcDbLine
 10
409.4958819805
 20
40.5164649913
 30
0.0
 11
289.4958819805
 21
40.5164649913
 31
0.0
  0
LINE
  5
145
330
13F
100
AcDbEntity
  8
DV2_Default
  6
Continuous
 62
     7
 48
25.4
100
AcDbLine
 10
289.4958819805
 20
40.5164649913
 30
0.0
 11
289.4958819805
 21
132.3164649913
 31
0.0
  0
TEXT
  5
146
330
13F
100
AcDbEntity
  8
DV2_Default
  6
Continuous
 62
     7
 48
25.4
100
AcDbText
 10
288.090146723
 20
35.6987804843
 30
0.0
 40
3.0
  1
0
  7
SEACAD_arial_ttf
 11
288.090146723
 21
38.6987804843
 31
0.0
100
AcDbText
 73
     3
  0
TEXT
  5
147
330
13F
100
AcDbEntity
  8
DV2_Default
  6
Continuous
 62
     7
 48
25.4
100
AcDbText
 10
344.9858773174
 20
35.5686608805
 30
0.0
 40
3.0
  1
1000
  7
SEACAD_arial_ttf
 11
344.9858773174
 21
38.5686608805
 31
0.0
100
AcDbText
 73
     3
  0
TEXT
  5
148
330
13F
100
AcDbEntity
  8
DV2_Default
  6
Continuous
 62
     7
 48
25.4
100
AcDbText
 10
404.3600486315
 20
35.4405757529
 30
0.0
 40
3.0
  1
2000
  7
SEACAD_arial_ttf
 11
404.3600486315
 21
38.4405757529
 31
0.0
100
AcDbText
 73
     3
  0
TEXT
  5
149
330
13F
100
AcDbEntity
  8
DV2_Default
  6
Continuous
 62
     7
 48
25.4
100
AcDbText
 10
284.1819589711
 20
49.6058309179
 30
0.0
 40
3.0
  1
20
  7
SEACAD_arial_ttf
 11
284.1819589711
 21
52.6058309179
 31
0.0
100
AcDbText
 73
     3
  0
TEXT
  5
14A
330
13F
100
AcDbEntity
  8
DV2_Default
  6
Continuous
 62
     7
 48
25.4
100
AcDbText
 10
283.9305924883
 20
59.7876477517
 30
0.0
 40
3.0
  1
40
  7
SEACAD_arial_ttf
 11
283.9305924883
 21
62.7876477517
 31
0.0
100
AcDbText
 73
     3
  0
TEXT
  5
14B
330
13F
100
AcDbEntity
  8
DV2_Default
  6
Continuous
 62
     7
 48
25.4
100
AcDbText
 10
283.9981067727
 20
69.9531925194
 30
0.0
 40
3.0
  1
60
  7
SEACAD_arial_ttf
 11
283.9981067727
 21
72.9531925194
 31
0.0
100
AcDbText
 73
     3
  0
TEXT
  5
14C
330
13F
100
AcDbEntity
  8
DV2_Default
  6
Continuous
 62
     7
 48
25.4
100
AcDbText
 10
281.8895433566
 20
89.8871479644
 30
0.0
 40
3.0
  1
100
  7
SEACAD_arial_ttf
 11
281.8895433566
 21
92.8871479644
 31
0.0
100
AcDbText
 73
     3
  0
TEXT
  5
14D
330
13F
100
AcDbEntity
  8
DV2_Default
  6
Continuous
 62
     7
 48
25.4
100
AcDbText
 10
283.8974999341
 20
79.9982799867
 30
0.0
 40
3.0
  1
80
  7
SEACAD_arial_ttf
 11
283.8974999341
 21
82.9982799867
 31
0.0
100
AcDbText
 73
     3
  0
TEXT
  5
14E
330
13F
100
AcDbEntity
  8
DV2_Default
  6
Continuous
 62
     7
 48
25.4
100
AcDbText
 10
282.0282624463
 20
100.1014488282
 30
0.0
 40
3.0
  1
120
  7
SEACAD_arial_ttf
 11
282.0282624463
 21
103.1014488282
 31
0.0
100
AcDbText
 73
     3
  0
TEXT
  5
14F
330
13F
100
AcDbEntity
  8
DV2_Default
  6
Continuous
 62
     7
 48
25.4
100
AcDbText
 10
325.1363935599
 20
132.61509909
 30
0.0
 40
3.6
  1
Input Force
  7
SEACAD_arial_ttf
 11
325.1363935599
 21
136.21509909
 31
0.0
100
AcDbText
 73
     3
  0
TEXT
  5
150
330
13F
100
AcDbEntity
  8
DV2_Default
  6
Continuous
 62
     7
 48
25.4
100
AcDbText
 10
328.551198898
 20
125.6988396405
 30
0.0
 40
3.0
  1
71KN
  7
SEACAD_arial_ttf
 11
328.551198898
 21
128.6988396405
 31
0.0
100
AcDbText
 73
     3
  0
TEXT
  5
151
330
13F
100
AcDbEntity
  8
DV2_Default
  6
Continuous
 62
     7
 48
25.4
100
AcDbText
 10
328.4217101113
 20
104.936497055
 30
0.0
 40
3.0
  1
55.2KN
  7
SEACAD_arial_ttf
 11
328.4217101113
 21
107.936497055
 31
0.0
100
AcDbText
 73
     3
  0
TEXT
  5
152
330
13F
100
AcDbEntity
  8
DV2_Default
  6
Continuous
 62
     7
 48
25.4
100
AcDbText
 10
328.2177695422
 20
83.8049723507
 30
0.0
 40
3.0
  1
39.4KN
  7
SEACAD_arial_ttf
 11
328.2177695422
 21
86.8049723507
 31
0.0
100
AcDbText
 73
     3
  0
TEXT
  5
153
330
13F
100
AcDbEntity
  8
DV2_Default
  6
Continuous
 62
     7
 48
25.4
100
AcDbText
 10
328.596067911
 20
65.1137237194
 30
0.0
 40
3.0
  1
23.7KN
  7
SEACAD_arial_ttf
 11
328.596067911
 21
68.1137237194
 31
0.0
100
AcDbText
 73
     3
  0
TEXT
  5
154
330
13F
100
AcDbEntity
  8
DV2_Default
  6
Continuous
 62
     7
 48
25.4
100
AcDbText
 10
338.7950491898
 20
24.2767345527
 30
0.0
 40
3.6
  1
Speed in min-
  7
SEACAD_arial_ttf
 11
338.7950491898
 21
27.8767345527
 31
0.0
100
AcDbText
 73
     3
  0
TEXT
  5
155
330
13F
100
AcDbEntity
  8
DV2_Default
  6
Continuous
 62
     7
 48
25.4
100
AcDbText
 10
370.0211361463
 20
24.2767345527
 30
0.0
 40
2.7516666667
  1
¹
  7
SEACAD_arial_ttf
 11
370.0211361463
 21
27.0284012193
 31
0.0
100
AcDbText
 73
     3
  0
TEXT
  5
156
330
13F
100
AcDbEntity
  8
DV2_Default
  6
Continuous
 62
     7
 48
25.4
100
AcDbText
 10
246.3816038496
 20
89.0848857668
 30
0.0
 40
3.6
  1
Total Gripping 
  7
SEACAD_arial_ttf
 11
246.3816038496
 21
92.6848857668
 31
0.0
100
AcDbText
 73
     3
  0
TEXT
  5
157
330
13F
100
AcDbEntity
  8
DV2_Default
  6
Continuous
 62
     7
 48
25.4
100
AcDbText
 10
246.3816038496
 20
83.4501031581
 30
0.0
 40
3.6
  1
Force in KN
  7
SEACAD_arial_ttf
 11
246.3816038496
 21
87.0501031581
 31
0.0
100
AcDbText
 73
     3
  0
TEXT
  5
158
330
13F
100
AcDbEntity
  8
DV2_Default
  6
Continuous
 62
     7
 48
25.4
100
AcDbText
 10
301.5089168571
 20
144.9490653976
 30
0.0
 40
3.6
  1
Gripping Characteristic Graph For B-18A11
  7
SEACAD_arial_ttf
 11
301.5089168571
 21
148.5490653976
 31
0.0
100
AcDbText
 73
     3
  0
LWPOLYLINE
  5
159
330
13F
100
AcDbEntity
  8
DV2_Default
  6
Continuous
 62
     7
 48
25.4
100
AcDbPolyline
 90
        2
 70
     0
 43
0.0
 10
414.4977749284
 20
48.2758452319
 10
385.7012938535
 20
59.5019959934
  0
HATCH
  5
15A
330
13F
100
AcDbEntity
  8
DV2_Default
  6
Continuous
 62
     7
 48
25.4
100
AcDbHatch
 10
0.0
 20
0.0
 30
0.0
210
0.0
220
0.0
230
1.0
  2
SOLID
 70
     1
 71
     0
 91
        1
 92
        1
 93
        3
 72
     1
 10
389.2733584992066
 20
58.75342776089537
 11
385.7012938535462
 21
59.50199599344821
 72
     1
 10
385.7012938535463
 20
59.50199599344821
 11
388.8374950375322
 21
57.63538345595433
 72
     1
 10
388.8374950375322
 20
57.63538345595433
 11
389.2733584992066
 21
58.75342776089537
 97
        0
 75
     0
 76
     1
 98
        0
  0
LWPOLYLINE
  5
15B
330
13F
100
AcDbEntity
  8
DV2_Default
  6
Continuous
 62
     7
 48
25.4
370
    20
100
AcDbPolyline
 90
        4
 70
     1
 43
0.0
 10
389.2733584992
 20
58.7534277609
 10
385.7012938535
 20
59.5019959934
 10
388.8374950375
 20
57.635383456
 10
389.2733584992
 20
58.7534277609
  0
LINE
  5
15C
330
13F
100
AcDbEntity
  8
DV2_Default
  6
Continuous
 62
     7
 48
25.4
100
AcDbLine
 10
414.4977749284
 20
48.2758452319
 30
0.0
 11
466.5412531893
 21
48.2758452319
 31
0.0
  0
TEXT
  5
15D
330
13F
100
AcDbEntity
  8
DV2_Default
  6
Continuous
 62
     7
 48
25.4
100
AcDbText
 10
414.4977749284
 20
49.1758452319
 30
0.0
 40
3.6
  1
Revolution Speed Limit
  7
SEACAD_arial_ttf
 11
414.4977749284
 21
52.7758452319
 31
0.0
100
AcDbText
 73
     3
  0
TEXT
  5
15E
330
13F
100
AcDbEntity
  8
DV2_Default
  6
Continuous
 62
     7
 48
25.4
100
AcDbText
 10
22.8150326533
 20
127.0107239226
 30
0.0
 40
3.0
  1
SPINDLE NOSE SIZE
  7
SEACAD_arial_ttf
 11
22.8150326533
 21
130.0107239226
 31
0.0
100
AcDbText
 73
     3
  0
TEXT
  5
15F
330
13F
100
AcDbEntity
  8
DV2_Default
  6
Continuous
 62
     7
 48
25.4
100
AcDbText
 10
112.3313963899
 20
126.911665574
 30
0.0
 40
3.0
  1
A2-11
  7
SEACAD_arial_ttf
 11
112.3313963899
 21
129.911665574
 31
0.0
100
AcDbText
 73
     3
  0
TEXT
  5
160
330
13F
100
AcDbEntity
  8
DV2_Default
  6
Continuous
 62
     7
 48
25.4
100
AcDbText
 10
23.1520155827
 20
62.5856804492
 30
0.0
 40
3.0
  1
TOTAL GRIPPING FORCE AT MAX. SPEED
  7
SEACAD_arial_ttf
 11
23.1520155827
 21
65.5856804492
 31
0.0
100
AcDbText
 73
     3
  0
TEXT
  5
161
330
13F
100
AcDbEntity
  8
DV2_Default
  6
Continuous
 62
     7
 48
25.4
100
AcDbText
 10
112.0896898526
 20
19.1243878073
 30
0.0
 40
3.0
  1
SB15C1/KSJ-218
  7
SEACAD_arial_ttf
 11
112.0896898526
 21
22.1243878073
 31
0.0
100
AcDbText
 73
     3
  0
LINE
  5
162
330
13F
100
AcDbEntity
  8
DV2_Default
  6
Continuous
 62
     7
 48
25.4
100
AcDbLine
 10
20.4639128805
 20
24.117310771
 30
0.0
 11
164.4639128805
 21
24.117310771
 31
0.0
  0
LINE
  5
163
330
13F
100
AcDbEntity
  8
DV2_Default
  6
Continuous
 62
     7
 48
25.4
100
AcDbLine
 10
164.4639128805
 20
132.117310771
 30
0.0
 11
20.4639128805
 21
132.117310771
 31
0.0
  0
LINE
  5
164
330
13F
100
AcDbEntity
  8
DV2_Default
  6
Continuous
 62
     7
 48
25.4
100
AcDbLine
 10
20.4639128805
 20
124.917310771
 30
0.0
 11
164.4639128805
 21
124.917310771
 31
0.0
  0
LINE
  5
165
330
13F
100
AcDbEntity
  8
DV2_Default
  6
Continuous
 62
     7
 48
25.4
100
AcDbLine
 10
164.4639128805
 20
117.717310771
 30
0.0
 11
20.4639128805
 21
117.717310771
 31
0.0
  0
LINE
  5
166
330
13F
100
AcDbEntity
  8
DV2_Default
  6
Continuous
 62
     7
 48
25.4
100
AcDbLine
 10
20.4639128805
 20
110.517310771
 30
0.0
 11
164.4639128805
 21
110.517310771
 31
0.0
  0
LINE
  5
167
330
13F
100
AcDbEntity
  8
DV2_Default
  6
Continuous
 62
     7
 48
25.4
100
AcDbLine
 10
164.4639128805
 20
103.317310771
 30
0.0
 11
20.4639128805
 21
103.317310771
 31
0.0
  0
LINE
  5
168
330
13F
100
AcDbEntity
  8
DV2_Default
  6
Continuous
 62
     7
 48
25.4
100
AcDbLine
 10
20.4639128805
 20
96.117310771
 30
0.0
 11
164.4639128805
 21
96.117310771
 31
0.0
  0
LINE
  5
169
330
13F
100
AcDbEntity
  8
DV2_Default
  6
Continuous
 62
     7
 48
25.4
100
AcDbLine
 10
164.4639128805
 20
88.917310771
 30
0.0
 11
20.4639128805
 21
88.917310771
 31
0.0
  0
LINE
  5
16A
330
13F
100
AcDbEntity
  8
DV2_Default
  6
Continuous
 62
     7
 48
25.4
100
AcDbLine
 10
20.4639128805
 20
81.717310771
 30
0.0
 11
164.4639128805
 21
81.717310771
 31
0.0
  0
LINE
  5
16B
330
13F
100
AcDbEntity
  8
DV2_Default
  6
Continuous
 62
     7
 48
25.4
100
AcDbLine
 10
164.4639128805
 20
74.517310771
 30
0.0
 11
20.4639128805
 21
74.517310771
 31
0.0
  0
LINE
  5
16C
330
13F
100
AcDbEntity
  8
DV2_Default
  6
Continuous
 62
     7
 48
25.4
100
AcDbLine
 10
20.4639128805
 20
67.317310771
 30
0.0
 11
164.4639128805
 21
67.317310771
 31
0.0
  0
LINE
  5
16D
330
13F
100
AcDbEntity
  8
DV2_Default
  6
Continuous
 62
     7
 48
25.4
100
AcDbLine
 10
164.4639128805
 20
60.117310771
 30
0.0
 11
20.4639128805
 21
60.117310771
 31
0.0
  0
LINE
  5
16E
330
13F
100
AcDbEntity
  8
DV2_Default
  6
Continuous
 62
     7
 48
25.4
100
AcDbLine
 10
20.4639128805
 20
52.917310771
 30
0.0
 11
164.4639128805
 21
52.917310771
 31
0.0
  0
LINE
  5
16F
330
13F
100
AcDbEntity
  8
DV2_Default
  6
Continuous
 62
     7
 48
25.4
100
AcDbLine
 10
164.4639128805
 20
45.717310771
 30
0.0
 11
20.4639128805
 21
45.717310771
 31
0.0
  0
LINE
  5
170
330
13F
100
AcDbEntity
  8
DV2_Default
  6
Continuous
 62
     7
 48
25.4
100
AcDbLine
 10
20.4639128805
 20
38.517310771
 30
0.0
 11
164.4639128805
 21
38.517310771
 31
0.0
  0
LINE
  5
171
330
13F
100
AcDbEntity
  8
DV2_Default
  6
Continuous
 62
     7
 48
25.4
100
AcDbLine
 10
164.4639128805
 20
31.317310771
 30
0.0
 11
20.4639128805
 21
31.317310771
 31
0.0
  0
TEXT
  5
172
330
13F
100
AcDbEntity
  8
DV2_Default
  6
Continuous
 62
     7
 48
25.4
100
AcDbText
 10
72.9238966754
 20
146.8222143823
 30
0.0
 40
3.6
  1
Specifications
  7
SEACAD_arial_ttf
 11
72.9238966754
 21
150.4222143823
 31
0.0
100
AcDbText
 73
     3
  0
TEXT
  5
173
330
13F
100
AcDbEntity
  8
DV2_Default
  6
Continuous
 62
     7
 48
25.4
100
AcDbText
 10
23.1713126707
 20
119.5759830105
 30
0.0
 40
3.0
  1
THROUGH HOLE
  7
SEACAD_arial_ttf
 11
23.1713126707
 21
122.5759830105
 31
0.0
100
AcDbText
 73
     3
  0
TEXT
  5
174
330
13F
100
AcDbEntity
  8
DV2_Default
  6
Continuous
 62
     7
 48
25.4
100
AcDbText
 10
111.8720104735
 20
119.818463771
 30
0.0
 40
3.0
  1
117.5mm
  7
SEACAD_arial_ttf
 11
111.8720104735
 21
122.818463771
 31
0.0
100
AcDbText
 73
     3
  0
TEXT
  5
175
330
13F
100
AcDbEntity
  8
DV2_Default
  6
Continuous
 62
     7
 48
25.4
100
AcDbText
 10
22.9965940587
 20
112.524996641
 30
0.0
 40
3.0
  1
MAX. GRIPPING RANGE
  7
SEACAD_arial_ttf
 11
22.9965940587
 21
115.524996641
 31
0.0
100
AcDbText
 73
     3
  0
TEXT
  5
176
330
13F
100
AcDbEntity
  8
DV2_Default
  6
Continuous
 62
     7
 48
25.4
100
AcDbText
 10
22.8778486619
 20
105.6155069874
 30
0.0
 40
3.0
  1
MIN. GRIPPING RANGE
  7
SEACAD_arial_ttf
 11
22.8778486619
 21
108.6155069874
 31
0.0
100
AcDbText
 73
     3
  0
TEXT
  5
177
330
13F
100
AcDbEntity
  8
DV2_Default
  6
Continuous
 62
     7
 48
25.4
100
AcDbText
 10
22.8980777545
 20
98.2212772311
 30
0.0
 40
3.0
  1
JAW STROKE
  7
SEACAD_arial_ttf
 11
22.8980777545
 21
101.2212772311
 31
0.0
100
AcDbText
 73
     3
  0
TEXT
  5
178
330
13F
100
AcDbEntity
  8
DV2_Default
  6
Continuous
 62
     7
 48
25.4
100
AcDbText
 10
22.8763688873
 20
90.8280899266
 30
0.0
 40
3.0
  1
PLUNGER STROKE
  7
SEACAD_arial_ttf
 11
22.8763688873
 21
93.8280899266
 31
0.0
100
AcDbText
 73
     3
  0
TEXT
  5
179
330
13F
100
AcDbEntity
  8
DV2_Default
  6
Continuous
 62
     7
 48
25.4
100
AcDbText
 10
22.8763688873
 20
83.560884308
 30
0.0
 40
3.0
  1
MAX. DRAW BAR PULL FORCE
  7
SEACAD_arial_ttf
 11
22.8763688873
 21
86.560884308
 31
0.0
100
AcDbText
 73
     3
  0
TEXT
  5
17A
330
13F
100
AcDbEntity
  8
DV2_Default
  6
Continuous
 62
     7
 48
25.4
100
AcDbText
 10
22.9608499361
 20
76.519656454
 30
0.0
 40
3.0
  1
MAX. GRIPPING FORCE
  7
SEACAD_arial_ttf
 11
22.9608499361
 21
79.519656454
 31
0.0
100
AcDbText
 73
     3
  0
TEXT
  5
17B
330
13F
100
AcDbEntity
  8
DV2_Default
  6
Continuous
 62
     7
 48
25.4
100
AcDbText
 10
22.919349299
 20
69.3426883986
 30
0.0
 40
3.0
  1
MAX. SPEED
  7
SEACAD_arial_ttf
 11
22.919349299
 21
72.3426883986
 31
0.0
100
AcDbText
 73
     3
  0
TEXT
  5
17C
330
13F
100
AcDbEntity
  8
DV2_Default
  6
Continuous
 62
     7
 48
25.4
100
AcDbText
 10
22.9753225142
 20
54.9414951363
 30
0.0
 40
3.0
  1
NET WEIGHT WITH SOFT TOP JAWS
  7
SEACAD_arial_ttf
 11
22.9753225142
 21
57.9414951363
 31
0.0
100
AcDbText
 73
     3
  0
TEXT
  5
17D
330
13F
100
AcDbEntity
  8
DV2_Default
  6
Continuous
 62
     7
 48
25.4
100
AcDbText
 10
22.8623336319
 20
47.7717633701
 30
0.0
 40
3.0
  1
MOMENT OF INERTIA
  7
SEACAD_arial_ttf
 11
22.8623336319
 21
50.7717633701
 31
0.0
100
AcDbText
 73
     3
  0
TEXT
  5
17E
330
13F
100
AcDbEntity
  8
DV2_Default
  6
Continuous
 62
     7
 48
25.4
100
AcDbText
 10
22.9110705581
 20
40.6460544673
 30
0.0
 40
3.0
  1
MATCHING CYLINDER
  7
SEACAD_arial_ttf
 11
22.9110705581
 21
43.6460544673
 31
0.0
100
AcDbText
 73
     3
  0
TEXT
  5
17F
330
13F
100
AcDbEntity
  8
DV2_Default
  6
Continuous
 62
     7
 48
25.4
100
AcDbText
 10
23.0240594404
 20
33.3348259852
 30
0.0
 40
3.0
  1
MAX. PRESSURE
  7
SEACAD_arial_ttf
 11
23.0240594404
 21
36.3348259852
 31
0.0
100
AcDbText
 73
     3
  0
TEXT
  5
180
330
13F
100
AcDbEntity
  8
DV2_Default
  6
Continuous
 62
     7
 48
25.4
100
AcDbText
 10
22.8825627246
 20
26.2506177195
 30
0.0
 40
3.0
  1
MATCHING HARD TOP JAW
  7
SEACAD_arial_ttf
 11
22.8825627246
 21
29.2506177195
 31
0.0
100
AcDbText
 73
     3
  0
TEXT
  5
181
330
13F
100
AcDbEntity
  8
DV2_Default
  6
Continuous
 62
     7
 48
25.4
100
AcDbText
 10
22.8825627246
 20
19.595613664
 30
0.0
 40
3.0
  1
MATCHING SOFT TOP JAW
  7
SEACAD_arial_ttf
 11
22.8825627246
 21
22.595613664
 31
0.0
100
AcDbText
 73
     3
  0
LINE
  5
182
330
13F
100
AcDbEntity
  8
DV2_Default
  6
Continuous
 62
     7
 48
25.4
100
AcDbLine
 10
20.4639128805
 20
16.917310771
 30
0.0
 11
164.4639128805
 21
16.917310771
 31
0.0
  0
LINE
  5
183
330
13F
100
AcDbEntity
  8
DV2_Default
  6
Continuous
 62
     7
 48
25.4
100
AcDbLine
 10
110.3542097806
 20
132.117310771
 30
0.0
 11
110.3542097806
 21
16.917310771
 31
0.0
  0
LINE
  5
184
330
13F
100
AcDbEntity
  8
DV2_Default
  6
Continuous
 62
     7
 48
25.4
100
AcDbLine
 10
20.4639128805
 20
132.117310771
 30
0.0
 11
20.4639128805
 21
16.917310771
 31
0.0
  0
LINE
  5
185
330
13F
100
AcDbEntity
  8
DV2_Default
  6
Continuous
 62
     7
 48
25.4
100
AcDbLine
 10
164.4639128805
 20
132.117310771
 30
0.0
 11
164.4639128805
 21
16.917310771
 31
0.0
  0
TEXT
  5
186
330
13F
100
AcDbEntity
  8
DV2_Default
  6
Continuous
 62
     7
 48
25.4
100
AcDbText
 10
112.1094830977
 20
112.6100811484
 30
0.0
 40
3.0
  1
450mm
  7
SEACAD_arial_ttf
 11
112.1094830977
 21
115.6100811484
 31
0.0
100
AcDbText
 73
     3
  0
TEXT
  5
187
330
13F
100
AcDbEntity
  8
DV2_Default
  6
Continuous
 62
     7
 48
25.4
100
AcDbText
 10
112.2128962383
 20
105.4523842105
 30
0.0
 40
3.0
  1
30mm
  7
SEACAD_arial_ttf
 11
112.2128962383
 21
108.4523842105
 31
0.0
100
AcDbText
 73
     3
  0
TEXT
  5
188
330
13F
100
AcDbEntity
  8
DV2_Default
  6
Continuous
 62
     7
 48
25.4
100
AcDbText
 10
111.9002221695
 20
98.1670468127
 30
0.0
 40
3.0
  1
10.6mm
  7
SEACAD_arial_ttf
 11
111.9002221695
 21
101.1670468127
 31
0.0
100
AcDbText
 73
     3
  0
TEXT
  5
189
330
13F
100
AcDbEntity
  8
DV2_Default
  6
Continuous
 62
     7
 48
25.4
100
AcDbText
 10
112.2457052832
 20
90.8959673697
 30
0.0
 40
3.0
  1
23mm
  7
SEACAD_arial_ttf
 11
112.2457052832
 21
93.8959673697
 31
0.0
100
AcDbText
 73
     3
  0
TEXT
  5
18A
330
13F
100
AcDbEntity
  8
DV2_Default
  6
Continuous
 62
     7
 48
25.4
100
AcDbText
 10
112.1689019703
 20
83.8011257938
 30
0.0
 40
3.0
  1
71kN
  7
SEACAD_arial_ttf
 11
112.1689019703
 21
86.8011257938
 31
0.0
100
AcDbText
 73
     3
  0
TEXT
  5
18B
330
13F
100
AcDbEntity
  8
DV2_Default
  6
Continuous
 62
     7
 48
25.4
100
AcDbText
 10
111.9311588923
 20
76.4615485872
 30
0.0
 40
3.0
  1
180kN
  7
SEACAD_arial_ttf
 11
111.9311588923
 21
79.4615485872
 31
0.0
100
AcDbText
 73
     3
  0
TEXT
  5
18C
330
13F
100
AcDbEntity
  8
DV2_Default
  6
Continuous
 62
     7
 48
25.4
100
AcDbText
 10
112.4595815832
 20
69.3320865182
 30
0.0
 40
3.0
  1
2000min-
  7
SEACAD_arial_ttf
 11
112.4595815832
 21
72.3320865182
 31
0.0
100
AcDbText
 73
     3
  0
TEXT
  5
18D
330
13F
100
AcDbEntity
  8
DV2_Default
  6
Continuous
 62
     7
 48
25.4
100
AcDbText
 10
130.0682772353
 20
69.3320865182
 30
0.0
 40
2.7516666667
  1
¹
  7
SEACAD_arial_ttf
 11
130.0682772353
 21
72.0837531848
 31
0.0
100
AcDbText
 73
     3
  0
TEXT
  5
18E
330
13F
100
AcDbEntity
  8
DV2_Default
  6
Continuous
 62
     7
 48
25.4
100
AcDbText
 10
111.8209625739
 20
55.1114887211
 30
0.0
 40
3.0
  1
178.0kg
  7
SEACAD_arial_ttf
 11
111.8209625739
 21
58.1114887211
 31
0.0
100
AcDbText
 73
     3
  0
TEXT
  5
18F
330
13F
100
AcDbEntity
  8
DV2_Default
  6
Continuous
 62
     7
 48
25.4
100
AcDbText
 10
112.354926111
 20
47.8996091831
 30
0.0
 40
3.0
  1
4.775kg.m
  7
SEACAD_arial_ttf
 11
112.354926111
 21
50.8996091831
 31
0.0
100
AcDbText
 73
     3
  0
TEXT
  5
190
330
13F
100
AcDbEntity
  8
DV2_Default
  6
Continuous
 62
     7
 48
25.4
100
AcDbText
 10
132.1810130675
 20
47.8996091831
 30
0.0
 40
2.7516666667
  1
²
  7
SEACAD_arial_ttf
 11
132.1810130675
 21
50.6512758498
 31
0.0
100
AcDbText
 73
     3
  0
TEXT
  5
191
330
13F
100
AcDbEntity
  8
DV2_Default
  6
Continuous
 62
     7
 48
25.4
100
AcDbText
 10
112.0595774913
 20
40.3977158541
 30
0.0
 40
3.0
  1
F2511H
  7
SEACAD_arial_ttf
 11
112.0595774913
 21
43.3977158541
 31
0.0
100
AcDbText
 73
     3
  0
TEXT
  5
192
330
13F
100
AcDbEntity
  8
DV2_Default
  6
Continuous
 62
     7
 48
25.4
100
AcDbText
 10
112.1828100574
 20
33.4158505572
 30
0.0
 40
3.0
  1
2.30MPa
  7
SEACAD_arial_ttf
 11
112.1828100574
 21
36.4158505572
 31
0.0
100
AcDbText
 73
     3
  0
TEXT
  5
193
330
13F
100
AcDbEntity
  8
DV2_Default
  6
Continuous
 62
     7
 48
25.4
100
AcDbText
 10
112.0699558351
 20
26.3416804927
 30
0.0
 40
3.0
  1
HB15A1
  7
SEACAD_arial_ttf
 11
112.0699558351
 21
29.3416804927
 31
0.0
100
AcDbText
 73
     3
  0
TEXT
  5
194
330
13F
100
AcDbEntity
  8
DV2_Default
  6
Continuous
 62
     7
 48
25.4
100
AcDbText
 10
281.9739019189
 20
110.4814099208
 30
0.0
 40
3.0
  1
140
  7
SEACAD_arial_ttf
 11
281.9739019189
 21
113.4814099208
 31
0.0
100
AcDbText
 73
     3
  0
LINE
  5
195
330
13F
100
AcDbEntity
  8
DV2_Default
  6
CENTER2
 62
     7
 48
25.4
100
AcDbLine
 10
190.4147233011
 20
132.8952883686
 30
0.0
 11
223.7018918801
 21
132.8952883686
 31
0.0
  0
LINE
  5
196
330
13F
100
AcDbEntity
  8
DV2_Default
  6
Continuous
 62
     7
 48
25.4
100
AcDbLine
 10
289.4958819805
 20
50.7164649913
 30
0.0
 11
409.4958819805
 21
50.7164649913
 31
0.0
  0
LINE
  5
197
330
13F
100
AcDbEntity
  8
DV2_Default
  6
Continuous
 62
     7
 48
25.4
100
AcDbLine
 10
409.4958819805
 20
60.9164649913
 30
0.0
 11
289.4958819805
 21
60.9164649913
 31
0.0
  0
LINE
  5
198
330
13F
100
AcDbEntity
  8
DV2_Default
  6
Continuous
 62
     7
 48
25.4
100
AcDbLine
 10
289.4958819805
 20
71.1164649913
 30
0.0
 11
409.4958819805
 21
71.1164649913
 31
0.0
  0
LINE
  5
199
330
13F
100
AcDbEntity
  8
DV2_Default
  6
Continuous
 62
     7
 48
25.4
100
AcDbLine
 10
409.4958819805
 20
81.3164649913
 30
0.0
 11
289.4958819805
 21
81.3164649913
 31
0.0
  0
LINE
  5
19A
330
13F
100
AcDbEntity
  8
DV2_Default
  6
Continuous
 62
     7
 48
25.4
100
AcDbLine
 10
289.4958819805
 20
91.5164649913
 30
0.0
 11
409.4958819805
 21
91.5164649913
 31
0.0
  0
LINE
  5
19B
330
13F
100
AcDbEntity
  8
DV2_Default
  6
Continuous
 62
     7
 48
25.4
100
AcDbLine
 10
409.4958819805
 20
101.7164649913
 30
0.0
 11
289.4958819805
 21
101.7164649913
 31
0.0
  0
LINE
  5
19C
330
13F
100
AcDbEntity
  8
DV2_Default
  6
Continuous
 62
     7
 48
25.4
100
AcDbLine
 10
289.4958819805
 20
111.9164649913
 30
0.0
 11
409.4958819805
 21
111.9164649913
 31
0.0
  0
LINE
  5
19D
330
13F
100
AcDbEntity
  8
DV2_Default
  6
Continuous
 62
     7
 48
25.4
100
AcDbLine
 10
409.4958819805
 20
122.1164649913
 30
0.0
 11
289.4958819805
 21
122.1164649913
 31
0.0
  0
TEXT
  5
19E
330
13F
100
AcDbEntity
  8
DV2_Default
  6
Continuous
 62
     7
 48
25.4
100
AcDbText
 10
281.9739019189
 20
120.6467933851
 30
0.0
 40
3.0
  1
160
  7
SEACAD_arial_ttf
 11
281.9739019189
 21
123.6467933851
 31
0.0
100
AcDbText
 73
     3
  0
TEXT
  5
19F
330
13F
100
AcDbEntity
  8
DV2_Default
  6
Continuous
 62
     7
 48
25.4
100
AcDbText
 10
281.9739019189
 20
130.6979590577
 30
0.0
 40
3.0
  1
180
  7
SEACAD_arial_ttf
 11
281.9739019189
 21
133.6979590577
 31
0.0
100
AcDbText
 73
     3
  0
TEXT
  5
1A0
330
13F
100
AcDbEntity
  8
DV2_Default
  6
Continuous
 62
     7
 48
25.4
100
AcDbText
 10
315.6776575007
 20
35.8330469737
 30
0.0
 40
3.0
  1
500
  7
SEACAD_arial_ttf
 11
315.6776575007
 21
38.8330469737
 31
0.0
100
AcDbText
 73
     3
  0
TEXT
  5
1A1
330
13F
100
AcDbEntity
  8
DV2_Default
  6
Continuous
 62
     7
 48
25.4
100
AcDbText
 10
374.4870821343
 20
35.2500855785
 30
0.0
 40
3.0
  1
1500
  7
SEACAD_arial_ttf
 11
374.4870821343
 21
38.2500855785
 31
0.0
100
AcDbText
 73
     3
  0
ARC
  5
1A2
330
13F
100
AcDbEntity
  8
DV2_Default
  6
Continuous
 62
     7
 48
25.4
100
AcDbCircle
 10
281.4948237766
 20
303.1712669069
 30
0.0
 40
265.0164183467938
100
AcDbArc
 50
287.7114676435
 51
298.8810585745
  0
ARC
  5
1A3
330
13F
100
AcDbEntity
  8
DV2_Default
  6
Continuous
 62
     7
 48
25.4
100
AcDbCircle
 10
284.3777790544
 20
-86.5717661656
 30
0.0
 40
157.771268686567
100
AcDbArc
 50
60.4786969915
 51
88.1409976818
  0
ARC
  5
1A4
330
13F
100
AcDbEntity
  8
DV2_Default
  6
Continuous
 62
     7
 48
25.4
100
AcDbCircle
 10
274.5375876951
 20
-81.8416116288
 30
0.0
 40
174.0022221046388
100
AcDbArc
 50
52.9005097347
 51
85.0684177022
  0
ARC
  5
1A5
330
13F
100
AcDbEntity
  8
DV2_Default
  6
Continuous
 62
     7
 48
25.4
100
AcDbCircle
 10
281.3203737384
 20
-44.5976914421
 30
0.0
 40
156.7275345913873
100
AcDbArc
 50
43.6422113803
 51
87.0098756806
  0
ARC
  5
1A6
330
13F
100
AcDbEntity
  8
DV2_Default
  6
Continuous
 62
     7
 48
25.4
100
AcDbCircle
 10
278.9186509542
 20
-36.6702625112
 30
0.0
 40
169.3174293692328
100
AcDbArc
 50
39.5384265171
 51
86.4184103005
  0
TEXT
  5
1A7
330
13F
100
AcDbEntity
  8
DV2_Default
  6
Continuous
 62
     7
 48
25.4
100
AcDbText
 10
112.3084748814
 20
61.9690413393
 30
0.0
 40
3.0
  1
72kN
  7
SEACAD_arial_ttf
 11
112.3084748814
 21
64.9690413393
 31
0.0
100
AcDbText
 73
     3
  0
LINE
  5
1A8
330
13F
100
AcDbEntity
  8
DV2_Default
  6
Continuous
 62
     7
 48
25.4
100
AcDbLine
 10
215.4446986038
 20
132.8952883686
 30
0.0
 11
220.3934193332
 21
132.8952883686
 31
0.0
  0
LINE
  5
1A9
330
13F
100
AcDbEntity
  8
DV2_Default
  6
Continuous
 62
     7
 48
25.4
100
AcDbLine
 10
220.3934193332
 20
132.8952883686
 30
0.0
 11
220.3934193332
 21
126.2952883686
 31
0.0
  0
LINE
  5
1AA
330
13F
100
AcDbEntity
  8
DV2_Default
  6
Continuous
 62
     7
 48
25.4
100
AcDbLine
 10
220.3934193332
 20
126.2952883686
 30
0.0
 11
215.8934193332
 21
126.2952883686
 31
0.0
  0
LINE
  5
1AB
330
13F
100
AcDbEntity
  8
DV2_Default
  6
Continuous
 62
     7
 48
25.4
100
AcDbLine
 10
215.8934193332
 20
126.2952883686
 30
0.0
 11
215.8934193332
 21
125.6952883686
 31
0.0
  0
LINE
  5
1AC
330
13F
100
AcDbEntity
  8
DV2_Default
  6
Continuous
 62
     7
 48
25.4
100
AcDbLine
 10
215.8934193332
 20
125.6952883686
 30
0.0
 11
198.4934193332
 21
125.6952883686
 31
0.0
  0
LINE
  5
1AD
330
13F
100
AcDbEntity
  8
DV2_Default
  6
Continuous
 62
     7
 48
25.4
100
AcDbLine
 10
198.4934193332
 20
125.6952883686
 30
0.0
 11
198.4934193332
 21
123.4452883686
 31
0.0
  0
LINE
  5
1AE
330
13F
100
AcDbEntity
  8
DV2_Default
  6
Continuous
 62
     7
 48
25.4
100
AcDbLine
 10
193.0934193332
 20
132.8952883686
 30
0.0
 11
192.7934193332
 21
132.8952883686
 31
0.0
  0
LINE
  5
1AF
330
13F
100
AcDbEntity
  8
DV2_Default
  6
Continuous
 62
     7
 48
25.4
100
AcDbLine
 10
192.7934193332
 20
132.8952883686
 30
0.0
 11
192.7934193332
 21
123.7452883686
 31
0.0
  0
LINE
  5
1B0
330
13F
100
AcDbEntity
  8
DV2_Default
  6
Continuous
 62
     7
 48
25.4
100
AcDbLine
 10
193.9934193332
 20
122.5452883686
 30
0.0
 11
198.1934193332
 21
122.5452883686
 31
0.0
  0
LINE
  5
1B1
330
13F
100
AcDbEntity
  8
DV2_Default
  6
Continuous
 62
     7
 48
25.4
100
AcDbLine
 10
198.7934193332
 20
125.3952883686
 30
0.0
 11
198.7934193332
 21
123.1452883686
 31
0.0
  0
LINE
  5
1B2
330
13F
100
AcDbEntity
  8
DV2_Default
  6
Continuous
 62
     7
 48
25.4
100
AcDbLine
 10
198.7934193332
 20
125.3952883686
 30
0.0
 11
207.1934193332
 21
125.3952883686
 31
0.0
  0
LINE
  5
1B3
330
13F
100
AcDbEntity
  8
DV2_Default
  6
Continuous
 62
     7
 48
25.4
100
AcDbLine
 10
207.1934193332
 20
125.3952883686
 30
0.0
 11
207.1934193332
 21
125.6952883686
 31
0.0
  0
LINE
  5
1B4
330
13F
100
AcDbEntity
  8
DV2_Default
  6
Continuous
 62
     7
 48
25.4
100
AcDbLine
 10
193.0934193332
 20
124.6452883686
 30
0.0
 11
193.0934193332
 21
132.8952883686
 31
0.0
  0
LINE
  5
1B5
330
13F
100
AcDbEntity
  8
DV2_Default
  6
Continuous
 62
     7
 48
25.4
100
AcDbLine
 10
194.8934193332
 20
122.8452883686
 30
0.0
 11
197.8934193332
 21
122.8452883686
 31
0.0
  0
ARC
  5
1B6
330
13F
100
AcDbEntity
  8
DV2_Default
  6
Continuous
 62
     7
 48
25.4
100
AcDbCircle
 10
193.9934193332
 20
123.7452883686
 30
0.0
 40
1.2
100
AcDbArc
 50
180.0
 51
270.0
  0
LINE
  5
1B7
330
13F
100
AcDbEntity
  8
DV2_Default
  6
Continuous
 62
     7
 48
25.4
100
AcDbLine
 10
220.3934193332
 20
132.8952883686
 30
0.0
 11
220.3934193332
 21
126.2952883686
 31
0.0
  0
LINE
  5
1B8
330
13F
100
AcDbEntity
  8
DV2_Default
  6
Continuous
 62
     7
 48
25.4
100
AcDbLine
 10
215.4446986038
 20
132.8952883686
 30
0.0
 11
220.3934193332
 21
132.8952883686
 31
0.0
  0
LINE
  5
1B9
330
13F
100
AcDbEntity
  8
DV2_Default
  6
Continuous
 62
     7
 48
25.4
100
AcDbLine
 10
220.3934193332
 20
132.8952883686
 30
0.0
 11
220.3934193332
 21
139.4952883686
 31
0.0
  0
LINE
  5
1BA
330
13F
100
AcDbEntity
  8
DV2_Default
  6
Continuous
 62
     7
 48
25.4
100
AcDbLine
 10
220.3934193332
 20
139.4952883686
 30
0.0
 11
215.8934193332
 21
139.4952883686
 31
0.0
  0
LINE
  5
1BB
330
13F
100
AcDbEntity
  8
DV2_Default
  6
Continuous
 62
     7
 48
25.4
100
AcDbLine
 10
215.8934193332
 20
139.4952883686
 30
0.0
 11
215.8934193332
 21
140.0952883686
 31
0.0
  0
LINE
  5
1BC
330
13F
100
AcDbEntity
  8
DV2_Default
  6
Continuous
 62
     7
 48
25.4
100
AcDbLine
 10
215.8934193332
 20
140.0952883686
 30
0.0
 11
198.4934193332
 21
140.0952883686
 31
0.0
  0
LINE
  5
1BD
330
13F
100
AcDbEntity
  8
DV2_Default
  6
Continuous
 62
     7
 48
25.4
100
AcDbLine
 10
198.4934193332
 20
140.0952883686
 30
0.0
 11
198.4934193332
 21
142.3452883686
 31
0.0
  0
LINE
  5
1BE
330
13F
100
AcDbEntity
  8
DV2_Default
  6
Continuous
 62
     7
 48
25.4
100
AcDbLine
 10
193.0934193332
 20
132.8952883686
 30
0.0
 11
192.7934193332
 21
132.8952883686
 31
0.0
  0
LINE
  5
1BF
330
13F
100
AcDbEntity
  8
DV2_Default
  6
Continuous
 62
     7
 48
25.4
100
AcDbLine
 10
192.7934193332
 20
132.8952883686
 30
0.0
 11
192.7934193332
 21
142.0452883686
 31
0.0
  0
LINE
  5
1C0
330
13F
100
AcDbEntity
  8
DV2_Default
  6
Continuous
 62
     7
 48
25.4
100
AcDbLine
 10
193.9934193332
 20
143.2452883686
 30
0.0
 11
198.1934193332
 21
143.2452883686
 31
0.0
  0
LINE
  5
1C1
330
13F
100
AcDbEntity
  8
DV2_Default
  6
Continuous
 62
     7
 48
25.4
100
AcDbLine
 10
198.7934193332
 20
140.3952883686
 30
0.0
 11
198.7934193332
 21
142.6452883686
 31
0.0
  0
LINE
  5
1C2
330
13F
100
AcDbEntity
  8
DV2_Default
  6
Continuous
 62
     7
 48
25.4
100
AcDbLine
 10
198.7934193332
 20
140.3952883686
 30
0.0
 11
207.1934193332
 21
140.3952883686
 31
0.0
  0
LINE
  5
1C3
330
13F
100
AcDbEntity
  8
DV2_Default
  6
Continuous
 62
     7
 48
25.4
100
AcDbLine
 10
207.1934193332
 20
140.3952883686
 30
0.0
 11
207.1934193332
 21
140.0952883686
 31
0.0
  0
LINE
  5
1C4
330
13F
100
AcDbEntity
  8
DV2_Default
  6
Continuous
 62
     7
 48
25.4
100
AcDbLine
 10
193.0934193332
 20
141.1452883686
 30
0.0
 11
193.0934193332
 21
132.8952883686
 31
0.0
  0
LINE
  5
1C5
330
13F
100
AcDbEntity
  8
DV2_Default
  6
Continuous
 62
     7
 48
25.4
100
AcDbLine
 10
194.8934193332
 20
142.9452883686
 30
0.0
 11
197.8934193332
 21
142.9452883686
 31
0.0
  0
ARC
  5
1C6
330
13F
100
AcDbEntity
  8
DV2_Default
  6
Continuous
 62
     7
 48
25.4
100
AcDbCircle
 10
193.9934193332
 20
142.0452883686
 30
0.0
 40
1.2
100
AcDbArc
 50
90.0
 51
180.0
  0
LINE
  5
1C7
330
13F
100
AcDbEntity
  8
DV2_Default
  6
Continuous
 62
     7
 48
25.4
100
AcDbLine
 10
220.3934193332
 20
132.8952883686
 30
0.0
 11
220.3934193332
 21
139.4952883686
 31
0.0
  0
LINE
  5
1C8
330
13F
100
AcDbEntity
  8
DV2_Default
  6
Continuous
 62
     7
 48
25.4
100
AcDbLine
 10
220.3934193332
 20
139.4952883686
 30
0.0
 11
216.7934193332
 21
139.4952883686
 31
0.0
  0
LINE
  5
1C9
330
13F
100
AcDbEntity
  8
DV2_Default
  6
Continuous
 62
     7
 48
25.4
100
AcDbLine
 10
216.7934193332
 20
140.9952883686
 30
0.0
 11
216.7934193332
 21
150.5952883686
 31
0.0
  0
LINE
  5
1CA
330
13F
100
AcDbEntity
  8
DV2_Default
  6
Continuous
 62
     7
 48
25.4
100
AcDbLine
 10
215.8934193332
 20
151.4952883686
 30
0.0
 11
201.2512803263
 21
151.4952883686
 31
0.0
  0
LINE
  5
1CB
330
13F
100
AcDbEntity
  8
DV2_Default
  6
Continuous
 62
     7
 48
25.4
100
AcDbLine
 10
215.8934193332
 20
140.0952883686
 30
0.0
 11
216.7934193332
 21
140.9952883686
 31
0.0
  0
LINE
  5
1CC
330
13F
100
AcDbEntity
  8
DV2_Default
  6
Continuous
 62
     7
 48
25.4
100
AcDbLine
 10
215.8934193332
 20
151.4952883686
 30
0.0
 11
216.7934193332
 21
150.5952883686
 31
0.0
  0
LINE
  5
1CD
330
13F
100
AcDbEntity
  8
DV2_Default
  6
Continuous
 62
     7
 48
25.4
100
AcDbLine
 10
216.2067623362
 20
151.1819453656
 30
0.0
 11
216.2067623362
 21
140.4086313716
 31
0.0
  0
LINE
  5
1CE
330
13F
100
AcDbEntity
  8
DV2_Default
  6
Continuous
 62
     7
 48
25.4
100
AcDbLine
 10
213.7934193332
 20
151.4952883686
 30
0.0
 11
213.7934193332
 21
163.4952883686
 31
0.0
  0
LINE
  5
1CF
330
13F
100
AcDbEntity
  8
DV2_Default
  6
Continuous
 62
     7
 48
25.4
100
AcDbLine
 10
215.8934193332
 20
126.2952883686
 30
0.0
 11
215.8934193332
 21
125.6952883686
 31
0.0
  0
LINE
  5
1D0
330
13F
100
AcDbEntity
  8
DV2_Default
  6
Continuous
 62
     7
 48
25.4
100
AcDbLine
 10
207.1934193332
 20
125.3952883686
 30
0.0
 11
207.1934193332
 21
125.6952883686
 31
0.0
  0
LINE
  5
1D1
330
13F
100
AcDbEntity
  8
DV2_Default
  6
Continuous
 62
     7
 48
25.4
100
AcDbLine
 10
216.7934193332
 20
124.7952883686
 30
0.0
 11
216.7934193332
 21
115.1952883686
 31
0.0
  0
LINE
  5
1D2
330
13F
100
AcDbEntity
  8
DV2_Default
  6
Continuous
 62
     7
 48
25.4
100
AcDbLine
 10
215.8934193332
 20
114.2952883686
 30
0.0
 11
201.2512803263
 21
114.2952883686
 31
0.0
  0
LINE
  5
1D3
330
13F
100
AcDbEntity
  8
DV2_Default
  6
Continuous
 62
     7
 48
25.4
100
AcDbLine
 10
215.8934193332
 20
125.6952883686
 30
0.0
 11
216.7934193332
 21
124.7952883686
 31
0.0
  0
LINE
  5
1D4
330
13F
100
AcDbEntity
  8
DV2_Default
  6
Continuous
 62
     7
 48
25.4
100
AcDbLine
 10
215.8934193332
 20
114.2952883686
 30
0.0
 11
216.7934193332
 21
115.1952883686
 31
0.0
  0
LINE
  5
1D5
330
13F
100
AcDbEntity
  8
DV2_Default
  6
Continuous
 62
     7
 48
25.4
100
AcDbLine
 10
216.2067623362
 20
114.6086313716
 30
0.0
 11
216.2067623362
 21
125.3819453656
 31
0.0
  0
LINE
  5
1D6
330
13F
100
AcDbEntity
  8
DV2_Default
  6
Continuous
 62
     7
 48
25.4
100
AcDbLine
 10
213.7934193332
 20
114.2952883686
 30
0.0
 11
213.7934193332
 21
102.2952883686
 31
0.0
  0
LINE
  5
1D7
330
13F
100
AcDbEntity
  8
DV2_Default
  6
Continuous
 62
     7
 48
25.4
100
AcDbLine
 10
193.0934193332
 20
141.1452883686
 30
0.0
 11
194.8934193332
 21
142.9452883686
 31
0.0
  0
LINE
  5
1D8
330
13F
100
AcDbEntity
  8
DV2_Default
  6
Continuous
 62
     7
 48
25.4
100
AcDbLine
 10
194.8934193332
 20
122.8452883686
 30
0.0
 11
193.0934193332
 21
124.6452883686
 31
0.0
  0
LINE
  5
1D9
330
13F
100
AcDbEntity
  8
DV2_Default
  6
Continuous
 62
     7
 48
25.4
100
AcDbLine
 10
197.8934193332
 20
142.9452883686
 30
0.0
 11
198.4934193332
 21
142.3452883686
 31
0.0
  0
LINE
  5
1DA
330
13F
100
AcDbEntity
  8
DV2_Default
  6
Continuous
 62
     7
 48
25.4
100
AcDbLine
 10
197.8934193332
 20
122.8452883686
 30
0.0
 11
198.4934193332
 21
123.4452883686
 31
0.0
  0
ARC
  5
1DB
330
13F
100
AcDbEntity
  8
DV2_Default
  6
Continuous
 62
     7
 48
25.4
100
AcDbCircle
 10
198.1934193332
 20
123.1452883686
 30
0.0
 40
0.6
100
AcDbArc
 50
270.0
 51
360.0
  0
ARC
  5
1DC
330
13F
100
AcDbEntity
  8
DV2_Default
  6
Continuous
 62
     7
 48
25.4
100
AcDbCircle
 10
198.1934193332
 20
142.6452883686
 30
0.0
 40
0.6
100
AcDbArc
 50
0.0
 51
90.0
  0
LINE
  5
1DD
330
13F
100
AcDbEntity
  8
DV2_Default
  6
Continuous
 62
     7
 48
25.4
100
AcDbLine
 10
319.4958819805
 20
40.5164649913
 30
0.0
 11
319.4958819805
 21
132.3164649913
 31
0.0
  0
LINE
  5
1DE
330
13F
100
AcDbEntity
  8
DV2_Default
  6
Continuous
 62
     7
 48
25.4
100
AcDbLine
 10
349.4958819805
 20
132.3164649913
 30
0.0
 11
349.4958819805
 21
40.5164649913
 31
0.0
  0
LINE
  5
1DF
330
13F
100
AcDbEntity
  8
DV2_Default
  6
Continuous
 62
     7
 48
25.4
100
AcDbLine
 10
379.4958819805
 20
40.5164649913
 30
0.0
 11
379.4958819805
 21
132.3164649913
 31
0.0
  0
ENDBLK
  5
1E1
330
13F
100
AcDbEntity
  8
0
100
AcDbBlockEnd
  0
BLOCK
  5
1ED
330
1E2
100
AcDbEntity
  8
0
100
AcDbBlockBegin
  2
GDimGGroup
 70
     0
 71
     0
 10
0.0
 20
0.0
 30
0.0
  3
GDimGGroup
  1

  0
HATCH
  5
1E4
330
1E2
100
AcDbEntity
  8
Default
  6
Continuous
 62
     7
 48
25.4
100
AcDbHatch
 10
0.0
 20
0.0
 30
0.0
210
0.0
220
0.0
230
1.0
  2
SOLID
 70
     1
 71
     0
 91
        1
 92
        1
 93
        3
 72
     1
 10
234.4783302294717
 20
130.2952885585787
 11
233.1449968328085
 21
130.2952885585787
 72
     1
 10
233.1449968328085
 20
130.2952885585787
 11
233.8116635311401
 21
126.2952883685888
 72
     1
 10
233.8116635311401
 20
126.2952883685888
 11
234.4783302294717
 21
130.2952885585787
 97
        0
 75
     0
 76
     1
 98
        0
  0
LWPOLYLINE
  5
1E5
330
1E2
100
AcDbEntity
  8
Default
  6
Continuous
 62
     7
 48
25.4
370
    20
100
AcDbPolyline
 90
        4
 70
     1
 43
0.0
 10
234.4783302295
 20
130.2952885586
 10
233.8116635311
 20
126.2952883686
 10
233.1449968328
 20
130.2952885586
 10
234.4783302295
 20
130.2952885586
  0
HATCH
  5
1E6
330
1E2
100
AcDbEntity
  8
Default
  6
Continuous
 62
     7
 48
25.4
100
AcDbHatch
 10
0.0
 20
0.0
 30
0.0
210
0.0
220
0.0
230
1.0
  2
SOLID
 70
     1
 71
     0
 91
        1
 92
        1
 93
        3
 72
     1
 10
234.4783302294717
 20
135.4952881070735
 11
233.8116635311401
 21
139.4952882970633
 72
     1
 10
233.8116635311401
 20
139.4952882970633
 11
233.1449968328085
 21
135.4952881070735
 72
     1
 10
233.1449968328085
 20
135.4952881070735
 11
234.4783302294717
 21
135.4952881070735
 97
        0
 75
     0
 76
     1
 98
        0
  0
LWPOLYLINE
  5
1E7
330
1E2
100
AcDbEntity
  8
Default
  6
Continuous
 62
     7
 48
25.4
370
    20
100
AcDbPolyline
 90
        4
 70
     1
 43
0.0
 10
234.4783302295
 20
135.4952881071
 10
233.8116635311
 20
139.4952882971
 10
233.1449968328
 20
135.4952881071
 10
234.4783302295
 20
135.4952881071
  0
LINE
  5
1E8
330
1E2
100
AcDbEntity
  8
Default
  6
Continuous
 62
     7
 48
25.4
100
AcDbLine
 10
220.3934193332
 20
126.2952883686
 30
0.0
 11
235.8116636261
 21
126.2952883686
 31
0.0
  0
LINE
  5
1E9
330
1E2
100
AcDbEntity
  8
Default
  6
Continuous
 62
     7
 48
25.4
100
AcDbLine
 10
220.3934193332
 20
139.4952883686
 30
0.0
 11
235.8116636261
 21
139.4952883686
 31
0.0
  0
LINE
  5
1EA
330
1E2
100
AcDbEntity
  8
Default
  6
Continuous
 62
     7
 48
25.4
100
AcDbLine
 10
233.8116635311
 20
85.9453131403
 30
0.0
 11
233.8116635311
 21
139.4952882971
 31
0.0
  0
TEXT
  5
1EB
330
1E2
100
AcDbEntity
  8
Default
  6
Continuous
 62
     7
 48
25.4
100
AcDbText
 10
232.8116635311
 20
87.345314142
 30
0.0
 40
4.0
  1
22
 50
90.0
  7
SEACAD_arial_ttf
 11
228.8116635311
 21
87.345314142
 31
0.0
100
AcDbText
 73
     3
  0
TEXT
  5
1EC
330
1E2
100
AcDbEntity
  8
Default
  6
Continuous
 62
     7
 48
25.4
100
AcDbText
 10
232.8116635311
 20
96.0061837072
 30
0.0
 40
4.0
  1
H8/h8
 50
90.0
  7
SEACAD_arial_ttf
 11
228.8116635311
 21
96.0061837072
 31
0.0
100
AcDbText
 73
     3
  0
ENDBLK
  5
1EE
330
1E2
100
AcDbEntity
  8
0
100
AcDbBlockEnd
  0
BLOCK
  5
1F9
330
1EF
100
AcDbEntity
  8
0
100
AcDbBlockBegin
  2
GDimGGroup1
 70
     0
 71
     0
 10
0.0
 20
0.0
 30
0.0
  3
GDimGGroup1
  1

  0
HATCH
  5
1F1
330
1EF
100
AcDbEntity
  8
Default
  6
Continuous
 62
     7
 48
25.4
100
AcDbHatch
 10
0.0
 20
0.0
 30
0.0
210
0.0
220
0.0
230
1.0
  2
SOLID
 70
     1
 71
     0
 91
        1
 92
        1
 93
        3
 72
     1
 10
245.612781290959
 20
129.6952885585786
 11
244.2794478942957
 21
129.6952885585786
 72
     1
 10
244.2794478942957
 20
129.6952885585786
 11
244.9461145926273
 21
125.6952883685888
 72
     1
 10
244.9461145926273
 20
125.6952883685888
 11
245.612781290959
 21
129.6952885585786
 97
        0
 75
     0
 76
     1
 98
        0
  0
LWPOLYLINE
  5
1F2
330
1EF
100
AcDbEntity
  8
Default
  6
Continuous
 62
     7
 48
25.4
370
    20
100
AcDbPolyline
 90
        4
 70
     1
 43
0.0
 10
245.612781291
 20
129.6952885586
 10
244.9461145926
 20
125.6952883686
 10
244.2794478943
 20
129.6952885586
 10
245.612781291
 20
129.6952885586
  0
HATCH
  5
1F3
330
1EF
100
AcDbEntity
  8
Default
  6
Continuous
 62
     7
 48
25.4
100
AcDbHatch
 10
0.0
 20
0.0
 30
0.0
210
0.0
220
0.0
230
1.0
  2
SOLID
 70
     1
 71
     0
 91
        1
 92
        1
 93
        3
 72
     1
 10
245.612781290959
 20
136.0952879312397
 11
244.9461145926273
 21
140.0952881212295
 72
     1
 10
244.9461145926273
 20
140.0952881212295
 11
244.2794478942957
 21
136.0952879312397
 72
     1
 10
244.2794478942957
 20
136.0952879312397
 11
245.612781290959
 21
136.0952879312397
 97
        0
 75
     0
 76
     1
 98
        0
  0
LWPOLYLINE
  5
1F4
330
1EF
100
AcDbEntity
  8
Default
  6
Continuous
 62
     7
 48
25.4
370
    20
100
AcDbPolyline
 90
        4
 70
     1
 43
0.0
 10
245.612781291
 20
136.0952879312
 10
244.9461145926
 20
140.0952881212
 10
244.2794478943
 20
136.0952879312
 10
245.612781291
 20
136.0952879312
  0
LINE
  5
1F5
330
1EF
100
AcDbEntity
  8
Default
  6
Continuous
 62
     7
 48
25.4
100
AcDbLine
 10
215.8934193332
 20
125.6952883686
 30
0.0
 11
246.9461146876
 21
125.6952883686
 31
0.0
  0
LINE
  5
1F6
330
1EF
100
AcDbEntity
  8
Default
  6
Continuous
 62
     7
 48
25.4
100
AcDbLine
 10
215.8934193332
 20
140.0952883686
 30
0.0
 11
246.9461146876
 21
140.0952883686
 31
0.0
  0
LINE
  5
1F7
330
1EF
100
AcDbEntity
  8
Default
  6
Continuous
 62
     7
 48
25.4
100
AcDbLine
 10
244.9461145926
 20
125.6952883686
 30
0.0
 11
244.9461145926
 21
140.0952881212
 31
0.0
  0
TEXT
  5
1F8
330
1EF
100
AcDbEntity
  8
Default
  6
Continuous
 62
     7
 48
25.4
100
AcDbText
 10
243.9461145926
 20
129.7648534623
 30
0.0
 40
4.0
  1
24
 50
90.0
  7
SEACAD_arial_ttf
 11
239.9461145926
 21
129.7648534623
 31
0.0
100
AcDbText
 73
     3
  0
ENDBLK
  5
1FA
330
1EF
100
AcDbEntity
  8
0
100
AcDbBlockEnd
  0
BLOCK
  5
205
330
1FB
100
AcDbEntity
  8
0
100
AcDbBlockBegin
  2
GDimGGroup2
 70
     0
 71
     0
 10
0.0
 20
0.0
 30
0.0
  3
GDimGGroup2
  1

  0
HATCH
  5
1FD
330
1FB
100
AcDbEntity
  8
Default
  6
Continuous
 62
     7
 48
25.4
100
AcDbHatch
 10
0.0
 20
0.0
 30
0.0
210
0.0
220
0.0
230
1.0
  2
SOLID
 70
     1
 71
     0
 91
        1
 92
        1
 93
        3
 72
     1
 10
258.0249549644695
 20
118.2952885585786
 11
256.6916215678062
 21
118.2952885585786
 72
     1
 10
256.6916215678062
 20
118.2952885585786
 11
257.3582882661378
 21
114.2952883685888
 72
     1
 10
257.3582882661378
 20
114.2952883685888
 11
258.0249549644695
 21
118.2952885585786
 97
        0
 75
     0
 76
     1
 98
        0
  0
LWPOLYLINE
  5
1FE
330
1FB
100
AcDbEntity
  8
Default
  6
Continuous
 62
     7
 48
25.4
370
    20
100
AcDbPolyline
 90
        4
 70
     1
 43
0.0
 10
258.0249549645
 20
118.2952885586
 10
257.3582882661
 20
114.2952883686
 10
256.6916215678
 20
118.2952885586
 10
258.0249549645
 20
118.2952885586
  0
HATCH
  5
1FF
330
1FB
100
AcDbEntity
  8
Default
  6
Continuous
 62
     7
 48
25.4
100
AcDbHatch
 10
0.0
 20
0.0
 30
0.0
210
0.0
220
0.0
230
1.0
  2
SOLID
 70
     1
 71
     0
 91
        1
 92
        1
 93
        3
 72
     1
 10
258.0249549644695
 20
147.4952883156897
 11
257.3582882661378
 21
151.4952885056795
 72
     1
 10
257.3582882661378
 20
151.4952885056795
 11
256.6916215678062
 21
147.4952883156897
 72
     1
 10
256.6916215678062
 20
147.4952883156897
 11
258.0249549644695
 21
147.4952883156897
 97
        0
 75
     0
 76
     1
 98
        0
  0
LWPOLYLINE
  5
200
330
1FB
100
AcDbEntity
  8
Default
  6
Continuous
 62
     7
 48
25.4
370
    20
100
AcDbPolyline
 90
        4
 70
     1
 43
0.0
 10
258.0249549645
 20
147.4952883157
 10
257.3582882661
 20
151.4952885057
 10
256.6916215678
 20
147.4952883157
 10
258.0249549645
 20
147.4952883157
  0
LINE
  5
201
330
1FB
100
AcDbEntity
  8
Default
  6
Continuous
 62
     7
 48
25.4
100
AcDbLine
 10
215.8934193332
 20
114.2952883686
 30
0.0
 11
259.3582883611
 21
114.2952883686
 31
0.0
  0
LINE
  5
202
330
1FB
100
AcDbEntity
  8
Default
  6
Continuous
 62
     7
 48
25.4
100
AcDbLine
 10
215.8934192917
 20
151.4952883686
 30
0.0
 11
259.3582883611
 21
151.4952883686
 31
0.0
  0
LINE
  5
203
330
1FB
100
AcDbEntity
  8
Default
  6
Continuous
 62
     7
 48
25.4
100
AcDbLine
 10
257.3582882661
 20
114.2952883686
 30
0.0
 11
257.3582882661
 21
151.4952885057
 31
0.0
  0
TEXT
  5
204
330
1FB
100
AcDbEntity
  8
Default
  6
Continuous
 62
     7
 48
25.4
100
AcDbText
 10
256.3582882661
 20
129.7648536545
 30
0.0
 40
4.0
  1
62
 50
90.0
  7
SEACAD_arial_ttf
 11
252.3582882661
 21
129.7648536545
 31
0.0
100
AcDbText
 73
     3
  0
ENDBLK
  5
206
330
1FB
100
AcDbEntity
  8
0
100
AcDbBlockEnd
  0
BLOCK
  5
211
330
207
100
AcDbEntity
  8
0
100
AcDbBlockBegin
  2
GDimGGroup3
 70
     0
 71
     0
 10
0.0
 20
0.0
 30
0.0
  3
GDimGGroup3
  1

  0
HATCH
  5
209
330
207
100
AcDbEntity
  8
Default
  6
Continuous
 62
     7
 48
25.4
100
AcDbHatch
 10
0.0
 20
0.0
 30
0.0
210
0.0
220
0.0
230
1.0
  2
SOLID
 70
     1
 71
     0
 91
        1
 92
        1
 93
        3
 72
     1
 10
209.7934191431856
 20
165.4667474114906
 11
209.7934191431856
 21
164.1334140148274
 72
     1
 10
209.7934191431856
 20
164.1334140148274
 11
213.7934193331755
 21
164.800080713159
 72
     1
 10
213.7934193331755
 20
164.800080713159
 11
209.7934191431856
 21
165.4667474114906
 97
        0
 75
     0
 76
     1
 98
        0
  0
LWPOLYLINE
  5
20A
330
207
100
AcDbEntity
  8
Default
  6
Continuous
 62
     7
 48
25.4
370
    20
100
AcDbPolyline
 90
        4
 70
     1
 43
0.0
 10
209.7934191432
 20
165.4667474115
 10
213.7934193332
 20
164.8000807132
 10
209.7934191432
 20
164.1334140148
 10
209.7934191432
 20
165.4667474115
  0
HATCH
  5
20B
330
207
100
AcDbEntity
  8
Default
  6
Continuous
 62
     7
 48
25.4
100
AcDbHatch
 10
0.0
 20
0.0
 30
0.0
210
0.0
220
0.0
230
1.0
  2
SOLID
 70
     1
 71
     0
 91
        1
 92
        1
 93
        3
 72
     1
 10
220.7934195231653
 20
165.4667474114906
 11
216.7934193331755
 21
164.800080713159
 72
     1
 10
216.7934193331755
 20
164.800080713159
 11
220.7934195231653
 21
164.1334140148274
 72
     1
 10
220.7934195231653
 20
164.1334140148274
 11
220.7934195231653
 21
165.4667474114906
 97
        0
 75
     0
 76
     1
 98
        0
  0
LWPOLYLINE
  5
20C
330
207
100
AcDbEntity
  8
Default
  6
Continuous
 62
     7
 48
25.4
370
    20
100
AcDbPolyline
 90
        4
 70
     1
 43
0.0
 10
220.7934195232
 20
165.4667474115
 10
216.7934193332
 20
164.8000807132
 10
220.7934195232
 20
164.1334140148
 10
220.7934195232
 20
165.4667474115
  0
LINE
  5
20D
330
207
100
AcDbEntity
  8
Default
  6
Continuous
 62
     7
 48
25.4
100
AcDbLine
 10
213.7934193332
 20
151.4952883686
 30
0.0
 11
213.7934193332
 21
166.8000808082
 31
0.0
  0
LINE
  5
20E
330
207
100
AcDbEntity
  8
Default
  6
Continuous
 62
     7
 48
25.4
100
AcDbLine
 10
216.7934193332
 20
150.5952883686
 30
0.0
 11
216.7934193332
 21
166.8000808082
 31
0.0
  0
LINE
  5
20F
330
207
100
AcDbEntity
  8
Default
  6
Continuous
 62
     7
 48
25.4
100
AcDbLine
 10
204.9746997971
 20
164.8000807132
 30
0.0
 11
224.7934192736
 21
164.8000807132
 31
0.0
  0
TEXT
  5
210
330
207
100
AcDbEntity
  8
Default
  6
Continuous
 62
     7
 48
25.4
100
AcDbText
 10
206.3746999269
 20
165.8000807132
 30
0.0
 40
4.0
  1
5
  7
SEACAD_arial_ttf
 11
206.3746999269
 21
169.8000807132
 31
0.0
100
AcDbText
 73
     3
  0
ENDBLK
  5
212
330
207
100
AcDbEntity
  8
0
100
AcDbBlockEnd
  0
BLOCK
  5
21D
330
213
100
AcDbEntity
  8
0
100
AcDbBlockBegin
  2
GDimGGroup4
 70
     0
 71
     0
 10
0.0
 20
0.0
 30
0.0
  3
GDimGGroup4
  1

  0
HATCH
  5
215
330
213
100
AcDbEntity
  8
Default
  6
Continuous
 62
     7
 48
25.4
100
AcDbHatch
 10
0.0
 20
0.0
 30
0.0
210
0.0
220
0.0
230
1.0
  2
SOLID
 70
     1
 71
     0
 91
        1
 92
        1
 93
        3
 72
     1
 10
212.7934191431856
 20
165.4667477452766
 11
212.7934191431856
 21
164.1334143486134
 72
     1
 10
212.7934191431856
 20
164.1334143486134
 11
216.7934193331755
 21
164.800081046945
 72
     1
 10
216.7934193331755
 20
164.800081046945
 11
212.7934191431856
 21
165.4667477452766
 97
        0
 75
     0
 76
     1
 98
        0
  0
LWPOLYLINE
  5
216
330
213
100
AcDbEntity
  8
Default
  6
Continuous
 62
     7
 48
25.4
370
    20
100
AcDbPolyline
 90
        4
 70
     1
 43
0.0
 10
212.7934191432
 20
165.4667477453
 10
216.7934193332
 20
164.8000810469
 10
212.7934191432
 20
164.1334143486
 10
212.7934191432
 20
165.4667477453
  0
HATCH
  5
217
330
213
100
AcDbEntity
  8
Default
  6
Continuous
 62
     7
 48
25.4
100
AcDbHatch
 10
0.0
 20
0.0
 30
0.0
210
0.0
220
0.0
230
1.0
  2
SOLID
 70
     1
 71
     0
 91
        1
 92
        1
 93
        3
 72
     1
 10
224.3934195231653
 20
165.4667477452766
 11
220.3934193331754
 21
164.800081046945
 72
     1
 10
220.3934193331754
 20
164.800081046945
 11
224.3934195231653
 21
164.1334143486134
 72
     1
 10
224.3934195231653
 20
164.1334143486134
 11
224.3934195231653
 21
165.4667477452766
 97
        0
 75
     0
 76
     1
 98
        0
  0
LWPOLYLINE
  5
218
330
213
100
AcDbEntity
  8
Default
  6
Continuous
 62
     7
 48
25.4
370
    20
100
AcDbPolyline
 90
        4
 70
     1
 43
0.0
 10
224.3934195232
 20
165.4667477453
 10
220.3934193332
 20
164.8000810469
 10
224.3934195232
 20
164.1334143486
 10
224.3934195232
 20
165.4667477453
  0
LINE
  5
219
330
213
100
AcDbEntity
  8
Default
  6
Continuous
 62
     7
 48
25.4
100
AcDbLine
 10
216.7934193332
 20
150.5952883686
 30
0.0
 11
216.7934193332
 21
166.8000811419
 31
0.0
  0
LINE
  5
21A
330
213
100
AcDbEntity
  8
Default
  6
Continuous
 62
     7
 48
25.4
100
AcDbLine
 10
220.3934193332
 20
139.4952883686
 30
0.0
 11
220.3934193332
 21
166.8000811419
 31
0.0
  0
LINE
  5
21B
330
213
100
AcDbEntity
  8
Default
  6
Continuous
 62
     7
 48
25.4
100
AcDbLine
 10
208.7934189532
 20
164.8000810469
 30
0.0
 11
232.6752613354
 21
164.8000810469
 31
0.0
  0
TEXT
  5
21C
330
213
100
AcDbEntity
  8
Default
  6
Continuous
 62
     7
 48
25.4
100
AcDbText
 10
228.1448273543
 20
165.8000810469
 30
0.0
 40
4.0
  1
6
  7
SEACAD_arial_ttf
 11
228.1448273543
 21
169.8000810469
 31
0.0
100
AcDbText
 73
     3
  0
ENDBLK
  5
21E
330
213
100
AcDbEntity
  8
0
100
AcDbBlockEnd
  0
BLOCK
  5
22A
330
21F
100
AcDbEntity
  8
0
100
AcDbBlockBegin
  2
GDimGGroup5
 70
     0
 71
     0
 10
0.0
 20
0.0
 30
0.0
  3
GDimGGroup5
  1

  0
HATCH
  5
221
330
21F
100
AcDbEntity
  8
Default
  6
Continuous
 62
     7
 48
25.4
100
AcDbHatch
 10
0.0
 20
0.0
 30
0.0
210
0.0
220
0.0
230
1.0
  2
SOLID
 70
     1
 71
     0
 91
        1
 92
        1
 93
        3
 72
     1
 10
229.4502759530592
 20
244.5539055414223
 11
228.1169425563959
 21
244.5539055414223
 72
     1
 10
228.1169425563959
 20
244.5539055414223
 11
228.7836092547275
 21
240.5539053514325
 72
     1
 10
228.7836092547275
 20
240.5539053514325
 11
229.4502759530592
 21
244.5539055414223
 97
        0
 75
     0
 76
     1
 98
        0
  0
LWPOLYLINE
  5
222
330
21F
100
AcDbEntity
  8
Default
  6
Continuous
 62
     7
 48
25.4
370
    20
100
AcDbPolyline
 90
        4
 70
     1
 43
0.0
 10
229.4502759531
 20
244.5539055414
 10
228.7836092547
 20
240.5539053514
 10
228.1169425564
 20
244.5539055414
 10
229.4502759531
 20
244.5539055414
  0
HATCH
  5
223
330
21F
100
AcDbEntity
  8
Default
  6
Continuous
 62
     7
 48
25.4
100
AcDbHatch
 10
0.0
 20
0.0
 30
0.0
210
0.0
220
0.0
230
1.0
  2
SOLID
 70
     1
 71
     0
 91
        1
 92
        1
 93
        3
 72
     1
 10
229.4502759530592
 20
249.3539051614427
 11
228.7836092547275
 21
253.3539053514325
 72
     1
 10
228.7836092547275
 20
253.3539053514325
 11
228.1169425563959
 21
249.3539051614427
 72
     1
 10
228.1169425563959
 20
249.3539051614427
 11
229.4502759530592
 21
249.3539051614427
 97
        0
 75
     0
 76
     1
 98
        0
  0
LWPOLYLINE
  5
224
330
21F
100
AcDbEntity
  8
Default
  6
Continuous
 62
     7
 48
25.4
370
    20
100
AcDbPolyline
 90
        4
 70
     1
 43
0.0
 10
229.4502759531
 20
249.3539051614
 10
228.7836092547
 20
253.3539053514
 10
228.1169425564
 20
249.3539051614
 10
229.4502759531
 20
249.3539051614
  0
LINE
  5
225
330
21F
100
AcDbEntity
  8
Default
  6
Continuous
 62
     7
 48
25.4
100
AcDbLine
 10
213.775355278
 20
240.5539053514
 30
0.0
 11
230.7836093497
 21
240.5539053514
 31
0.0
  0
LINE
  5
226
330
21F
100
AcDbEntity
  8
Default
  6
Continuous
 62
     7
 48
25.4
100
AcDbLine
 10
213.775355278
 20
253.3539053514
 30
0.0
 11
230.7836093497
 21
253.3539053514
 31
0.0
  0
LINE
  5
227
330
21F
100
AcDbEntity
  8
Default
  6
Continuous
 62
     7
 48
25.4
100
AcDbLine
 10
228.7836092547
 20
240.5539053514
 30
0.0
 11
228.7836092547
 21
272.2217748895
 31
0.0
  0
TEXT
  5
228
330
21F
100
AcDbEntity
  8
Default
  6
Continuous
 62
     7
 48
25.4
100
AcDbText
 10
227.7836092547
 20
264.5609057384
 30
0.0
 40
4.0
  1
32
 50
90.0
  7
SEACAD_arial_ttf
 11
223.7836092547
 21
264.5609057384
 31
0.0
100
AcDbText
 73
     3
  0
TEXT
  5
229
330
21F
100
AcDbEntity
  8
Default
  6
Continuous
 62
     7
 48
25.4
100
AcDbText
 10
227.7836092547
 20
257.1995022297
 30
0.0
 40
4.0
  1
O
 50
90.0
  7
SEACAD_semeca1_ttf
 11
223.7836092547
 21
257.1995022297
 31
0.0
100
AcDbText
 73
     3
  0
ENDBLK
  5
22B
330
21F
100
AcDbEntity
  8
0
100
AcDbBlockEnd
  0
BLOCK
  5
236
330
22C
100
AcDbEntity
  8
0
100
AcDbBlockBegin
  2
GDimGGroup6
 70
     0
 71
     0
 10
0.0
 20
0.0
 30
0.0
  3
GDimGGroup6
  1

  0
HATCH
  5
22E
330
22C
100
AcDbEntity
  8
Default
  6
Continuous
 62
     7
 48
25.4
100
AcDbHatch
 10
0.0
 20
0.0
 30
0.0
210
0.0
220
0.0
230
1.0
  2
SOLID
 70
     1
 71
     0
 91
        1
 92
        1
 93
        3
 72
     1
 10
320.5261331900406
 20
322.091163227895
 11
319.1927997933773
 21
322.091163227895
 72
     1
 10
319.1927997933773
 20
322.091163227895
 11
319.8594664917089
 21
318.0911630379052
 72
     1
 10
319.8594664917089
 20
318.0911630379052
 11
320.5261331900406
 21
322.091163227895
 97
        0
 75
     0
 76
     1
 98
        0
  0
LWPOLYLINE
  5
22F
330
22C
100
AcDbEntity
  8
Default
  6
Continuous
 62
     7
 48
25.4
370
    20
100
AcDbPolyline
 90
        4
 70
     1
 43
0.0
 10
320.52613319
 20
322.0911632279
 10
319.8594664917
 20
318.0911630379
 10
319.1927997934
 20
322.0911632279
 10
320.52613319
 20
322.0911632279
  0
HATCH
  5
230
330
22C
100
AcDbEntity
  8
Default
  6
Continuous
 62
     7
 48
25.4
100
AcDbHatch
 10
0.0
 20
0.0
 30
0.0
210
0.0
220
0.0
230
1.0
  2
SOLID
 70
     1
 71
     0
 91
        1
 92
        1
 93
        3
 72
     1
 10
320.5261331900406
 20
380.0911624902876
 11
319.8594664917089
 21
384.0911626802774
 72
     1
 10
319.8594664917089
 20
384.0911626802774
 11
319.1927997933773
 21
380.0911624902876
 72
     1
 10
319.1927997933773
 20
380.0911624902876
 11
320.5261331900406
 21
380.0911624902876
 97
        0
 75
     0
 76
     1
 98
        0
  0
LWPOLYLINE
  5
231
330
22C
100
AcDbEntity
  8
Default
  6
Continuous
 62
     7
 48
25.4
370
    20
100
AcDbPolyline
 90
        4
 70
     1
 43
0.0
 10
320.52613319
 20
380.0911624903
 10
319.8594664917
 20
384.0911626803
 10
319.1927997934
 20
380.0911624903
 10
320.52613319
 20
380.0911624903
  0
LINE
  5
232
330
22C
100
AcDbEntity
  8
Default
  6
Continuous
 62
     7
 48
25.4
100
AcDbLine
 10
241.775355278
 20
318.0911630379
 30
0.0
 11
321.8594665867
 21
318.0911630379
 31
0.0
  0
LINE
  5
233
330
22C
100
AcDbEntity
  8
Default
  6
Continuous
 62
     7
 48
25.4
100
AcDbLine
 10
241.775355278
 20
384.0911630379
 30
0.0
 11
321.8594665867
 21
384.0911630379
 31
0.0
  0
LINE
  5
234
330
22C
100
AcDbEntity
  8
Default
  6
Continuous
 62
     7
 48
25.4
100
AcDbLine
 10
319.8594664917
 20
318.0911630379
 30
0.0
 11
319.8594664917
 21
384.0911626803
 31
0.0
  0
TEXT
  5
235
330
22C
100
AcDbEntity
  8
Default
  6
Continuous
 62
     7
 48
25.4
100
AcDbText
 10
318.8594664917
 20
346.3955106852
 30
0.0
 40
4.0
  1
165
 50
90.0
  7
SEACAD_arial_ttf
 11
314.8594664917
 21
346.3955106852
 31
0.0
100
AcDbText
 73
     3
  0
ENDBLK
  5
237
330
22C
100
AcDbEntity
  8
0
100
AcDbBlockEnd
  0
BLOCK
  5
243
330
238
100
AcDbEntity
  8
0
100
AcDbBlockBegin
  2
GDimGGroup7
 70
     0
 71
     0
 10
0.0
 20
0.0
 30
0.0
  3
GDimGGroup7
  1

  0
HATCH
  5
23A
330
238
100
AcDbEntity
  8
Default
  6
Continuous
 62
     7
 48
25.4
100
AcDbHatch
 10
0.0
 20
0.0
 30
0.0
210
0.0
220
0.0
230
1.0
  2
SOLID
 70
     1
 71
     0
 91
        1
 92
        1
 93
        3
 72
     1
 10
118.309182747936
 20
285.9539055414223
 11
118.9758494462677
 21
281.9539053514325
 72
     1
 10
118.9758494462677
 20
281.9539053514325
 11
119.6425161445993
 21
285.9539055414223
 72
     1
 10
119.6425161445993
 20
285.9539055414223
 11
118.309182747936
 21
285.9539055414223
 97
        0
 75
     0
 76
     1
 98
        0
  0
LWPOLYLINE
  5
23B
330
238
100
AcDbEntity
  8
Default
  6
Continuous
 62
     7
 48
25.4
370
    20
100
AcDbPolyline
 90
        4
 70
     1
 43
0.0
 10
118.3091827479
 20
285.9539055414
 10
118.9758494463
 20
281.9539053514
 10
119.6425161446
 20
285.9539055414
 10
118.3091827479
 20
285.9539055414
  0
HATCH
  5
23C
330
238
100
AcDbEntity
  8
Default
  6
Continuous
 62
     7
 48
25.4
100
AcDbHatch
 10
0.0
 20
0.0
 30
0.0
210
0.0
220
0.0
230
1.0
  2
SOLID
 70
     1
 71
     0
 91
        1
 92
        1
 93
        3
 72
     1
 10
118.309182747936
 20
301.953905370059
 11
119.6425161445993
 21
301.953905370059
 72
     1
 10
119.6425161445993
 20
301.953905370059
 11
118.9758494462677
 21
305.9539055600488
 72
     1
 10
118.9758494462677
 20
305.9539055600488
 11
118.309182747936
 21
301.953905370059
 97
        0
 75
     0
 76
     1
 98
        0
  0
LWPOLYLINE
  5
23D
330
238
100
AcDbEntity
  8
Default
  6
Continuous
 62
     7
 48
25.4
370
    20
100
AcDbPolyline
 90
        4
 70
     1
 43
0.0
 10
118.3091827479
 20
301.9539053701
 10
118.9758494463
 20
305.95390556
 10
119.6425161446
 20
301.9539053701
 10
118.3091827479
 20
301.9539053701
  0
LINE
  5
23E
330
238
100
AcDbEntity
  8
Default
  6
Continuous
 62
     7
 48
25.4
100
AcDbLine
 10
167.375355583
 20
281.9539053514
 30
0.0
 11
116.9758493513
 21
281.9539053514
 31
0.0
  0
LINE
  5
23F
330
238
100
AcDbEntity
  8
Default
  6
Continuous
 62
     7
 48
25.4
100
AcDbLine
 10
167.375355278
 20
305.9539053514
 30
0.0
 11
116.9758493513
 21
305.9539053514
 31
0.0
  0
LINE
  5
240
330
238
100
AcDbEntity
  8
Default
  6
Continuous
 62
     7
 48
25.4
100
AcDbLine
 10
118.9758494463
 20
281.9539053514
 30
0.0
 11
118.9758494463
 21
305.95390556
 31
0.0
  0
TEXT
  5
241
330
238
100
AcDbEntity
  8
Default
  6
Continuous
 62
     7
 48
25.4
100
AcDbText
 10
117.9758494463
 20
294.5041724275
 30
0.0
 40
4.0
  1
60
 50
90.0
  7
SEACAD_arial_ttf
 11
113.9758494463
 21
294.5041724275
 31
0.0
100
AcDbText
 73
     3
  0
TEXT
  5
242
330
238
100
AcDbEntity
  8
Default
  6
Continuous
 62
     7
 48
25.4
100
AcDbText
 10
117.9758494463
 20
287.1427689187
 30
0.0
 40
4.0
  1
O
 50
90.0
  7
SEACAD_semeca1_ttf
 11
113.9758494463
 21
287.1427689187
 31
0.0
100
AcDbText
 73
     3
  0
ENDBLK
  5
244
330
238
100
AcDbEntity
  8
0
100
AcDbBlockEnd
  0
BLOCK
  5
250
330
245
100
AcDbEntity
  8
0
100
AcDbBlockBegin
  2
GDimGGroup8
 70
     0
 71
     0
 10
0.0
 20
0.0
 30
0.0
  3
GDimGGroup8
  1

  0
HATCH
  5
247
330
245
100
AcDbEntity
  8
Default
  6
Continuous
 62
     7
 48
25.4
100
AcDbHatch
 10
0.0
 20
0.0
 30
0.0
210
0.0
220
0.0
230
1.0
  2
SOLID
 70
     1
 71
     0
 91
        1
 92
        1
 93
        3
 72
     1
 10
76.8769339429287
 20
258.5801055414223
 11
77.54360064126034
 21
254.5801053514325
 72
     1
 10
77.54360064126034
 20
254.5801053514325
 11
78.21026733959198
 21
258.5801055414223
 72
     1
 10
78.21026733959198
 20
258.5801055414223
 11
76.8769339429287
 21
258.5801055414223
 97
        0
 75
     0
 76
     1
 98
        0
  0
LWPOLYLINE
  5
248
330
245
100
AcDbEntity
  8
Default
  6
Continuous
 62
     7
 48
25.4
370
    20
100
AcDbPolyline
 90
        4
 70
     1
 43
0.0
 10
76.8769339429
 20
258.5801055414
 10
77.5436006413
 20
254.5801053514
 10
78.2102673396
 20
258.5801055414
 10
76.8769339429
 20
258.5801055414
  0
HATCH
  5
249
330
245
100
AcDbEntity
  8
Default
  6
Continuous
 62
     7
 48
25.4
100
AcDbHatch
 10
0.0
 20
0.0
 30
0.0
210
0.0
220
0.0
230
1.0
  2
SOLID
 70
     1
 71
     0
 91
        1
 92
        1
 93
        3
 72
     1
 10
76.8769339429287
 20
329.3277054784441
 11
78.21026733959198
 21
329.3277054784441
 72
     1
 10
78.21026733959198
 20
329.3277054784441
 11
77.54360064126034
 21
333.3277056684339
 72
     1
 10
77.54360064126034
 20
333.3277056684339
 11
76.8769339429287
 21
329.3277054784441
 97
        0
 75
     0
 76
     1
 98
        0
  0
LWPOLYLINE
  5
24A
330
245
100
AcDbEntity
  8
Default
  6
Continuous
 62
     7
 48
25.4
370
    20
100
AcDbPolyline
 90
        4
 70
     1
 43
0.0
 10
76.8769339429
 20
329.3277054784
 10
77.5436006413
 20
333.3277056684
 10
78.2102673396
 20
329.3277054784
 10
76.8769339429
 20
329.3277054784
  0
LINE
  5
24B
330
245
100
AcDbEntity
  8
Default
  6
Continuous
 62
     7
 48
25.4
100
AcDbLine
 10
154.175355278
 20
254.5801053514
 30
0.0
 11
75.5436005463
 21
254.5801053514
 31
0.0
  0
LINE
  5
24C
330
245
100
AcDbEntity
  8
Default
  6
Continuous
 62
     7
 48
25.4
100
AcDbLine
 10
154.175355278
 20
333.3277053514
 30
0.0
 11
75.5436005463
 21
333.3277053514
 31
0.0
  0
LINE
  5
24D
330
245
100
AcDbEntity
  8
Default
  6
Continuous
 62
     7
 48
25.4
100
AcDbLine
 10
77.5436006413
 20
254.5801053514
 30
0.0
 11
77.5436006413
 21
333.3277056684
 31
0.0
  0
TEXT
  5
24E
330
245
100
AcDbEntity
  8
Default
  6
Continuous
 62
     7
 48
25.4
100
AcDbText
 10
76.5436006413
 20
287.4606942208
 30
0.0
 40
4.0
  1
196.869
 50
90.0
  7
SEACAD_arial_ttf
 11
72.5436006413
 21
287.4606942208
 31
0.0
100
AcDbText
 73
     3
  0
TEXT
  5
24F
330
245
100
AcDbEntity
  8
Default
  6
Continuous
 62
     7
 48
25.4
100
AcDbText
 10
76.5436006413
 20
280.0992907121
 30
0.0
 40
4.0
  1
O
 50
90.0
  7
SEACAD_semeca1_ttf
 11
72.5436006413
 21
280.0992907121
 31
0.0
100
AcDbText
 73
     3
  0
ENDBLK
  5
251
330
245
100
AcDbEntity
  8
0
100
AcDbBlockEnd
  0
BLOCK
  5
25E
330
252
100
AcDbEntity
  8
0
100
AcDbBlockBegin
  2
GDimGGroup9
 70
     0
 71
     0
 10
0.0
 20
0.0
 30
0.0
  3
GDimGGroup9
  1

  0
HATCH
  5
254
330
252
100
AcDbEntity
  8
Default
  6
Continuous
 62
     7
 48
25.4
100
AcDbHatch
 10
0.0
 20
0.0
 30
0.0
210
0.0
220
0.0
230
1.0
  2
SOLID
 70
     1
 71
     0
 91
        1
 92
        1
 93
        3
 72
     1
 10
77.65735279866776
 20
346.7690544958414
 11
77.72632561064312
 21
342.7144658905953
 72
     1
 10
77.72632561064312
 20
342.7144658905954
 11
78.97608276858406
 21
346.5722571048472
 72
     1
 10
78.97608276858406
 20
346.5722571048472
 11
77.65735279866776
 21
346.7690544958414
 97
        0
 75
     0
 76
     1
 98
        0
  0
LWPOLYLINE
  5
255
330
252
100
AcDbEntity
  8
Default
  6
Continuous
 62
     7
 48
25.4
370
    20
100
AcDbPolyline
 90
        4
 70
     1
 43
0.0
 10
77.6573527987
 20
346.7690544958
 10
77.7263256106
 20
342.7144658906
 10
78.9760827686
 20
346.5722571048
 10
77.6573527987
 20
346.7690544958
  0
HATCH
  5
256
330
252
100
AcDbEntity
  8
Default
  6
Continuous
 62
     7
 48
25.4
100
AcDbHatch
 10
0.0
 20
0.0
 30
0.0
210
0.0
220
0.0
230
1.0
  2
SOLID
 70
     1
 71
     0
 91
        1
 92
        1
 93
        3
 72
     1
 10
77.9225019215785
 20
329.3463624445871
 11
77.15220674134274
 21
333.3277053514325
 72
     1
 10
77.15220674134274
 20
333.3277053514325
 11
76.58961799610238
 21
329.3117447054212
 72
     1
 10
76.58961799610238
 20
329.3117447054212
 11
77.9225019215785
 21
329.3463624445871
 97
        0
 75
     0
 76
     1
 98
        0
  0
LWPOLYLINE
  5
257
330
252
100
AcDbEntity
  8
Default
  6
Continuous
 62
     7
 48
25.4
370
    20
100
AcDbPolyline
 90
        4
 70
     1
 43
0.0
 10
77.9225019216
 20
329.3463624446
 10
77.1522067413
 20
333.3277053514
 10
76.5896179961
 20
329.3117447054
 10
77.9225019216
 20
329.3463624446
  0
LINE
  5
258
330
252
100
AcDbEntity
  8
Default
  6
Continuous
 62
     7
 48
25.4
100
AcDbLine
 10
160.5932445381
 20
332.5396876367
 30
0.0
 11
75.7412366795
 21
342.9582041634
 31
0.0
  0
LINE
  5
259
330
252
100
AcDbEntity
  8
Default
  6
Continuous
 62
     7
 48
25.4
100
AcDbLine
 10
154.175355278
 20
333.3277053514
 30
0.0
 11
75.1522101388
 21
333.3277053514
 31
0.0
  0
ARC
  5
25A
330
252
100
AcDbEntity
  8
Default
  6
Continuous
 62
     7
 48
25.4
100
AcDbCircle
 10
154.175355278
 20
333.3277053514
 30
0.0
 40
77.0231485366816
100
AcDbArc
 50
167.0489808271
 51
180.0000000525
  0
ARC
  5
25B
330
252
100
AcDbEntity
  8
Default
  6
Continuous
 62
     7
 48
25.4
100
AcDbCircle
 10
154.175355278
 20
333.3277053514
 30
0.0
 40
77.02314853668904
100
AcDbArc
 50
180.0
 51
185.9510191729
  0
TEXT
  5
25C
330
252
100
AcDbEntity
  8
Default
  6
Continuous
 62
     7
 48
25.4
100
AcDbText
 10
75.6681393986
 20
327.7970970462
 30
0.0
 40
4.0
  1
7°
 50
86.5
  7
SEACAD_arial_ttf
 11
71.6756002049
 21
328.0412912044
 31
0.0
100
AcDbText
 73
     3
  0
TEXT
  5
25D
330
252
100
AcDbEntity
  8
Default
  6
Continuous
 62
     7
 48
25.4
100
AcDbText
 10
76.1682065659
 20
335.9731229602
 30
0.0
 40
4.0
  1
7'30"
 50
86.5
  7
SEACAD_arial_ttf
 11
72.1756673722
 21
336.2173171184
 31
0.0
100
AcDbText
 73
     3
  0
ENDBLK
  5
25F
330
252
100
AcDbEntity
  8
0
100
AcDbBlockEnd
  0
BLOCK
  5
268
330
260
100
AcDbEntity
  8
0
100
AcDbBlockBegin
  2
GDimGGroup10
 70
     0
 71
     0
 10
0.0
 20
0.0
 30
0.0
  3
GDimGGroup10
  1

  0
HATCH
  5
262
330
260
100
AcDbEntity
  8
Default
  6
Continuous
 62
     7
 48
25.4
100
AcDbHatch
 10
0.0
 20
0.0
 30
0.0
210
0.0
220
0.0
230
1.0
  2
SOLID
 70
     1
 71
     0
 91
        1
 92
        1
 93
        3
 72
     1
 10
171.3753554680147
 20
309.9767582819832
 11
171.3753554680147
 21
311.3100916786465
 72
     1
 10
171.3753554680147
 20
311.3100916786465
 11
167.3753552780249
 21
310.6434249803149
 72
     1
 10
167.3753552780249
 20
310.6434249803149
 11
171.3753554680147
 21
309.9767582819832
 97
        0
 75
     0
 76
     1
 98
        0
  0
LWPOLYLINE
  5
263
330
260
100
AcDbEntity
  8
Default
  6
Continuous
 62
     7
 48
25.4
370
    20
100
AcDbPolyline
 90
        4
 70
     1
 43
0.0
 10
171.375355468
 20
309.976758282
 10
167.375355278
 20
310.6434249803
 10
171.375355468
 20
311.3100916786
 10
171.375355468
 20
309.976758282
  0
HATCH
  5
264
330
260
100
AcDbEntity
  8
Default
  6
Continuous
 62
     7
 48
25.4
100
AcDbHatch
 10
0.0
 20
0.0
 30
0.0
210
0.0
220
0.0
230
1.0
  2
SOLID
 70
     1
 71
     0
 91
        1
 92
        1
 93
        3
 72
     1
 10
178.9916742303171
 20
309.9767582819832
 11
182.9916744203069
 21
310.6434249803149
 72
     1
 10
182.9916744203069
 20
310.6434249803149
 11
178.9916742303171
 21
311.3100916786465
 72
     1
 10
178.9916742303171
 20
311.3100916786465
 11
178.9916742303171
 21
309.9767582819832
 97
        0
 75
     0
 76
     1
 98
        0
  0
LWPOLYLINE
  5
265
330
260
100
AcDbEntity
  8
Default
  6
Continuous
 62
     7
 48
25.4
370
    20
100
AcDbPolyline
 90
        4
 70
     1
 43
0.0
 10
178.9916742303
 20
309.976758282
 10
182.9916744203
 20
310.6434249803
 10
178.9916742303
 20
311.3100916786
 10
178.9916742303
 20
309.976758282
  0
LINE
  5
266
330
260
100
AcDbEntity
  8
Default
  6
Continuous
 62
     7
 48
25.4
100
AcDbLine
 10
143.2124052838
 20
310.6434249803
 30
0.0
 11
182.9916744203
 21
310.6434249803
 31
0.0
  0
TEXT
  5
267
330
260
100
AcDbEntity
  8
Default
  6
Continuous
 62
     7
 48
25.4
100
AcDbText
 10
144.6124056433
 20
311.6434249803
 30
0.0
 40
4.0
  1
39
  7
SEACAD_arial_ttf
 11
144.6124056433
 21
315.6434249803
 31
0.0
100
AcDbText
 73
     3
  0
ENDBLK
  5
269
330
260
100
AcDbEntity
  8
0
100
AcDbBlockEnd
  0
BLOCK
  5
35E
330
26A
100
AcDbEntity
  8
0
100
AcDbBlockBegin
  2
SE2
 70
     0
 71
     0
 10
0.0
 20
0.0
 30
0.0
  3
SE2
  1

  0
LINE
  5
26D
330
26A
100
AcDbEntity
  8
DV3_Default
  6
CENTER2
 62
     7
 48
25.4
100
AcDbLine
 10
339.9145246802
 20
291.9574394915
 30
0.0
 11
536.6851573303
 21
291.9574394915
 31
0.0
  0
LINE
  5
26E
330
26A
100
AcDbEntity
  8
DV3_Default
  6
CENTER2
 62
     7
 48
25.4
100
AcDbLine
 10
437.4730736412
 20
390.7081092322
 30
0.0
 11
437.4730736412
 21
189.6382862889
 31
0.0
  0
LINE
  5
26F
330
26A
100
AcDbEntity
  8
DV3_Default
  6
CENTER2
 62
     7
 48
25.4
100
AcDbLine
 10
437.4730736412
 20
291.9574394915
 30
0.0
 11
521.2322679049
 21
243.5990461362
 31
0.0
  0
LINE
  5
270
330
26A
100
AcDbEntity
  8
DV3_Default
  6
CENTER2
 62
     7
 48
25.4
100
AcDbLine
 10
476.6896621885
 20
302.4654927226
 30
0.0
 11
489.053512765
 21
305.7783765
 31
0.0
  0
LINE
  5
271
330
26A
100
AcDbEntity
  8
DV3_Default
  6
CENTER2
 62
     7
 48
25.4
100
AcDbLine
 10
466.1816089573
 20
320.6659748076
 30
0.0
 11
475.2325757565
 21
329.7169416068
 31
0.0
  0
CIRCLE
  5
272
330
26A
100
AcDbEntity
  8
DV3_Default
  6
Continuous
 62
     7
 48
25.4
100
AcDbCircle
 10
482.8715874768
 20
304.1219346113
 30
0.0
 40
6.4
  0
CIRCLE
  5
273
330
26A
100
AcDbEntity
  8
DV3_Default
  6
Continuous
 62
     7
 48
25.4
100
AcDbCircle
 10
482.8715874768
 20
304.1219346113
 30
0.0
 40
4.2
  0
CIRCLE
  5
274
330
26A
100
AcDbEntity
  8
DV3_Default
  6
Continuous
 62
     7
 48
25.4
100
AcDbCircle
 10
470.7070923569
 20
325.1914582072
 30
0.0
 40
6.4
  0
CIRCLE
  5
275
330
26A
100
AcDbEntity
  8
DV3_Default
  6
Continuous
 62
     7
 48
25.4
100
AcDbCircle
 10
470.7070923569
 20
325.1914582072
 30
0.0
 40
4.2
  0
ARC
  5
276
330
26A
100
AcDbEntity
  8
DV3_Default
  6
CENTER2
 62
     7
 48
25.4
100
AcDbCircle
 10
437.4730736412
 20
291.9574394915
 30
0.0
 40
47.00000000000001
100
AcDbArc
 50
7.1919811195
 51
52.8080188805
  0
LINE
  5
277
330
26A
100
AcDbEntity
  8
DV3_Default
  6
CENTER2
 62
     7
 48
25.4
100
AcDbLine
 10
466.1816089573
 20
320.6659748076
 30
0.0
 11
475.2325757565
 21
329.7169416068
 31
0.0
  0
CIRCLE
  5
278
330
26A
100
AcDbEntity
  8
DV3_Default
  6
Continuous
 62
     7
 48
25.4
100
AcDbCircle
 10
464.9246856243
 20
299.3130767533
 30
0.0
 40
3.0
  0
CIRCLE
  5
279
330
26A
100
AcDbEntity
  8
DV3_Default
  6
Continuous
 62
     7
 48
25.4
100
AcDbCircle
 10
464.9246856243
 20
299.3130767533
 30
0.0
 40
2.8
  0
LINE
  5
27A
330
26A
100
AcDbEntity
  8
DV3_Default
  6
Continuous
 62
     7
 48
25.4
100
AcDbLine
 10
463.4757968849
 20
298.9248481856
 30
0.0
 11
464.5364570567
 21
297.8641880139
 31
0.0
  0
LINE
  5
27B
330
26A
100
AcDbEntity
  8
DV3_Default
  6
Continuous
 62
     7
 48
25.4
100
AcDbLine
 10
464.5364570567
 20
297.8641880139
 30
0.0
 11
465.9853457961
 21
298.2524165815
 31
0.0
  0
LINE
  5
27C
330
26A
100
AcDbEntity
  8
DV3_Default
  6
Continuous
 62
     7
 48
25.4
100
AcDbLine
 10
465.9853457961
 20
298.2524165815
 30
0.0
 11
466.3735743637
 21
299.7013053209
 31
0.0
  0
LINE
  5
27D
330
26A
100
AcDbEntity
  8
DV3_Default
  6
Continuous
 62
     7
 48
25.4
100
AcDbLine
 10
466.3735743637
 20
299.7013053209
 30
0.0
 11
465.312914192
 21
300.7619654927
 31
0.0
  0
LINE
  5
27E
330
26A
100
AcDbEntity
  8
DV3_Default
  6
Continuous
 62
     7
 48
25.4
100
AcDbLine
 10
465.312914192
 20
300.7619654927
 30
0.0
 11
463.8640254525
 21
300.3737369251
 31
0.0
  0
LINE
  5
27F
330
26A
100
AcDbEntity
  8
DV3_Default
  6
Continuous
 62
     7
 48
25.4
100
AcDbLine
 10
463.8640254525
 20
300.3737369251
 30
0.0
 11
463.4757968849
 21
298.9248481856
 31
0.0
  0
CIRCLE
  5
280
330
26A
100
AcDbEntity
  8
DV3_Default
  6
Continuous
 62
     7
 48
25.4
100
AcDbCircle
 10
457.5690483625
 20
312.0534142128
 30
0.0
 40
3.0
  0
CIRCLE
  5
281
330
26A
100
AcDbEntity
  8
DV3_Default
  6
Continuous
 62
     7
 48
25.4
100
AcDbCircle
 10
457.5690483625
 20
312.0534142128
 30
0.0
 40
2.8
  0
LINE
  5
282
330
26A
100
AcDbEntity
  8
DV3_Default
  6
Continuous
 62
     7
 48
25.4
100
AcDbLine
 10
456.5083881907
 20
310.992754041
 30
0.0
 11
457.9572769301
 21
310.6045254734
 31
0.0
  0
LINE
  5
283
330
26A
100
AcDbEntity
  8
DV3_Default
  6
Continuous
 62
     7
 48
25.4
100
AcDbLine
 10
457.9572769301
 20
310.6045254734
 30
0.0
 11
459.0179371019
 21
311.6651856451
 31
0.0
  0
LINE
  5
284
330
26A
100
AcDbEntity
  8
DV3_Default
  6
Continuous
 62
     7
 48
25.4
100
AcDbLine
 10
459.0179371019
 20
311.6651856451
 30
0.0
 11
458.6297085343
 21
313.1140743846
 31
0.0
  0
LINE
  5
285
330
26A
100
AcDbEntity
  8
DV3_Default
  6
Continuous
 62
     7
 48
25.4
100
AcDbLine
 10
458.6297085343
 20
313.1140743846
 30
0.0
 11
457.1808197948
 21
313.5023029522
 31
0.0
  0
LINE
  5
286
330
26A
100
AcDbEntity
  8
DV3_Default
  6
Continuous
 62
     7
 48
25.4
100
AcDbLine
 10
457.1808197948
 20
313.5023029522
 30
0.0
 11
456.1201596231
 21
312.4416427805
 31
0.0
  0
LINE
  5
287
330
26A
100
AcDbEntity
  8
DV3_Default
  6
Continuous
 62
     7
 48
25.4
100
AcDbLine
 10
456.1201596231
 20
312.4416427805
 30
0.0
 11
456.5083881907
 21
310.992754041
 31
0.0
  0
LINE
  5
288
330
26A
100
AcDbEntity
  8
DV3_Default
  6
CENTER2
 62
     7
 48
25.4
100
AcDbLine
 10
476.6896621885
 20
302.4654927226
 30
0.0
 11
489.053512765
 21
305.7783765
 31
0.0
  0
LINE
  5
289
330
26A
100
AcDbEntity
  8
DV3_Default
  6
CENTER2
 62
     7
 48
25.4
100
AcDbLine
 10
462.0269081454
 20
298.536619618
 30
0.0
 11
467.8224631032
 21
300.0895338886
 31
0.0
  0
LINE
  5
28A
330
26A
100
AcDbEntity
  8
DV3_Default
  6
CENTER2
 62
     7
 48
25.4
100
AcDbLine
 10
455.4477280189
 20
309.9320938692
 30
0.0
 11
459.6903687061
 21
314.1747345564
 31
0.0
  0
ARC
  5
28B
330
26A
100
AcDbEntity
  8
DV3_Default
  6
CENTER2
 62
     7
 48
25.4
100
AcDbCircle
 10
437.4730736412
 20
291.9574394915
 30
0.0
 40
28.42
100
AcDbArc
 50
38.9490765948
 51
51.0509234052
  0
ARC
  5
28C
330
26A
100
AcDbEntity
  8
DV3_Default
  6
CENTER2
 62
     7
 48
25.4
100
AcDbCircle
 10
437.4730736412
 20
291.9574394915
 30
0.0
 40
28.42
100
AcDbArc
 50
8.9490765948
 51
21.0509234052
  0
LINE
  5
28D
330
26A
100
AcDbEntity
  8
DV3_Default
  6
CENTER2
 62
     7
 48
25.4
100
AcDbLine
 10
408.764538325
 20
320.6659748076
 30
0.0
 11
399.7135715258
 21
329.7169416068
 31
0.0
  0
LINE
  5
28E
330
26A
100
AcDbEntity
  8
DV3_Default
  6
CENTER2
 62
     7
 48
25.4
100
AcDbLine
 10
398.2564850938
 20
302.4654927226
 30
0.0
 11
385.8926345173
 21
305.7783765
 31
0.0
  0
CIRCLE
  5
28F
330
26A
100
AcDbEntity
  8
DV3_Default
  6
Continuous
 62
     7
 48
25.4
100
AcDbCircle
 10
404.2390549254
 20
325.1914582072
 30
0.0
 40
6.4
  0
CIRCLE
  5
290
330
26A
100
AcDbEntity
  8
DV3_Default
  6
Continuous
 62
     7
 48
25.4
100
AcDbCircle
 10
404.2390549254
 20
325.1914582072
 30
0.0
 40
4.2
  0
CIRCLE
  5
291
330
26A
100
AcDbEntity
  8
DV3_Default
  6
Continuous
 62
     7
 48
25.4
100
AcDbCircle
 10
392.0745598056
 20
304.1219346113
 30
0.0
 40
6.4
  0
CIRCLE
  5
292
330
26A
100
AcDbEntity
  8
DV3_Default
  6
Continuous
 62
     7
 48
25.4
100
AcDbCircle
 10
392.0745598056
 20
304.1219346113
 30
0.0
 40
4.2
  0
ARC
  5
293
330
26A
100
AcDbEntity
  8
DV3_Default
  6
CENTER2
 62
     7
 48
25.4
100
AcDbCircle
 10
437.4730736412
 20
291.9574394915
 30
0.0
 40
47.00000000000001
100
AcDbArc
 50
127.1919811195
 51
172.8080188805
  0
LINE
  5
294
330
26A
100
AcDbEntity
  8
DV3_Default
  6
CENTER2
 62
     7
 48
25.4
100
AcDbLine
 10
398.2564850938
 20
302.4654927226
 30
0.0
 11
385.8926345173
 21
305.7783765
 31
0.0
  0
CIRCLE
  5
295
330
26A
100
AcDbEntity
  8
DV3_Default
  6
Continuous
 62
     7
 48
25.4
100
AcDbCircle
 10
417.3770989198
 20
312.0534142128
 30
0.0
 40
3.0
  0
CIRCLE
  5
296
330
26A
100
AcDbEntity
  8
DV3_Default
  6
Continuous
 62
     7
 48
25.4
100
AcDbCircle
 10
417.3770989198
 20
312.0534142128
 30
0.0
 40
2.8
  0
LINE
  5
297
330
26A
100
AcDbEntity
  8
DV3_Default
  6
Continuous
 62
     7
 48
25.4
100
AcDbLine
 10
418.4377590916
 20
310.992754041
 30
0.0
 11
418.8259876593
 21
312.4416427805
 31
0.0
  0
LINE
  5
298
330
26A
100
AcDbEntity
  8
DV3_Default
  6
Continuous
 62
     7
 48
25.4
100
AcDbLine
 10
418.8259876593
 20
312.4416427805
 30
0.0
 11
417.7653274875
 21
313.5023029522
 31
0.0
  0
LINE
  5
299
330
26A
100
AcDbEntity
  8
DV3_Default
  6
Continuous
 62
     7
 48
25.4
100
AcDbLine
 10
417.7653274875
 20
313.5023029522
 30
0.0
 11
416.3164387481
 21
313.1140743846
 31
0.0
  0
LINE
  5
29A
330
26A
100
AcDbEntity
  8
DV3_Default
  6
Continuous
 62
     7
 48
25.4
100
AcDbLine
 10
416.3164387481
 20
313.1140743846
 30
0.0
 11
415.9282101804
 21
311.6651856451
 31
0.0
  0
LINE
  5
29B
330
26A
100
AcDbEntity
  8
DV3_Default
  6
Continuous
 62
     7
 48
25.4
100
AcDbLine
 10
415.9282101804
 20
311.6651856451
 30
0.0
 11
416.9888703522
 21
310.6045254734
 31
0.0
  0
LINE
  5
29C
330
26A
100
AcDbEntity
  8
DV3_Default
  6
Continuous
 62
     7
 48
25.4
100
AcDbLine
 10
416.9888703522
 20
310.6045254734
 30
0.0
 11
418.4377590916
 21
310.992754041
 31
0.0
  0
CIRCLE
  5
29D
330
26A
100
AcDbEntity
  8
DV3_Default
  6
Continuous
 62
     7
 48
25.4
100
AcDbCircle
 10
410.021461658
 20
299.3130767533
 30
0.0
 40
3.0
  0
CIRCLE
  5
29E
330
26A
100
AcDbEntity
  8
DV3_Default
  6
Continuous
 62
     7
 48
25.4
100
AcDbCircle
 10
410.021461658
 20
299.3130767533
 30
0.0
 40
2.8
  0
LINE
  5
29F
330
26A
100
AcDbEntity
  8
DV3_Default
  6
Continuous
 62
     7
 48
25.4
100
AcDbLine
 10
411.4703503975
 20
298.9248481856
 30
0.0
 11
411.0821218298
 21
300.3737369251
 31
0.0
  0
LINE
  5
2A0
330
26A
100
AcDbEntity
  8
DV3_Default
  6
Continuous
 62
     7
 48
25.4
100
AcDbLine
 10
411.0821218298
 20
300.3737369251
 30
0.0
 11
409.6332330904
 21
300.7619654927
 31
0.0
  0
LINE
  5
2A1
330
26A
100
AcDbEntity
  8
DV3_Default
  6
Continuous
 62
     7
 48
25.4
100
AcDbLine
 10
409.6332330904
 20
300.7619654927
 30
0.0
 11
408.5725729186
 21
299.7013053209
 31
0.0
  0
LINE
  5
2A2
330
26A
100
AcDbEntity
  8
DV3_Default
  6
Continuous
 62
     7
 48
25.4
100
AcDbLine
 10
408.5725729186
 20
299.7013053209
 30
0.0
 11
408.9608014863
 21
298.2524165815
 31
0.0
  0
LINE
  5
2A3
330
26A
100
AcDbEntity
  8
DV3_Default
  6
Continuous
 62
     7
 48
25.4
100
AcDbLine
 10
408.9608014863
 20
298.2524165815
 30
0.0
 11
410.4096902257
 21
297.8641880139
 31
0.0
  0
LINE
  5
2A4
330
26A
100
AcDbEntity
  8
DV3_Default
  6
Continuous
 62
     7
 48
25.4
100
AcDbLine
 10
410.4096902257
 20
297.8641880139
 30
0.0
 11
411.4703503975
 21
298.9248481856
 31
0.0
  0
LINE
  5
2A5
330
26A
100
AcDbEntity
  8
DV3_Default
  6
CENTER2
 62
     7
 48
25.4
100
AcDbLine
 10
408.764538325
 20
320.6659748076
 30
0.0
 11
399.7135715258
 21
329.7169416068
 31
0.0
  0
LINE
  5
2A6
330
26A
100
AcDbEntity
  8
DV3_Default
  6
CENTER2
 62
     7
 48
25.4
100
AcDbLine
 10
419.4984192634
 20
309.9320938692
 30
0.0
 11
415.2557785763
 21
314.1747345564
 31
0.0
  0
LINE
  5
2A7
330
26A
100
AcDbEntity
  8
DV3_Default
  6
CENTER2
 62
     7
 48
25.4
100
AcDbLine
 10
412.9192391369
 20
298.536619618
 30
0.0
 11
407.1236841792
 21
300.0895338886
 31
0.0
  0
ARC
  5
2A8
330
26A
100
AcDbEntity
  8
DV3_Default
  6
CENTER2
 62
     7
 48
25.4
100
AcDbCircle
 10
437.4730736412
 20
291.9574394915
 30
0.0
 40
28.42
100
AcDbArc
 50
158.9490765948
 51
171.0509234052
  0
ARC
  5
2A9
330
26A
100
AcDbEntity
  8
DV3_Default
  6
CENTER2
 62
     7
 48
25.4
100
AcDbCircle
 10
437.4730736412
 20
291.9574394915
 30
0.0
 40
28.42
100
AcDbArc
 50
128.9490765948
 51
141.0509234052
  0
LINE
  5
2AA
330
26A
100
AcDbEntity
  8
DV3_Default
  6
Continuous
 62
     7
 48
25.4
100
AcDbLine
 10
437.473073641
 20
383.1291184577
 30
0.0
 11
425.073073641
 21
383.1291184577
 31
0.0
  0
LINE
  5
2AB
330
26A
100
AcDbEntity
  8
DV3_Default
  6
Continuous
 62
     7
 48
25.4
100
AcDbLine
 10
437.473073641
 20
383.1291184577
 30
0.0
 11
449.873073641
 21
383.1291184577
 31
0.0
  0
LINE
  5
2AC
330
26A
100
AcDbEntity
  8
DV3_Default
  6
Continuous
 62
     7
 48
25.4
100
AcDbLine
 10
449.873073641
 20
383.1291184577
 30
0.0
 11
449.873073641
 21
317.1291184577
 31
0.0
  0
LINE
  5
2AD
330
26A
100
AcDbEntity
  8
DV3_Default
  6
Continuous
 62
     7
 48
25.4
100
AcDbLine
 10
425.073073641
 20
317.1291184577
 30
0.0
 11
425.073073641
 21
383.1291184577
 31
0.0
  0
LINE
  5
2AE
330
26A
100
AcDbEntity
  8
DV3_Default
  6
Continuous
 62
     7
 48
25.4
100
AcDbLine
 10
449.873073641
 20
382.7291184577
 30
0.0
 11
450.673073641
 21
382.7291184577
 31
0.0
  0
LINE
  5
2AF
330
26A
100
AcDbEntity
  8
DV3_Default
  6
Continuous
 62
     7
 48
25.4
100
AcDbLine
 10
437.473073641
 20
383.1291184577
 30
0.0
 11
425.073073641
 21
383.1291184577
 31
0.0
  0
LINE
  5
2B0
330
26A
100
AcDbEntity
  8
DV3_Default
  6
Continuous
 62
     7
 48
25.4
100
AcDbLine
 10
425.073073641
 20
382.7291184577
 30
0.0
 11
424.273073641
 21
382.7291184577
 31
0.0
  0
LINE
  5
2B1
330
26A
100
AcDbEntity
  8
DV3_Default
  6
Continuous
 62
     7
 48
25.4
100
AcDbLine
 10
424.273073641
 20
382.7291184577
 30
0.0
 11
418.6349179163
 21
380.6769975977
 31
0.0
  0
LINE
  5
2B2
330
26A
100
AcDbEntity
  8
DV3_Default
  6
Continuous
 62
     7
 48
25.4
100
AcDbLine
 10
418.6349179163
 20
380.6769975977
 30
0.0
 11
418.6349179163
 21
379.9638249912
 31
0.0
  0
LINE
  5
2B3
330
26A
100
AcDbEntity
  8
DV3_Default
  6
Continuous
 62
     7
 48
25.4
100
AcDbLine
 10
449.873073641
 20
382.7291184577
 30
0.0
 11
450.673073641
 21
382.7291184577
 31
0.0
  0
LINE
  5
2B4
330
26A
100
AcDbEntity
  8
DV3_Default
  6
Continuous
 62
     7
 48
25.4
100
AcDbLine
 10
450.673073641
 20
382.7291184577
 30
0.0
 11
456.3112293657
 21
380.6769975977
 31
0.0
  0
LINE
  5
2B5
330
26A
100
AcDbEntity
  8
DV3_Default
  6
Continuous
 62
     7
 48
25.4
100
AcDbLine
 10
456.3112293657
 20
380.6769975977
 30
0.0
 11
456.3112293657
 21
379.9638249912
 31
0.0
  0
CIRCLE
  5
2B6
330
26A
100
AcDbEntity
  8
DV3_Default
  6
Continuous
 62
     7
 48
25.4
100
AcDbCircle
 10
437.473073641
 20
368.3291184577
 30
0.0
 40
6.4
  0
CIRCLE
  5
2B7
330
26A
100
AcDbEntity
  8
DV3_Default
  6
Continuous
 62
     7
 48
25.4
100
AcDbCircle
 10
437.473073641
 20
368.3291184577
 30
0.0
 40
6.0
  0
LINE
  5
2B8
330
26A
100
AcDbEntity
  8
DV3_Default
  6
Continuous
 62
     7
 48
25.4
100
AcDbLine
 10
437.473073641
 20
372.3291184577
 30
0.0
 11
434.0089720259
 21
370.3291184577
 31
0.0
  0
LINE
  5
2B9
330
26A
100
AcDbEntity
  8
DV3_Default
  6
Continuous
 62
     7
 48
25.4
100
AcDbLine
 10
434.0089720259
 20
370.3291184577
 30
0.0
 11
434.0089720259
 21
366.3291184577
 31
0.0
  0
LINE
  5
2BA
330
26A
100
AcDbEntity
  8
DV3_Default
  6
Continuous
 62
     7
 48
25.4
100
AcDbLine
 10
434.0089720259
 20
366.3291184577
 30
0.0
 11
437.473073641
 21
364.3291184577
 31
0.0
  0
LINE
  5
2BB
330
26A
100
AcDbEntity
  8
DV3_Default
  6
Continuous
 62
     7
 48
25.4
100
AcDbLine
 10
437.473073641
 20
364.3291184577
 30
0.0
 11
440.9371752561
 21
366.3291184577
 31
0.0
  0
LINE
  5
2BC
330
26A
100
AcDbEntity
  8
DV3_Default
  6
Continuous
 62
     7
 48
25.4
100
AcDbLine
 10
440.9371752561
 20
366.3291184577
 30
0.0
 11
440.9371752561
 21
370.3291184577
 31
0.0
  0
LINE
  5
2BD
330
26A
100
AcDbEntity
  8
DV3_Default
  6
Continuous
 62
     7
 48
25.4
100
AcDbLine
 10
440.9371752561
 20
370.3291184577
 30
0.0
 11
437.473073641
 21
372.3291184577
 31
0.0
  0
LINE
  5
2BE
330
26A
100
AcDbEntity
  8
DV3_Default
  6
CENTER2
 62
     7
 48
25.4
100
AcDbLine
 10
429.673073641
 20
368.3291184577
 30
0.0
 11
445.273073641
 21
368.3291184577
 31
0.0
  0
CIRCLE
  5
2BF
330
26A
100
AcDbEntity
  8
DV3_Default
  6
Continuous
 62
     7
 48
25.4
100
AcDbCircle
 10
437.473073641
 20
351.1291184577
 30
0.0
 40
6.4
  0
CIRCLE
  5
2C0
330
26A
100
AcDbEntity
  8
DV3_Default
  6
Continuous
 62
     7
 48
25.4
100
AcDbCircle
 10
437.473073641
 20
351.1291184577
 30
0.0
 40
6.0
  0
LINE
  5
2C1
330
26A
100
AcDbEntity
  8
DV3_Default
  6
Continuous
 62
     7
 48
25.4
100
AcDbLine
 10
437.473073641
 20
347.1291184577
 30
0.0
 11
434.0089720259
 21
349.1291184577
 31
0.0
  0
LINE
  5
2C2
330
26A
100
AcDbEntity
  8
DV3_Default
  6
Continuous
 62
     7
 48
25.4
100
AcDbLine
 10
434.0089720259
 20
349.1291184577
 30
0.0
 11
434.0089720259
 21
353.1291184577
 31
0.0
  0
LINE
  5
2C3
330
26A
100
AcDbEntity
  8
DV3_Default
  6
Continuous
 62
     7
 48
25.4
100
AcDbLine
 10
434.0089720259
 20
353.1291184577
 30
0.0
 11
437.473073641
 21
355.1291184577
 31
0.0
  0
LINE
  5
2C4
330
26A
100
AcDbEntity
  8
DV3_Default
  6
Continuous
 62
     7
 48
25.4
100
AcDbLine
 10
437.473073641
 20
355.1291184577
 30
0.0
 11
440.9371752561
 21
353.1291184577
 31
0.0
  0
LINE
  5
2C5
330
26A
100
AcDbEntity
  8
DV3_Default
  6
Continuous
 62
     7
 48
25.4
100
AcDbLine
 10
440.9371752561
 20
353.1291184577
 30
0.0
 11
440.9371752561
 21
349.1291184577
 31
0.0
  0
LINE
  5
2C6
330
26A
100
AcDbEntity
  8
DV3_Default
  6
Continuous
 62
     7
 48
25.4
100
AcDbLine
 10
440.9371752561
 20
349.1291184577
 30
0.0
 11
437.473073641
 21
347.1291184577
 31
0.0
  0
LINE
  5
2C7
330
26A
100
AcDbEntity
  8
DV3_Default
  6
CENTER2
 62
     7
 48
25.4
100
AcDbLine
 10
428.9864247163
 20
351.1291184577
 30
0.0
 11
445.8224551449
 21
351.1291184577
 31
0.0
  0
CIRCLE
  5
2C8
330
26A
100
AcDbEntity
  8
DV3_Default
  6
HIDDEN2
 62
     7
 48
25.4
100
AcDbCircle
 10
501.5202764137
 20
291.8756818912
 30
0.0
 40
2.0
  0
CIRCLE
  5
2C9
330
26A
100
AcDbEntity
  8
DV3_Default
  6
HIDDEN2
 62
     7
 48
25.4
100
AcDbCircle
 10
501.5202764137
 20
291.8756818912
 30
0.0
 40
1.800000000000001
  0
CIRCLE
  5
2CA
330
26A
100
AcDbEntity
  8
DV3_Default
  6
Continuous
 62
     7
 48
25.4
100
AcDbCircle
 10
437.4730736412
 20
291.9574394915
 30
0.0
 40
12.0
  0
ARC
  5
2CB
330
26A
100
AcDbEntity
  8
DV3_Default
  6
Continuous
 62
     7
 48
25.4
100
AcDbCircle
 10
437.4730736412
 20
291.9574394915
 30
0.0
 40
90.00000000000001
100
AcDbArc
 50
97.9192761596
 51
201.5661958878
  0
LINE
  5
2CC
330
26A
100
AcDbEntity
  8
DV3_Default
  6
Continuous
 62
     7
 48
25.4
100
AcDbLine
 10
515.7372434964
 20
246.771599932
 30
0.0
 11
516.0836536579
 21
246.571599932
 31
0.0
  0
LINE
  5
2CD
330
26A
100
AcDbEntity
  8
DV3_Default
  6
Continuous
 62
     7
 48
25.4
100
AcDbLine
 10
516.0836536579
 20
246.571599932
 30
0.0
 11
509.8836536579
 21
235.832884925
 31
0.0
  0
LINE
  5
2CE
330
26A
100
AcDbEntity
  8
DV3_Default
  6
Continuous
 62
     7
 48
25.4
100
AcDbLine
 10
509.8836536579
 20
235.832884925
 30
0.0
 11
509.4836536579
 21
235.140064602
 31
0.0
  0
LINE
  5
2CF
330
26A
100
AcDbEntity
  8
DV3_Default
  6
Continuous
 62
     7
 48
25.4
100
AcDbLine
 10
509.4836536579
 20
235.140064602
 30
0.0
 11
466.1823834687
 21
260.140064602
 31
0.0
  0
LINE
  5
2D0
330
26A
100
AcDbEntity
  8
DV3_Default
  6
Continuous
 62
     7
 48
25.4
100
AcDbLine
 10
452.221764516
 20
262.6608023246
 30
0.0
 11
470.2189635074
 21
293.8328725264
 31
0.0
  0
LINE
  5
2D1
330
26A
100
AcDbEntity
  8
DV3_Default
  6
Continuous
 62
     7
 48
25.4
100
AcDbLine
 10
515.7372434964
 20
246.771599932
 30
0.0
 11
516.0836536579
 21
246.571599932
 31
0.0
  0
LINE
  5
2D2
330
26A
100
AcDbEntity
  8
DV3_Default
  6
Continuous
 62
     7
 48
25.4
100
AcDbLine
 10
516.0836536579
 20
246.571599932
 30
0.0
 11
522.2836536579
 21
257.3103149389
 31
0.0
  0
LINE
  5
2D3
330
26A
100
AcDbEntity
  8
DV3_Default
  6
Continuous
 62
     7
 48
25.4
100
AcDbLine
 10
522.2836536579
 20
257.3103149389
 30
0.0
 11
522.6836536579
 21
258.0031352619
 31
0.0
  0
LINE
  5
2D4
330
26A
100
AcDbEntity
  8
DV3_Default
  6
Continuous
 62
     7
 48
25.4
100
AcDbLine
 10
522.6836536579
 20
258.0031352619
 30
0.0
 11
479.3823834687
 21
283.0031352619
 31
0.0
  0
LINE
  5
2D5
330
26A
100
AcDbEntity
  8
DV3_Default
  6
Continuous
 62
     7
 48
25.4
100
AcDbLine
 10
449.1254391944
 20
261.2966856811
 30
0.0
 11
469.8517446134
 21
297.1964457508
 31
0.0
  0
LINE
  5
2D6
330
26A
100
AcDbEntity
  8
DV3_Default
  6
Continuous
 62
     7
 48
25.4
100
AcDbLine
 10
522.6836536579
 20
258.0031352619
 30
0.0
 11
523.7255427239
 21
263.91198178
 31
0.0
  0
LINE
  5
2D7
330
26A
100
AcDbEntity
  8
DV3_Default
  6
Continuous
 62
     7
 48
25.4
100
AcDbLine
 10
523.7255427239
 20
263.91198178
 30
0.0
 11
523.1079171294
 21
264.2685680833
 31
0.0
  0
LINE
  5
2D8
330
26A
100
AcDbEntity
  8
DV3_Default
  6
Continuous
 62
     7
 48
25.4
100
AcDbLine
 10
509.8836536579
 20
235.832884925
 30
0.0
 11
509.4836536579
 21
235.140064602
 31
0.0
  0
LINE
  5
2D9
330
26A
100
AcDbEntity
  8
DV3_Default
  6
Continuous
 62
     7
 48
25.4
100
AcDbLine
 10
509.4836536579
 20
235.140064602
 30
0.0
 11
504.8873869992
 21
231.2833389439
 31
0.0
  0
LINE
  5
2DA
330
26A
100
AcDbEntity
  8
DV3_Default
  6
Continuous
 62
     7
 48
25.4
100
AcDbLine
 10
504.8873869992
 20
231.2833389439
 30
0.0
 11
504.2697614047
 21
231.6399252472
 31
0.0
  0
CIRCLE
  5
2DB
330
26A
100
AcDbEntity
  8
DV3_Default
  6
Continuous
 62
     7
 48
25.4
100
AcDbCircle
 10
502.2272471974
 20
254.571599932
 30
0.0
 40
4.0
  0
CIRCLE
  5
2DC
330
26A
100
AcDbEntity
  8
DV3_Default
  6
Continuous
 62
     7
 48
25.4
100
AcDbCircle
 10
487.3316102523
 20
263.171599932
 30
0.0
 40
4.0
  0
CIRCLE
  5
2DD
330
26A
100
AcDbEntity
  8
DV3_Default
  6
Continuous
 62
     7
 48
25.4
100
AcDbCircle
 10
487.3316102523
 20
263.171599932
 30
0.0
 40
3.600000000000001
  0
CIRCLE
  5
2DE
330
26A
100
AcDbEntity
  8
DV3_Default
  6
Continuous
 62
     7
 48
25.4
100
AcDbCircle
 10
502.2272471974
 20
254.571599932
 30
0.0
 40
3.600000000000001
  0
LINE
  5
2DF
330
26A
100
AcDbEntity
  8
DV3_Default
  6
Continuous
 62
     7
 48
25.4
100
AcDbLine
 10
516.0836536579
 20
246.571599932
 30
0.0
 11
513.5836536579
 21
242.241472913
 31
0.0
  0
LINE
  5
2E0
330
26A
100
AcDbEntity
  8
DV3_Default
  6
Continuous
 62
     7
 48
25.4
100
AcDbLine
 10
513.5836536579
 20
242.241472913
 30
0.0
 11
474.7412836686
 21
264.6671256824
 31
0.0
  0
LINE
  5
2E1
330
26A
100
AcDbEntity
  8
DV3_Default
  6
Continuous
 62
     7
 48
25.4
100
AcDbLine
 10
522.2836536579
 20
257.3103149389
 30
0.0
 11
522.6836536579
 21
258.0031352619
 31
0.0
  0
LINE
  5
2E2
330
26A
100
AcDbEntity
  8
DV3_Default
  6
Continuous
 62
     7
 48
25.4
100
AcDbLine
 10
522.2836536579
 20
257.3103149389
 30
0.0
 11
522.6836536579
 21
258.0031352619
 31
0.0
  0
LINE
  5
2E3
330
26A
100
AcDbEntity
  8
DV3_Default
  6
Continuous
 62
     7
 48
25.4
100
AcDbLine
 10
518.5836536579
 20
250.9017269509
 30
0.0
 11
479.7412836686
 21
273.3273797202
 31
0.0
  0
LINE
  5
2E4
330
26A
100
AcDbEntity
  8
DV3_Default
  6
Continuous
 62
     7
 48
25.4
100
AcDbLine
 10
506.6554504277
 20
246.241472913
 30
0.0
 11
511.6554504277
 21
254.9017269509
 31
0.0
  0
LINE
  5
2E5
330
26A
100
AcDbEntity
  8
DV3_Default
  6
Continuous
 62
     7
 48
25.4
100
AcDbLine
 10
480.1426375066
 20
264.3199338821
 30
0.0
 11
482.7426375066
 21
268.8232659818
 31
0.0
  0
LINE
  5
2E6
330
26A
100
AcDbEntity
  8
DV3_Default
  6
Continuous
 62
     7
 48
25.4
100
AcDbLine
 10
480.1426375066
 20
264.3199338821
 30
0.0
 11
481.0210984757
 21
261.041472913
 31
0.0
  0
LINE
  5
2E7
330
26A
100
AcDbEntity
  8
DV3_Default
  6
Continuous
 62
     7
 48
25.4
100
AcDbLine
 10
486.0210984757
 20
269.7017269509
 30
0.0
 11
482.7426375066
 21
268.8232659818
 31
0.0
  0
LINE
  5
2E8
330
26A
100
AcDbEntity
  8
DV3_Default
  6
Continuous
 62
     7
 48
25.4
100
AcDbLine
 10
466.1823834687
 20
260.140064602
 30
0.0
 11
454.6204061062
 21
266.8153753446
 31
0.0
  0
LINE
  5
2E9
330
26A
100
AcDbEntity
  8
DV3_Default
  6
Continuous
 62
     7
 48
25.4
100
AcDbLine
 10
479.3823834687
 20
283.0031352619
 30
0.0
 11
467.8204061062
 21
289.6784460046
 31
0.0
  0
LINE
  5
2EA
330
26A
100
AcDbEntity
  8
DV3_Default
  6
Continuous
 62
     7
 48
25.4
100
AcDbLine
 10
474.7412836686
 20
264.6671256824
 30
0.0
 11
462.2348610467
 21
271.8877121497
 31
0.0
  0
LINE
  5
2EB
330
26A
100
AcDbEntity
  8
DV3_Default
  6
Continuous
 62
     7
 48
25.4
100
AcDbLine
 10
462.2348610467
 20
271.8877121497
 30
0.0
 11
458.1348610467
 21
264.7863038387
 31
0.0
  0
LINE
  5
2EC
330
26A
100
AcDbEntity
  8
DV3_Default
  6
Continuous
 62
     7
 48
25.4
100
AcDbLine
 10
479.7412836686
 20
273.3273797202
 30
0.0
 11
467.2348610467
 21
280.5479661876
 31
0.0
  0
LINE
  5
2ED
330
26A
100
AcDbEntity
  8
DV3_Default
  6
Continuous
 62
     7
 48
25.4
100
AcDbLine
 10
467.2348610467
 20
280.5479661876
 30
0.0
 11
471.3348610467
 21
287.6493744986
 31
0.0
  0
ARC
  5
2EE
330
26A
100
AcDbEntity
  8
DV3_Default
  6
Continuous
 62
     7
 48
25.4
100
AcDbCircle
 10
468.5150963071
 20
274.0353193491
 30
0.0
 40
5.000000022230535
100
AcDbArc
 50
60.0
 51
240.0
  0
LINE
  5
2EF
330
26A
100
AcDbEntity
  8
DV3_Default
  6
Continuous
 62
     7
 48
25.4
100
AcDbLine
 10
359.2089037637
 20
246.7715999705
 30
0.0
 11
358.8624936022
 21
246.5715999705
 31
0.0
  0
LINE
  5
2F0
330
26A
100
AcDbEntity
  8
DV3_Default
  6
Continuous
 62
     7
 48
25.4
100
AcDbLine
 10
358.8624936022
 20
246.5715999705
 30
0.0
 11
352.6624936022
 21
257.3103149774
 31
0.0
  0
LINE
  5
2F1
330
26A
100
AcDbEntity
  8
DV3_Default
  6
Continuous
 62
     7
 48
25.4
100
AcDbLine
 10
352.6624936022
 20
257.3103149774
 30
0.0
 11
352.2624936022
 21
258.0031353004
 31
0.0
  0
LINE
  5
2F2
330
26A
100
AcDbEntity
  8
DV3_Default
  6
Continuous
 62
     7
 48
25.4
100
AcDbLine
 10
352.2624936022
 20
258.0031353004
 30
0.0
 11
395.5637637914
 21
283.0031353004
 31
0.0
  0
LINE
  5
2F3
330
26A
100
AcDbEntity
  8
DV3_Default
  6
Continuous
 62
     7
 48
25.4
100
AcDbLine
 10
404.7268415805
 20
293.8334581376
 30
0.0
 11
422.7244417105
 21
262.6607035295
 31
0.0
  0
LINE
  5
2F4
330
26A
100
AcDbEntity
  8
DV3_Default
  6
Continuous
 62
     7
 48
25.4
100
AcDbLine
 10
359.2089037637
 20
246.7715999705
 30
0.0
 11
358.8624936022
 21
246.5715999705
 31
0.0
  0
LINE
  5
2F5
330
26A
100
AcDbEntity
  8
DV3_Default
  6
Continuous
 62
     7
 48
25.4
100
AcDbLine
 10
358.8624936022
 20
246.5715999705
 30
0.0
 11
365.0624936022
 21
235.8328849635
 31
0.0
  0
LINE
  5
2F6
330
26A
100
AcDbEntity
  8
DV3_Default
  6
Continuous
 62
     7
 48
25.4
100
AcDbLine
 10
365.0624936022
 20
235.8328849635
 30
0.0
 11
365.4624936022
 21
235.1400646405
 31
0.0
  0
LINE
  5
2F7
330
26A
100
AcDbEntity
  8
DV3_Default
  6
Continuous
 62
     7
 48
25.4
100
AcDbLine
 10
365.4624936022
 20
235.1400646405
 30
0.0
 11
408.7637637914
 21
260.1400646405
 31
0.0
  0
LINE
  5
2F8
330
26A
100
AcDbEntity
  8
DV3_Default
  6
Continuous
 62
     7
 48
25.4
100
AcDbLine
 10
405.0960357175
 20
297.1947372303
 30
0.0
 11
425.8211578902
 21
261.297136952
 31
0.0
  0
LINE
  5
2F9
330
26A
100
AcDbEntity
  8
DV3_Default
  6
Continuous
 62
     7
 48
25.4
100
AcDbLine
 10
365.4624936022
 20
235.1400646405
 30
0.0
 11
370.0587602609
 21
231.2833389824
 31
0.0
  0
LINE
  5
2FA
330
26A
100
AcDbEntity
  8
DV3_Default
  6
Continuous
 62
     7
 48
25.4
100
AcDbLine
 10
370.0587602609
 20
231.2833389824
 30
0.0
 11
370.6763858554
 21
231.6399252857
 31
0.0
  0
LINE
  5
2FB
330
26A
100
AcDbEntity
  8
DV3_Default
  6
Continuous
 62
     7
 48
25.4
100
AcDbLine
 10
352.6624936022
 20
257.3103149774
 30
0.0
 11
352.2624936022
 21
258.0031353004
 31
0.0
  0
LINE
  5
2FC
330
26A
100
AcDbEntity
  8
DV3_Default
  6
Continuous
 62
     7
 48
25.4
100
AcDbLine
 10
352.2624936022
 20
258.0031353004
 30
0.0
 11
351.2206045362
 21
263.9119818185
 31
0.0
  0
LINE
  5
2FD
330
26A
100
AcDbEntity
  8
DV3_Default
  6
Continuous
 62
     7
 48
25.4
100
AcDbLine
 10
351.2206045362
 20
263.9119818185
 30
0.0
 11
351.8382301307
 21
264.2685681218
 31
0.0
  0
CIRCLE
  5
2FE
330
26A
100
AcDbEntity
  8
DV3_Default
  6
Continuous
 62
     7
 48
25.4
100
AcDbCircle
 10
372.7189000627
 20
254.5715999705
 30
0.0
 40
4.0
  0
CIRCLE
  5
2FF
330
26A
100
AcDbEntity
  8
DV3_Default
  6
Continuous
 62
     7
 48
25.4
100
AcDbCircle
 10
387.6145370078
 20
263.1715999705
 30
0.0
 40
4.0
  0
CIRCLE
  5
300
330
26A
100
AcDbEntity
  8
DV3_Default
  6
Continuous
 62
     7
 48
25.4
100
AcDbCircle
 10
387.6145370078
 20
263.1715999705
 30
0.0
 40
3.600000000000001
  0
CIRCLE
  5
301
330
26A
100
AcDbEntity
  8
DV3_Default
  6
Continuous
 62
     7
 48
25.4
100
AcDbCircle
 10
372.7189000627
 20
254.5715999705
 30
0.0
 40
3.600000000000001
  0
LINE
  5
302
330
26A
100
AcDbEntity
  8
DV3_Default
  6
Continuous
 62
     7
 48
25.4
100
AcDbLine
 10
358.8624936022
 20
246.5715999705
 30
0.0
 11
356.3624936022
 21
250.9017269894
 31
0.0
  0
LINE
  5
303
330
26A
100
AcDbEntity
  8
DV3_Default
  6
Continuous
 62
     7
 48
25.4
100
AcDbLine
 10
356.3624936022
 20
250.9017269894
 30
0.0
 11
395.2048635915
 21
273.3273797587
 31
0.0
  0
LINE
  5
304
330
26A
100
AcDbEntity
  8
DV3_Default
  6
Continuous
 62
     7
 48
25.4
100
AcDbLine
 10
365.0624936022
 20
235.8328849635
 30
0.0
 11
365.4624936022
 21
235.1400646405
 31
0.0
  0
LINE
  5
305
330
26A
100
AcDbEntity
  8
DV3_Default
  6
Continuous
 62
     7
 48
25.4
100
AcDbLine
 10
365.0624936022
 20
235.8328849635
 30
0.0
 11
365.4624936022
 21
235.1400646405
 31
0.0
  0
LINE
  5
306
330
26A
100
AcDbEntity
  8
DV3_Default
  6
Continuous
 62
     7
 48
25.4
100
AcDbLine
 10
361.3624936022
 20
242.2414729515
 30
0.0
 11
400.2048635915
 21
264.6671257209
 31
0.0
  0
LINE
  5
307
330
26A
100
AcDbEntity
  8
DV3_Default
  6
Continuous
 62
     7
 48
25.4
100
AcDbLine
 10
363.2906968324
 20
254.9017269894
 30
0.0
 11
368.2906968324
 21
246.2414729515
 31
0.0
  0
LINE
  5
308
330
26A
100
AcDbEntity
  8
DV3_Default
  6
Continuous
 62
     7
 48
25.4
100
AcDbLine
 10
392.2035097535
 20
268.8232660203
 30
0.0
 11
394.8035097535
 21
264.3199339206
 31
0.0
  0
LINE
  5
309
330
26A
100
AcDbEntity
  8
DV3_Default
  6
Continuous
 62
     7
 48
25.4
100
AcDbLine
 10
392.2035097535
 20
268.8232660203
 30
0.0
 11
388.9250487845
 21
269.7017269894
 31
0.0
  0
LINE
  5
30A
330
26A
100
AcDbEntity
  8
DV3_Default
  6
Continuous
 62
     7
 48
25.4
100
AcDbLine
 10
393.9250487845
 20
261.0414729515
 30
0.0
 11
394.8035097535
 21
264.3199339206
 31
0.0
  0
LINE
  5
30B
330
26A
100
AcDbEntity
  8
DV3_Default
  6
Continuous
 62
     7
 48
25.4
100
AcDbLine
 10
395.5637637914
 20
283.0031353004
 30
0.0
 11
407.1257411539
 21
289.6784460431
 31
0.0
  0
LINE
  5
30C
330
26A
100
AcDbEntity
  8
DV3_Default
  6
Continuous
 62
     7
 48
25.4
100
AcDbLine
 10
408.7637637914
 20
260.1400646405
 30
0.0
 11
420.3257411539
 21
266.8153753832
 31
0.0
  0
LINE
  5
30D
330
26A
100
AcDbEntity
  8
DV3_Default
  6
Continuous
 62
     7
 48
25.4
100
AcDbLine
 10
395.2048635915
 20
273.3273797587
 30
0.0
 11
407.7112862134
 21
280.5479662261
 31
0.0
  0
LINE
  5
30E
330
26A
100
AcDbEntity
  8
DV3_Default
  6
Continuous
 62
     7
 48
25.4
100
AcDbLine
 10
407.7112862134
 20
280.5479662261
 30
0.0
 11
403.6112862134
 21
287.6493745371
 31
0.0
  0
LINE
  5
30F
330
26A
100
AcDbEntity
  8
DV3_Default
  6
Continuous
 62
     7
 48
25.4
100
AcDbLine
 10
400.2048635915
 20
264.6671257209
 30
0.0
 11
412.7112862134
 21
271.8877121882
 31
0.0
  0
LINE
  5
310
330
26A
100
AcDbEntity
  8
DV3_Default
  6
Continuous
 62
     7
 48
25.4
100
AcDbLine
 10
412.7112862134
 20
271.8877121882
 30
0.0
 11
416.8112862134
 21
264.7863038772
 31
0.0
  0
ARC
  5
311
330
26A
100
AcDbEntity
  8
DV3_Default
  6
Continuous
 62
     7
 48
25.4
100
AcDbCircle
 10
406.4310509753
 20
274.0353193491
 30
0.0
 40
5.000000022230535
100
AcDbArc
 50
300.0
 51
120.0
  0
ARC
  5
312
330
26A
100
AcDbEntity
  8
DV3_Default
  6
Continuous
 62
     7
 48
25.4
100
AcDbCircle
 10
437.4730736412
 20
291.9574394915
 30
0.0
 40
51.00000000000001
100
AcDbArc
 50
291.0885978857
 51
314.9997339784
  0
ARC
  5
313
330
26A
100
AcDbEntity
  8
DV3_Default
  6
Continuous
 62
     7
 48
25.4
100
AcDbCircle
 10
437.4730736412
 20
291.9574394915
 30
0.0
 40
43.0
100
AcDbArc
 50
51.3706758216
 51
73.2394793196
  0
ARC
  5
314
330
26A
100
AcDbEntity
  8
DV3_Default
  6
Continuous
 62
     7
 48
25.4
100
AcDbCircle
 10
437.4730736412
 20
291.9574394915
 30
0.0
 40
32.8
100
AcDbArc
 50
233.7307424369
 51
306.2692574783
  0
ARC
  5
315
330
26A
100
AcDbEntity
  8
DV3_Default
  6
Continuous
 62
     7
 48
25.4
100
AcDbCircle
 10
437.4730736412
 20
291.9574394915
 30
0.0
 40
51.00000000000001
100
AcDbArc
 50
104.0717779663
 51
129.1507589956
  0
ARC
  5
316
330
26A
100
AcDbEntity
  8
DV3_Default
  6
Continuous
 62
     7
 48
25.4
100
AcDbCircle
 10
437.4730736412
 20
291.9574394915
 30
0.0
 40
51.00000000000001
100
AcDbArc
 50
140.8492410044
 51
159.1507589956
  0
ARC
  5
317
330
26A
100
AcDbEntity
  8
DV3_Default
  6
Continuous
 62
     7
 48
25.4
100
AcDbCircle
 10
437.4730736412
 20
291.9574394915
 30
0.0
 40
43.0
100
AcDbArc
 50
106.7605206809
 51
128.6293241784
  0
ARC
  5
318
330
26A
100
AcDbEntity
  8
DV3_Default
  6
Continuous
 62
     7
 48
25.4
100
AcDbCircle
 10
437.4730736412
 20
291.9574394915
 30
0.0
 40
43.0
100
AcDbArc
 50
141.3706758216
 51
158.6293241784
  0
ARC
  5
319
330
26A
100
AcDbEntity
  8
DV3_Default
  6
Continuous
 62
     7
 48
25.4
100
AcDbCircle
 10
437.4730736412
 20
291.9574394915
 30
0.0
 40
51.00000000000001
100
AcDbArc
 50
170.8492410044
 51
194.9997339784
  0
ARC
  5
31A
330
26A
100
AcDbEntity
  8
DV3_Default
  6
Continuous
 62
     7
 48
25.4
100
AcDbCircle
 10
437.4730736412
 20
291.9574394915
 30
0.0
 40
43.0
100
AcDbArc
 50
171.3706758216
 51
192.1228707974
  0
ARC
  5
31B
330
26A
100
AcDbEntity
  8
DV3_Default
  6
Continuous
 62
     7
 48
25.4
100
AcDbCircle
 10
437.4730736412
 20
291.9574394915
 30
0.0
 40
43.0
100
AcDbArc
 50
291.3824201462
 51
312.1228707974
  0
ARC
  5
31C
330
26A
100
AcDbEntity
  8
DV3_Default
  6
Continuous
 62
     7
 48
25.4
100
AcDbCircle
 10
437.4730736412
 20
291.9574394915
 30
0.0
 40
51.00000000000001
100
AcDbArc
 50
345.0002659699
 51
9.1507589956
  0
ARC
  5
31D
330
26A
100
AcDbEntity
  8
DV3_Default
  6
Continuous
 62
     7
 48
25.4
100
AcDbCircle
 10
437.4730736412
 20
291.9574394915
 30
0.0
 40
32.8
100
AcDbArc
 50
353.7307424369
 51
67.7871281087
  0
ARC
  5
31E
330
26A
100
AcDbEntity
  8
DV3_Default
  6
Continuous
 62
     7
 48
25.4
100
AcDbCircle
 10
437.4730736412
 20
291.9574394915
 30
0.0
 40
90.00000000000001
100
AcDbArc
 50
338.4338040836
 51
82.0807238406
  0
ARC
  5
31F
330
26A
100
AcDbEntity
  8
DV3_Default
  6
Continuous
 62
     7
 48
25.4
100
AcDbCircle
 10
437.4730736412
 20
291.9574394915
 30
0.0
 40
43.0
100
AcDbArc
 50
347.8771291404
 51
8.6293241784
  0
ARC
  5
320
330
26A
100
AcDbEntity
  8
DV3_Default
  6
Continuous
 62
     7
 48
25.4
100
AcDbCircle
 10
437.4730736412
 20
291.9574394915
 30
0.0
 40
43.0
100
AcDbArc
 50
21.3706758216
 51
38.6293241784
  0
ARC
  5
321
330
26A
100
AcDbEntity
  8
DV3_Default
  6
Continuous
 62
     7
 48
25.4
100
AcDbCircle
 10
437.4730736412
 20
291.9574394915
 30
0.0
 40
51.00000000000001
100
AcDbArc
 50
50.8492410044
 51
75.9282220341
  0
ARC
  5
322
330
26A
100
AcDbEntity
  8
DV3_Default
  6
Continuous
 62
     7
 48
25.4
100
AcDbCircle
 10
437.4730736412
 20
291.9574394915
 30
0.0
 40
51.00000000000001
100
AcDbArc
 50
20.8492410044
 51
39.1507589956
  0
ARC
  5
323
330
26A
100
AcDbEntity
  8
DV3_Default
  6
Continuous
 62
     7
 48
25.4
100
AcDbCircle
 10
437.4730736412
 20
291.9574394915
 30
0.0
 40
90.00000000000001
100
AcDbArc
 50
218.4338040836
 51
321.5661958878
  0
ARC
  5
324
330
26A
100
AcDbEntity
  8
DV3_Default
  6
Continuous
 62
     7
 48
25.4
100
AcDbCircle
 10
437.4730736412
 20
291.9574394915
 30
0.0
 40
32.8
100
AcDbArc
 50
112.212871892
 51
186.2692574783
  0
LINE
  5
325
330
26A
100
AcDbEntity
  8
DV3_Default
  6
CENTER2
 62
     7
 48
25.4
100
AcDbLine
 10
427.1066287275
 20
252.6590933439
 30
0.0
 11
423.7937449502
 21
240.2952427674
 31
0.0
  0
LINE
  5
326
330
26A
100
AcDbEntity
  8
DV3_Default
  6
CENTER2
 62
     7
 48
25.4
100
AcDbLine
 10
448.1227351899
 20
252.6590933439
 30
0.0
 11
451.4356189672
 21
240.2952427674
 31
0.0
  0
CIRCLE
  5
327
330
26A
100
AcDbEntity
  8
DV3_Default
  6
Continuous
 62
     7
 48
25.4
100
AcDbCircle
 10
425.4501868389
 20
246.4771680556
 30
0.0
 40
6.4
  0
CIRCLE
  5
328
330
26A
100
AcDbEntity
  8
DV3_Default
  6
Continuous
 62
     7
 48
25.4
100
AcDbCircle
 10
425.4501868389
 20
246.4771680556
 30
0.0
 40
4.2
  0
CIRCLE
  5
329
330
26A
100
AcDbEntity
  8
DV3_Default
  6
Continuous
 62
     7
 48
25.4
100
AcDbCircle
 10
449.7791770785
 20
246.4771680556
 30
0.0
 40
6.4
  0
CIRCLE
  5
32A
330
26A
100
AcDbEntity
  8
DV3_Default
  6
Continuous
 62
     7
 48
25.4
100
AcDbCircle
 10
449.7791770785
 20
246.4771680556
 30
0.0
 40
4.2
  0
ARC
  5
32B
330
26A
100
AcDbEntity
  8
DV3_Default
  6
CENTER2
 62
     7
 48
25.4
100
AcDbCircle
 10
437.6146819587
 20
291.8756818912
 30
0.0
 40
47.00000000000001
100
AcDbArc
 50
247.1919811195
 51
292.8080188805
  0
LINE
  5
32C
330
26A
100
AcDbEntity
  8
DV3_Default
  6
CENTER2
 62
     7
 48
25.4
100
AcDbLine
 10
448.1227351899
 20
252.6590933439
 30
0.0
 11
451.4356189672
 21
240.2952427674
 31
0.0
  0
CIRCLE
  5
32D
330
26A
100
AcDbEntity
  8
DV3_Default
  6
Continuous
 62
     7
 48
25.4
100
AcDbCircle
 10
430.2590446969
 20
264.4240699081
 30
0.0
 40
3.0
  0
CIRCLE
  5
32E
330
26A
100
AcDbEntity
  8
DV3_Default
  6
Continuous
 62
     7
 48
25.4
100
AcDbCircle
 10
430.2590446969
 20
264.4240699081
 30
0.0
 40
2.8
  0
LINE
  5
32F
330
26A
100
AcDbEntity
  8
DV3_Default
  6
Continuous
 62
     7
 48
25.4
100
AcDbLine
 10
430.6472732645
 20
265.8729586475
 30
0.0
 11
429.1983845251
 21
265.4847300799
 31
0.0
  0
LINE
  5
330
330
26A
100
AcDbEntity
  8
DV3_Default
  6
Continuous
 62
     7
 48
25.4
100
AcDbLine
 10
429.1983845251
 20
265.4847300799
 30
0.0
 11
428.8101559574
 21
264.0358413404
 31
0.0
  0
LINE
  5
331
330
26A
100
AcDbEntity
  8
DV3_Default
  6
Continuous
 62
     7
 48
25.4
100
AcDbLine
 10
428.8101559574
 20
264.0358413404
 30
0.0
 11
429.8708161292
 21
262.9751811687
 31
0.0
  0
LINE
  5
332
330
26A
100
AcDbEntity
  8
DV3_Default
  6
Continuous
 62
     7
 48
25.4
100
AcDbLine
 10
429.8708161292
 20
262.9751811687
 30
0.0
 11
431.3197048687
 21
263.3634097363
 31
0.0
  0
LINE
  5
333
330
26A
100
AcDbEntity
  8
DV3_Default
  6
Continuous
 62
     7
 48
25.4
100
AcDbLine
 10
431.3197048687
 20
263.3634097363
 30
0.0
 11
431.7079334363
 21
264.8122984758
 31
0.0
  0
LINE
  5
334
330
26A
100
AcDbEntity
  8
DV3_Default
  6
Continuous
 62
     7
 48
25.4
100
AcDbLine
 10
431.7079334363
 20
264.8122984758
 30
0.0
 11
430.6472732645
 21
265.8729586475
 31
0.0
  0
CIRCLE
  5
335
330
26A
100
AcDbEntity
  8
DV3_Default
  6
Continuous
 62
     7
 48
25.4
100
AcDbCircle
 10
444.9703192205
 20
264.4240699081
 30
0.0
 40
2.8
  0
LINE
  5
336
330
26A
100
AcDbEntity
  8
DV3_Default
  6
Continuous
 62
     7
 48
25.4
100
AcDbLine
 10
444.5820906529
 20
265.8729586475
 30
0.0
 11
443.5214304811
 21
264.8122984758
 31
0.0
  0
LINE
  5
337
330
26A
100
AcDbEntity
  8
DV3_Default
  6
Continuous
 62
     7
 48
25.4
100
AcDbLine
 10
443.5214304811
 20
264.8122984758
 30
0.0
 11
443.9096590487
 21
263.3634097363
 31
0.0
  0
LINE
  5
338
330
26A
100
AcDbEntity
  8
DV3_Default
  6
Continuous
 62
     7
 48
25.4
100
AcDbLine
 10
443.9096590487
 20
263.3634097363
 30
0.0
 11
445.3585477882
 21
262.9751811687
 31
0.0
  0
LINE
  5
339
330
26A
100
AcDbEntity
  8
DV3_Default
  6
Continuous
 62
     7
 48
25.4
100
AcDbLine
 10
445.3585477882
 20
262.9751811687
 30
0.0
 11
446.4192079599
 21
264.0358413404
 31
0.0
  0
LINE
  5
33A
330
26A
100
AcDbEntity
  8
DV3_Default
  6
Continuous
 62
     7
 48
25.4
100
AcDbLine
 10
446.4192079599
 20
264.0358413404
 30
0.0
 11
446.0309793923
 21
265.4847300799
 31
0.0
  0
LINE
  5
33B
330
26A
100
AcDbEntity
  8
DV3_Default
  6
Continuous
 62
     7
 48
25.4
100
AcDbLine
 10
446.0309793923
 20
265.4847300799
 30
0.0
 11
444.5820906529
 21
265.8729586475
 31
0.0
  0
LINE
  5
33C
330
26A
100
AcDbEntity
  8
DV3_Default
  6
CENTER2
 62
     7
 48
25.4
100
AcDbLine
 10
427.1066287275
 20
252.6590933439
 30
0.0
 11
423.7937449502
 21
240.2952427674
 31
0.0
  0
LINE
  5
33D
330
26A
100
AcDbEntity
  8
DV3_Default
  6
CENTER2
 62
     7
 48
25.4
100
AcDbLine
 10
431.0355018322
 20
267.321847387
 30
0.0
 11
429.4825875616
 21
261.5262924292
 31
0.0
  0
LINE
  5
33E
330
26A
100
AcDbEntity
  8
DV3_Default
  6
CENTER2
 62
     7
 48
25.4
100
AcDbLine
 10
444.1938620852
 20
267.321847387
 30
0.0
 11
445.7467763558
 21
261.5262924292
 31
0.0
  0
ARC
  5
33F
330
26A
100
AcDbEntity
  8
DV3_Default
  6
CENTER2
 62
     7
 48
25.4
100
AcDbCircle
 10
437.6146819587
 20
291.8756818912
 30
0.0
 40
28.42
100
AcDbArc
 50
278.9490765948
 51
291.0509234052
  0
ARC
  5
340
330
26A
100
AcDbEntity
  8
DV3_Default
  6
CENTER2
 62
     7
 48
25.4
100
AcDbCircle
 10
437.6146819587
 20
291.8756818912
 30
0.0
 40
28.42
100
AcDbArc
 50
248.9490765948
 51
261.0509234052
  0
ARC
  5
341
330
26A
100
AcDbEntity
  8
DV3_Default
  6
Continuous
 62
     7
 48
25.4
100
AcDbCircle
 10
437.4730736412
 20
291.9574394915
 30
0.0
 40
51.00000000000001
100
AcDbArc
 50
225.0002659699
 51
249.3061884437
  0
ARC
  5
342
330
26A
100
AcDbEntity
  8
DV3_Default
  6
Continuous
 62
     7
 48
25.4
100
AcDbCircle
 10
437.4730736412
 20
291.9574394915
 30
0.0
 40
43.0
100
AcDbArc
 50
227.8771291404
 51
248.8684650493
  0
ARC
  5
343
330
26A
100
AcDbEntity
  8
DV3_Default
  6
Continuous
 62
     7
 48
25.4
100
AcDbCircle
 10
437.4730736412
 20
291.9574394915
 30
0.0
 40
43.0
100
AcDbArc
 50
261.5162721381
 51
278.8987893318
  0
ARC
  5
344
330
26A
100
AcDbEntity
  8
DV3_Default
  6
Continuous
 62
     7
 48
25.4
100
AcDbCircle
 10
437.4730736412
 20
291.9574394915
 30
0.0
 40
51.00000000000001
100
AcDbArc
 50
261.0785487437
 51
279.1926115923
  0
LINE
  5
345
330
26A
100
AcDbEntity
  8
DV3_Default
  6
Continuous
 62
     7
 48
25.4
100
AcDbLine
 10
457.3224281124
 20
313.420545352
 30
0.0
 11
456.2617679406
 21
312.3598851802
 31
0.0
  0
LINE
  5
346
330
26A
100
AcDbEntity
  8
DV3_Default
  6
Continuous
 62
     7
 48
25.4
100
AcDbLine
 10
456.2617679406
 20
312.3598851802
 30
0.0
 11
456.6499965082
 21
310.9109964408
 31
0.0
  0
LINE
  5
347
330
26A
100
AcDbEntity
  8
DV3_Default
  6
Continuous
 62
     7
 48
25.4
100
AcDbLine
 10
455.6124777945
 20
319.2967414109
 30
0.0
 11
449.873073641
 21
319.2967411533
 31
0.0
  0
LINE
  5
348
330
26A
100
AcDbEntity
  8
DV3_Default
  6
Continuous
 62
     7
 48
25.4
100
AcDbLine
 10
458.3388338095
 20
317.296370363
 30
0.0
 11
449.873073641
 21
317.2964352777
 31
0.0
  0
LINE
  5
349
330
26A
100
AcDbEntity
  8
DV3_Default
  6
Continuous
 62
     7
 48
25.4
100
AcDbLine
 10
425.073073641
 20
319.2967400401
 30
0.0
 11
419.617280333
 21
319.2967397953
 31
0.0
  0
LINE
  5
34A
330
26A
100
AcDbEntity
  8
DV3_Default
  6
Continuous
 62
     7
 48
25.4
100
AcDbLine
 10
425.073073641
 20
317.2966254419
 30
0.0
 11
416.8880389472
 21
317.296688204
 31
0.0
  0
LINE
  5
34B
330
26A
100
AcDbEntity
  8
DV3_Default
  6
Continuous
 62
     7
 48
25.4
100
AcDbLine
 10
425.073073641
 20
317.1291184577
 30
0.0
 11
425.073073641
 21
315.8334557177
 31
0.0
  0
LINE
  5
34C
330
26A
100
AcDbEntity
  8
DV3_Default
  6
Continuous
 62
     7
 48
25.4
100
AcDbLine
 10
449.873073641
 20
317.1291184577
 30
0.0
 11
449.873073641
 21
315.8334557177
 31
0.0
  0
LINE
  5
34D
330
26A
100
AcDbEntity
  8
DV3_Default
  6
Continuous
 62
     7
 48
25.4
100
AcDbLine
 10
449.873073641
 20
315.8334557177
 30
0.0
 11
425.073073641
 21
315.8334557177
 31
0.0
  0
LINE
  5
34E
330
26A
100
AcDbEntity
  8
DV3_Default
  6
CENTER2
 62
     7
 48
25.4
100
AcDbLine
 10
490.350870798
 20
268.368974392
 30
0.0
 11
484.6735988901
 21
258.7091386084
 31
0.0
  0
LINE
  5
34F
330
26A
100
AcDbEntity
  8
DV3_Default
  6
CENTER2
 62
     7
 48
25.4
100
AcDbLine
 10
505.1158157389
 20
259.8639919072
 30
0.0
 11
499.6303186509
 21
249.8073202982
 31
0.0
  0
LINE
  5
350
330
26A
100
AcDbEntity
  8
DV3_Default
  6
CENTER2
 62
     7
 48
25.4
100
AcDbLine
 10
384.1555469879
 20
268.2779300436
 30
0.0
 11
390.9364034223
 21
258.3719832524
 31
0.0
  0
LINE
  5
351
330
26A
100
AcDbEntity
  8
DV3_Default
  6
CENTER2
 62
     7
 48
25.4
100
AcDbLine
 10
369.0506343451
 20
259.6162811435
 30
0.0
 11
376.2901191044
 21
249.5248781457
 31
0.0
  0
CIRCLE
  5
352
330
26A
100
AcDbEntity
  8
DV3_Default
  6
HIDDEN2
 62
     7
 48
25.4
100
AcDbCircle
 10
405.3786680962
 20
236.5318136493
 30
0.0
 40
2.0
  0
CIRCLE
  5
353
330
26A
100
AcDbEntity
  8
DV3_Default
  6
HIDDEN2
 62
     7
 48
25.4
100
AcDbCircle
 10
405.3786680962
 20
236.5318136493
 30
0.0
 40
1.800000000000001
  0
CIRCLE
  5
354
330
26A
100
AcDbEntity
  8
DV3_Default
  6
HIDDEN2
 62
     7
 48
25.4
100
AcDbCircle
 10
405.5202764137
 20
347.4648229339
 30
0.0
 40
2.0
  0
CIRCLE
  5
355
330
26A
100
AcDbEntity
  8
DV3_Default
  6
HIDDEN2
 62
     7
 48
25.4
100
AcDbCircle
 10
405.5202764137
 20
347.4648229339
 30
0.0
 40
1.800000000000001
  0
LINE
  5
356
330
26A
100
AcDbEntity
  8
DV3_Default
  6
CENTER2
 62
     7
 48
25.4
100
AcDbLine
 10
406.4486363674
 20
345.6933411259
 30
0.0
 11
404.4503081424
 21
349.1545471417
 31
0.0
  0
LINE
  5
357
330
26A
100
AcDbEntity
  8
DV3_Default
  6
CENTER2
 62
     7
 48
25.4
100
AcDbLine
 10
406.5169286573
 20
238.1763083725
 30
0.0
 11
404.52362417
 21
234.7238037255
 31
0.0
  0
ARC
  5
358
330
26A
100
AcDbEntity
  8
DV3_Default
  6
CENTER2
 62
     7
 48
25.4
100
AcDbCircle
 10
437.5202764137
 20
291.8756818912
 30
0.0
 40
64.0
100
AcDbArc
 50
358.2094340269
 51
1.7905659731
  0
ARC
  5
359
330
26A
100
AcDbEntity
  8
DV3_Default
  6
CENTER2
 62
     7
 48
25.4
100
AcDbCircle
 10
437.5202764137
 20
291.8756818912
 30
0.0
 40
64.0
100
AcDbArc
 50
238.0630508575
 51
241.6441769397
  0
ARC
  5
35A
330
26A
100
AcDbEntity
  8
DV3_Default
  6
CENTER2
 62
     7
 48
25.4
100
AcDbCircle
 10
437.5202764137
 20
291.8756818912
 30
0.0
 40
64.0
100
AcDbArc
 50
118.1428735883
 51
121.7110632548
  0
LINE
  5
35B
330
26A
100
AcDbEntity
  8
DV3_Default
  6
CENTER2
 62
     7
 48
25.4
100
AcDbLine
 10
437.4730736412
 20
291.9574394915
 30
0.0
 11
351.9069974054
 21
242.5558423433
 31
0.0
  0
CIRCLE
  5
35C
330
26A
100
AcDbEntity
  8
DV3_Default
  6
Continuous
 62
     7
 48
25.4
100
AcDbCircle
 10
437.4730736412
 20
291.9574394915
 30
0.0
 40
23.5
  0
CIRCLE
  5
35D
330
26A
100
AcDbEntity
  8
DV3_Default
  6
Continuous
 62
     7
 48
25.4
100
AcDbCircle
 10
444.9703192205
 20
264.4240699081
 30
0.0
 40
3.0
  0
ENDBLK
  5
35F
330
26A
100
AcDbEntity
  8
0
100
AcDbBlockEnd
  0
BLOCK
  5
36A
330
360
100
AcDbEntity
  8
0
100
AcDbBlockBegin
  2
GDimGGroup11
 70
     0
 71
     0
 10
0.0
 20
0.0
 30
0.0
  3
GDimGGroup11
  1

  0
HATCH
  5
362
330
360
100
AcDbEntity
  8
Default
  6
Continuous
 62
     7
 48
25.4
100
AcDbHatch
 10
0.0
 20
0.0
 30
0.0
210
0.0
220
0.0
230
1.0
  2
SOLID
 70
     1
 71
     0
 91
        1
 92
        1
 93
        3
 72
     1
 10
429.0730738309791
 20
399.8148314626338
 11
425.0730736409893
 21
399.1481647643022
 72
     1
 10
425.0730736409893
 20
399.1481647643022
 11
429.0730738309791
 21
398.4814980659705
 72
     1
 10
429.0730738309791
 20
398.4814980659705
 11
429.0730738309791
 21
399.8148314626338
 97
        0
 75
     0
 76
     1
 98
        0
  0
LWPOLYLINE
  5
363
330
360
100
AcDbEntity
  8
Default
  6
Continuous
 62
     7
 48
25.4
370
    20
100
AcDbPolyline
 90
        4
 70
     1
 43
0.0
 10
429.073073831
 20
399.8148314626
 10
425.073073641
 20
399.1481647643
 10
429.073073831
 20
398.481498066
 10
429.073073831
 20
399.8148314626
  0
HATCH
  5
364
330
360
100
AcDbEntity
  8
Default
  6
Continuous
 62
     7
 48
25.4
100
AcDbHatch
 10
0.0
 20
0.0
 30
0.0
210
0.0
220
0.0
230
1.0
  2
SOLID
 70
     1
 71
     0
 91
        1
 92
        1
 93
        3
 72
     1
 10
445.873074163275
 20
399.8148314626338
 11
445.873074163275
 21
398.4814980659705
 72
     1
 10
445.873074163275
 20
398.4814980659705
 11
449.8730743532648
 21
399.1481647643022
 72
     1
 10
449.8730743532648
 20
399.1481647643022
 11
445.873074163275
 21
399.8148314626338
 97
        0
 75
     0
 76
     1
 98
        0
  0
LWPOLYLINE
  5
365
330
360
100
AcDbEntity
  8
Default
  6
Continuous
 62
     7
 48
25.4
370
    20
100
AcDbPolyline
 90
        4
 70
     1
 43
0.0
 10
445.8730741633
 20
399.8148314626
 10
449.8730743533
 20
399.1481647643
 10
445.8730741633
 20
398.481498066
 10
445.8730741633
 20
399.8148314626
  0
LINE
  5
366
330
360
100
AcDbEntity
  8
Default
  6
Continuous
 62
     7
 48
25.4
100
AcDbLine
 10
425.073073641
 20
383.1291184577
 30
0.0
 11
425.073073641
 21
401.1481648593
 31
0.0
  0
LINE
  5
367
330
360
100
AcDbEntity
  8
Default
  6
Continuous
 62
     7
 48
25.4
100
AcDbLine
 10
449.873073641
 20
383.1291184577
 30
0.0
 11
449.873073641
 21
401.1481648593
 31
0.0
  0
LINE
  5
368
330
360
100
AcDbEntity
  8
Default
  6
Continuous
 62
     7
 48
25.4
100
AcDbLine
 10
425.073073641
 20
399.1481647643
 30
0.0
 11
449.8730743533
 21
399.1481647643
 31
0.0
  0
TEXT
  5
369
330
360
100
AcDbEntity
  8
Default
  6
Continuous
 62
     7
 48
25.4
100
AcDbText
 10
434.3426392145
 20
400.1481647643
 30
0.0
 40
4.0
  1
62
  7
SEACAD_arial_ttf
 11
434.3426392145
 21
404.1481647643
 31
0.0
100
AcDbText
 73
     3
  0
ENDBLK
  5
36B
330
360
100
AcDbEntity
  8
0
100
AcDbBlockEnd
  0
BLOCK
  5
376
330
36C
100
AcDbEntity
  8
0
100
AcDbBlockBegin
  2
GDimGGroup12
 70
     0
 71
     0
 10
0.0
 20
0.0
 30
0.0
  3
GDimGGroup12
  1

  0
HATCH
  5
36E
330
36C
100
AcDbEntity
  8
Default
  6
Continuous
 62
     7
 48
25.4
100
AcDbHatch
 10
0.0
 20
0.0
 30
0.0
210
0.0
220
0.0
230
1.0
  2
SOLID
 70
     1
 71
     0
 91
        1
 92
        1
 93
        3
 72
     1
 10
209.775355088035
 20
175.4234171346797
 11
213.7753552780249
 21
176.0900838330113
 72
     1
 10
213.7753552780249
 20
176.0900838330113
 11
209.775355088035
 21
176.756750531343
 72
     1
 10
209.775355088035
 20
176.756750531343
 11
209.775355088035
 21
175.4234171346797
 97
        0
 75
     0
 76
     1
 98
        0
  0
LWPOLYLINE
  5
36F
330
36C
100
AcDbEntity
  8
Default
  6
Continuous
 62
     7
 48
25.4
370
    20
100
AcDbPolyline
 90
        4
 70
     1
 43
0.0
 10
209.775355088
 20
175.4234171347
 10
213.775355278
 20
176.090083833
 10
209.775355088
 20
176.7567505313
 10
209.775355088
 20
175.4234171347
  0
HATCH
  5
370
330
36C
100
AcDbEntity
  8
Default
  6
Continuous
 62
     7
 48
25.4
100
AcDbHatch
 10
0.0
 20
0.0
 30
0.0
210
0.0
220
0.0
230
1.0
  2
SOLID
 70
     1
 71
     0
 91
        1
 92
        1
 93
        3
 72
     1
 10
158.1753561296262
 20
175.4234171346797
 11
158.1753561296262
 21
176.756750531343
 72
     1
 10
158.1753561296262
 20
176.756750531343
 11
154.1753559396364
 21
176.0900838330113
 72
     1
 10
154.1753559396364
 20
176.0900838330113
 11
158.1753561296262
 21
175.4234171346797
 97
        0
 75
     0
 76
     1
 98
        0
  0
LWPOLYLINE
  5
371
330
36C
100
AcDbEntity
  8
Default
  6
Continuous
 62
     7
 48
25.4
370
    20
100
AcDbPolyline
 90
        4
 70
     1
 43
0.0
 10
158.1753561296
 20
175.4234171347
 10
154.1753559396
 20
176.090083833
 10
158.1753561296
 20
176.7567505313
 10
158.1753561296
 20
175.4234171347
  0
LINE
  5
372
330
36C
100
AcDbEntity
  8
Default
  6
Continuous
 62
     7
 48
25.4
100
AcDbLine
 10
213.775355278
 20
204.7539053514
 30
0.0
 11
213.775355278
 21
174.090083738
 31
0.0
  0
LINE
  5
373
330
36C
100
AcDbEntity
  8
Default
  6
Continuous
 62
     7
 48
25.4
100
AcDbLine
 10
154.175355278
 20
218.3539053514
 30
0.0
 11
154.175355278
 21
174.090083738
 31
0.0
  0
LINE
  5
374
330
36C
100
AcDbEntity
  8
Default
  6
Continuous
 62
     7
 48
25.4
100
AcDbLine
 10
213.775355278
 20
176.090083833
 30
0.0
 11
154.1753559396
 21
176.090083833
 31
0.0
  0
TEXT
  5
375
330
36C
100
AcDbEntity
  8
Default
  6
Continuous
 62
     7
 48
25.4
100
AcDbText
 10
179.2797034349
 20
177.090083833
 30
0.0
 40
4.0
  1
149
  7
SEACAD_arial_ttf
 11
179.2797034349
 21
181.090083833
 31
0.0
100
AcDbText
 73
     3
  0
ENDBLK
  5
377
330
36C
100
AcDbEntity
  8
0
100
AcDbBlockEnd
  0
BLOCK
  5
383
330
378
100
AcDbEntity
  8
0
100
AcDbBlockBegin
  2
GDimGGroup13
 70
     0
 71
     0
 10
0.0
 20
0.0
 30
0.0
  3
GDimGGroup13
  1

  0
HATCH
  5
37A
330
378
100
AcDbEntity
  8
Default
  6
Continuous
 62
     7
 48
25.4
100
AcDbHatch
 10
0.0
 20
0.0
 30
0.0
210
0.0
220
0.0
230
1.0
  2
SOLID
 70
     1
 71
     0
 91
        1
 92
        1
 93
        3
 72
     1
 10
29.16707175706112
 20
207.9539055414223
 11
29.83373845539275
 21
203.9539053514325
 72
     1
 10
29.83373845539275
 20
203.9539053514325
 11
30.50040515372439
 21
207.9539055414223
 72
     1
 10
30.50040515372439
 20
207.9539055414223
 11
29.16707175706112
 21
207.9539055414223
 97
        0
 75
     0
 76
     1
 98
        0
  0
LWPOLYLINE
  5
37B
330
378
100
AcDbEntity
  8
Default
  6
Continuous
 62
     7
 48
25.4
370
    20
100
AcDbPolyline
 90
        4
 70
     1
 43
0.0
 10
29.1670717571
 20
207.9539055414
 10
29.8337384554
 20
203.9539053514
 10
30.5004051537
 20
207.9539055414
 10
29.1670717571
 20
207.9539055414
  0
HATCH
  5
37C
330
378
100
AcDbEntity
  8
Default
  6
Continuous
 62
     7
 48
25.4
100
AcDbHatch
 10
0.0
 20
0.0
 30
0.0
210
0.0
220
0.0
230
1.0
  2
SOLID
 70
     1
 71
     0
 91
        1
 92
        1
 93
        3
 72
     1
 10
29.16707175706112
 20
379.953912314
 11
30.50040515372439
 21
379.953912314
 72
     1
 10
30.50040515372439
 20
379.953912314
 11
29.83373845539275
 21
383.9539125039898
 72
     1
 10
29.83373845539275
 20
383.9539125039898
 11
29.16707175706112
 21
379.953912314
 97
        0
 75
     0
 76
     1
 98
        0
  0
LWPOLYLINE
  5
37D
330
378
100
AcDbEntity
  8
Default
  6
Continuous
 62
     7
 48
25.4
370
    20
100
AcDbPolyline
 90
        4
 70
     1
 43
0.0
 10
29.1670717571
 20
379.953912314
 10
29.8337384554
 20
383.953912504
 10
30.5004051537
 20
379.953912314
 10
29.1670717571
 20
379.953912314
  0
LINE
  5
37E
330
378
100
AcDbEntity
  8
Default
  6
Continuous
 62
     7
 48
25.4
100
AcDbLine
 10
161.3932445141
 20
203.9539053514
 30
0.0
 11
27.8337383604
 21
203.9539053514
 31
0.0
  0
LINE
  5
37F
330
378
100
AcDbEntity
  8
Default
  6
Continuous
 62
     7
 48
25.4
100
AcDbLine
 10
161.3932445141
 20
383.9539053514
 30
0.0
 11
27.8337383604
 21
383.9539053514
 31
0.0
  0
LINE
  5
380
330
378
100
AcDbEntity
  8
Default
  6
Continuous
 62
     7
 48
25.4
100
AcDbLine
 10
29.8337384554
 20
203.9539053514
 30
0.0
 11
29.8337384554
 21
383.953912504
 31
0.0
  0
TEXT
  5
381
330
378
100
AcDbEntity
  8
Default
  6
Continuous
 62
     7
 48
25.4
100
AcDbText
 10
28.8337384554
 20
292.9389585082
 30
0.0
 40
4.0
  1
450
 50
90.0
  7
SEACAD_arial_ttf
 11
24.8337384554
 21
292.9389585082
 31
0.0
100
AcDbText
 73
     3
  0
TEXT
  5
382
330
378
100
AcDbEntity
  8
Default
  6
Continuous
 62
     7
 48
25.4
100
AcDbText
 10
28.8337384554
 20
285.5775549994
 30
0.0
 40
4.0
  1
O
 50
90.0
  7
SEACAD_semeca1_ttf
 11
24.8337384554
 21
285.5775549994
 31
0.0
100
AcDbText
 73
     3
  0
ENDBLK
  5
384
330
378
100
AcDbEntity
  8
0
100
AcDbBlockEnd
  0
BLOCK
  5
391
330
385
100
AcDbEntity
  8
0
100
AcDbBlockBegin
  2
GDimGGroup14
 70
     0
 71
     0
 10
0.0
 20
0.0
 30
0.0
  3
GDimGGroup14
  1

  0
HATCH
  5
387
330
385
100
AcDbEntity
  8
Default
  6
Continuous
 62
     7
 48
25.4
100
AcDbHatch
 10
0.0
 20
0.0
 30
0.0
210
0.0
220
0.0
230
1.0
  2
SOLID
 70
     1
 71
     0
 91
        1
 92
        1
 93
        3
 72
     1
 10
53.02200839389842
 20
221.9539055414223
 11
53.68867509223005
 21
217.9539053514325
 72
     1
 10
53.68867509223005
 20
217.9539053514325
 11
54.35534179056168
 21
221.9539055414223
 72
     1
 10
54.35534179056168
 20
221.9539055414223
 11
53.02200839389842
 21
221.9539055414223
 97
        0
 75
     0
 76
     1
 98
        0
  0
LWPOLYLINE
  5
388
330
385
100
AcDbEntity
  8
Default
  6
Continuous
 62
     7
 48
25.4
370
    20
100
AcDbPolyline
 90
        4
 70
     1
 43
0.0
 10
53.0220083939
 20
221.9539055414
 10
53.6886750922
 20
217.9539053514
 10
54.3553417906
 20
221.9539055414
 10
53.0220083939
 20
221.9539055414
  0
HATCH
  5
389
330
385
100
AcDbEntity
  8
Default
  6
Continuous
 62
     7
 48
25.4
100
AcDbHatch
 10
0.0
 20
0.0
 30
0.0
210
0.0
220
0.0
230
1.0
  2
SOLID
 70
     1
 71
     0
 91
        1
 92
        1
 93
        3
 72
     1
 10
53.02200839389842
 20
365.9539002738619
 11
54.35534179056168
 21
365.9539002738619
 72
     1
 10
54.35534179056168
 20
365.9539002738619
 11
53.68867509223005
 21
369.9539004638517
 72
     1
 10
53.68867509223005
 20
369.9539004638517
 11
53.02200839389842
 21
365.9539002738619
 97
        0
 75
     0
 76
     1
 98
        0
  0
LWPOLYLINE
  5
38A
330
385
100
AcDbEntity
  8
Default
  6
Continuous
 62
     7
 48
25.4
370
    20
100
AcDbPolyline
 90
        4
 70
     1
 43
0.0
 10
53.0220083939
 20
365.9539002739
 10
53.6886750922
 20
369.9539004639
 10
54.3553417906
 20
365.9539002739
 10
53.0220083939
 20
365.9539002739
  0
LINE
  5
38B
330
385
100
AcDbEntity
  8
Default
  6
Continuous
 62
     7
 48
25.4
100
AcDbLine
 10
154.575355278
 20
217.9539053514
 30
0.0
 11
51.6886749972
 21
217.9539053514
 31
0.0
  0
LINE
  5
38C
330
385
100
AcDbEntity
  8
Default
  6
Continuous
 62
     7
 48
25.4
100
AcDbLine
 10
154.575355278
 20
369.9539053514
 30
0.0
 11
51.6886749972
 21
369.9539053514
 31
0.0
  0
LINE
  5
38D
330
385
100
AcDbEntity
  8
Default
  6
Continuous
 62
     7
 48
25.4
100
AcDbLine
 10
53.6886750922
 20
217.9539053514
 30
0.0
 11
53.6886750922
 21
369.9539004639
 31
0.0
  0
TEXT
  5
38E
330
385
100
AcDbEntity
  8
Default
  6
Continuous
 62
     7
 48
25.4
100
AcDbText
 10
52.6886750922
 20
288.1737350968
 30
0.0
 40
4.0
  1
380
 50
90.0
  7
SEACAD_arial_ttf
 11
48.6886750922
 21
288.1737350968
 31
0.0
100
AcDbText
 73
     3
  0
TEXT
  5
38F
330
385
100
AcDbEntity
  8
Default
  6
Continuous
 62
     7
 48
25.4
100
AcDbText
 10
52.6886750922
 20
299.9650394446
 30
0.0
 40
4.0
  1
H6
 50
90.0
  7
SEACAD_arial_ttf
 11
48.6886750922
 21
299.9650394446
 31
0.0
100
AcDbText
 73
     3
  0
TEXT
  5
390
330
385
100
AcDbEntity
  8
Default
  6
Continuous
 62
     7
 48
25.4
100
AcDbText
 10
52.6886750922
 20
280.812331588
 30
0.0
 40
4.0
  1
O
 50
90.0
  7
SEACAD_semeca1_ttf
 11
48.6886750922
 21
280.812331588
 31
0.0
100
AcDbText
 73
     3
  0
ENDBLK
  5
392
330
385
100
AcDbEntity
  8
0
100
AcDbBlockEnd
  0
BLOCK
  5
39D
330
393
100
AcDbEntity
  8
0
100
AcDbBlockBegin
  2
GDimGGroup15
 70
     0
 71
     0
 10
0.0
 20
0.0
 30
0.0
  3
GDimGGroup15
  1

  0
HATCH
  5
395
330
393
100
AcDbEntity
  8
Default
  6
Continuous
 62
     7
 48
25.4
100
AcDbHatch
 10
0.0
 20
0.0
 30
0.0
210
0.0
220
0.0
230
1.0
  2
SOLID
 70
     1
 71
     0
 91
        1
 92
        1
 93
        3
 72
     1
 10
150.1753550880351
 20
189.0680163101329
 11
154.1753552780249
 21
189.7346830084645
 72
     1
 10
154.1753552780249
 20
189.7346830084645
 11
150.1753550880351
 21
190.4013497067961
 72
     1
 10
150.1753550880351
 20
190.4013497067961
 11
150.1753550880351
 21
189.0680163101329
 97
        0
 75
     0
 76
     1
 98
        0
  0
LWPOLYLINE
  5
396
330
393
100
AcDbEntity
  8
Default
  6
Continuous
 62
     7
 48
25.4
370
    20
100
AcDbPolyline
 90
        4
 70
     1
 43
0.0
 10
150.175355088
 20
189.0680163101
 10
154.175355278
 20
189.7346830085
 10
150.175355088
 20
190.4013497068
 10
150.175355088
 20
189.0680163101
  0
HATCH
  5
397
330
393
100
AcDbEntity
  8
Default
  6
Continuous
 62
     7
 48
25.4
100
AcDbHatch
 10
0.0
 20
0.0
 30
0.0
210
0.0
220
0.0
230
1.0
  2
SOLID
 70
     1
 71
     0
 91
        1
 92
        1
 93
        3
 72
     1
 10
166.9753554680147
 20
189.0680163101329
 11
166.9753554680147
 21
190.4013497067961
 72
     1
 10
166.9753554680147
 20
190.4013497067961
 11
162.9753552780249
 21
189.7346830084645
 72
     1
 10
162.9753552780249
 20
189.7346830084645
 11
166.9753554680147
 21
189.0680163101329
 97
        0
 75
     0
 76
     1
 98
        0
  0
LWPOLYLINE
  5
398
330
393
100
AcDbEntity
  8
Default
  6
Continuous
 62
     7
 48
25.4
370
    20
100
AcDbPolyline
 90
        4
 70
     1
 43
0.0
 10
166.975355468
 20
189.0680163101
 10
162.975355278
 20
189.7346830085
 10
166.975355468
 20
190.4013497068
 10
166.975355468
 20
189.0680163101
  0
LINE
  5
399
330
393
100
AcDbEntity
  8
Default
  6
Continuous
 62
     7
 48
25.4
100
AcDbLine
 10
154.175355278
 20
218.3539053514
 30
0.0
 11
154.175355278
 21
187.7346829135
 31
0.0
  0
LINE
  5
39A
330
393
100
AcDbEntity
  8
Default
  6
Continuous
 62
     7
 48
25.4
100
AcDbLine
 10
162.975355278
 20
218.3539053514
 30
0.0
 11
162.975355278
 21
187.7346829135
 31
0.0
  0
LINE
  5
39B
330
393
100
AcDbEntity
  8
Default
  6
Continuous
 62
     7
 48
25.4
100
AcDbLine
 10
146.175354898
 20
189.7346830085
 30
0.0
 11
177.8391163722
 21
189.7346830085
 31
0.0
  0
TEXT
  5
39C
330
393
100
AcDbEntity
  8
Default
  6
Continuous
 62
     7
 48
25.4
100
AcDbText
 10
170.1782473788
 20
190.7346830085
 30
0.0
 40
4.0
  1
22
  7
SEACAD_arial_ttf
 11
170.1782473788
 21
194.7346830085
 31
0.0
100
AcDbText
 73
     3
  0
ENDBLK
  5
39E
330
393
100
AcDbEntity
  8
0
100
AcDbBlockEnd
  0
BLOCK
  5
3A8
330
39F
100
AcDbEntity
  8
0
100
AcDbBlockBegin
  2
GDimGGroup16
 70
     0
 71
     0
 10
0.0
 20
0.0
 30
0.0
  3
GDimGGroup16
  1

  0
HATCH
  5
3A1
330
39F
100
AcDbEntity
  8
Default
  6
Continuous
 62
     7
 48
25.4
100
AcDbHatch
 10
0.0
 20
0.0
 30
0.0
210
0.0
220
0.0
230
1.0
  2
SOLID
 70
     1
 71
     0
 91
        1
 92
        1
 93
        3
 72
     1
 10
166.9753554680147
 20
209.4155230493321
 11
166.9753554680147
 21
210.7488564459953
 72
     1
 10
166.9753554680147
 20
210.7488564459953
 11
162.9753552780249
 21
210.0821897476637
 72
     1
 10
162.9753552780249
 20
210.0821897476637
 11
166.9753554680147
 21
209.4155230493321
 97
        0
 75
     0
 76
     1
 98
        0
  0
LWPOLYLINE
  5
3A2
330
39F
100
AcDbEntity
  8
Default
  6
Continuous
 62
     7
 48
25.4
370
    20
100
AcDbPolyline
 90
        4
 70
     1
 43
0.0
 10
166.975355468
 20
209.4155230493
 10
162.975355278
 20
210.0821897477
 10
166.975355468
 20
210.748856446
 10
166.975355468
 20
209.4155230493
  0
HATCH
  5
3A3
330
39F
100
AcDbEntity
  8
Default
  6
Continuous
 62
     7
 48
25.4
100
AcDbHatch
 10
0.0
 20
0.0
 30
0.0
210
0.0
220
0.0
230
1.0
  2
SOLID
 70
     1
 71
     0
 91
        1
 92
        1
 93
        3
 72
     1
 10
156.5932443240959
 20
209.4155230493321
 11
160.5932445140857
 21
210.0821897476637
 72
     1
 10
160.5932445140857
 20
210.0821897476637
 11
156.5932443240959
 21
210.7488564459953
 72
     1
 10
156.5932443240959
 20
210.7488564459953
 11
156.5932443240959
 21
209.4155230493321
 97
        0
 75
     0
 76
     1
 98
        0
  0
LWPOLYLINE
  5
3A4
330
39F
100
AcDbEntity
  8
Default
  6
Continuous
 62
     7
 48
25.4
370
    20
100
AcDbPolyline
 90
        4
 70
     1
 43
0.0
 10
156.5932443241
 20
209.4155230493
 10
160.5932445141
 20
210.0821897477
 10
156.5932443241
 20
210.748856446
 10
156.5932443241
 20
209.4155230493
  0
LINE
  5
3A5
330
39F
100
AcDbEntity
  8
Default
  6
Continuous
 62
     7
 48
25.4
100
AcDbLine
 10
162.975355278
 20
218.3539053514
 30
0.0
 11
162.975355278
 21
208.0821896527
 31
0.0
  0
LINE
  5
3A6
330
39F
100
AcDbEntity
  8
Default
  6
Continuous
 62
     7
 48
25.4
100
AcDbLine
 10
174.7531688244
 20
210.0821897477
 30
0.0
 11
152.5932440937
 21
210.0821897477
 31
0.0
  0
TEXT
  5
3A7
330
39F
100
AcDbEntity
  8
Default
  6
Continuous
 62
     7
 48
25.4
100
AcDbText
 10
170.2227339119
 20
211.0821897477
 30
0.0
 40
4.0
  1
6
  7
SEACAD_arial_ttf
 11
170.2227339119
 21
215.0821897477
 31
0.0
100
AcDbText
 73
     3
  0
ENDBLK
  5
3A9
330
39F
100
AcDbEntity
  8
0
100
AcDbBlockEnd
  0
BLOCK
  5
3B3
330
3AA
100
AcDbEntity
  8
0
100
AcDbBlockBegin
  2
GDimGGroup17
 70
     0
 71
     0
 10
0.0
 20
0.0
 30
0.0
  3
GDimGGroup17
  1

  0
HATCH
  5
3AC
330
3AA
100
AcDbEntity
  8
Default
  6
Continuous
 62
     7
 48
25.4
100
AcDbHatch
 10
0.0
 20
0.0
 30
0.0
210
0.0
220
0.0
230
1.0
  2
SOLID
 70
     1
 71
     0
 91
        1
 92
        1
 93
        3
 72
     1
 10
200.1870442161816
 20
274.4539055414223
 11
198.8537108195183
 21
274.4539055414223
 72
     1
 10
198.8537108195183
 20
274.4539055414223
 11
199.52037751785
 21
270.4539053514325
 72
     1
 10
199.52037751785
 20
270.4539053514325
 11
200.1870442161816
 21
274.4539055414223
 97
        0
 75
     0
 76
     1
 98
        0
  0
LWPOLYLINE
  5
3AD
330
3AA
100
AcDbEntity
  8
Default
  6
Continuous
 62
     7
 48
25.4
370
    20
100
AcDbPolyline
 90
        4
 70
     1
 43
0.0
 10
200.1870442162
 20
274.4539055414
 10
199.5203775178
 20
270.4539053514
 10
198.8537108195
 20
274.4539055414
 10
200.1870442162
 20
274.4539055414
  0
HATCH
  5
3AE
330
3AA
100
AcDbEntity
  8
Default
  6
Continuous
 62
     7
 48
25.4
100
AcDbHatch
 10
0.0
 20
0.0
 30
0.0
210
0.0
220
0.0
230
1.0
  2
SOLID
 70
     1
 71
     0
 91
        1
 92
        1
 93
        3
 72
     1
 10
200.1870442161816
 20
313.4539035521173
 11
199.52037751785
 21
317.4539037421071
 72
     1
 10
199.52037751785
 20
317.4539037421071
 11
198.8537108195183
 21
313.4539035521173
 72
     1
 10
198.8537108195183
 20
313.4539035521173
 11
200.1870442161816
 21
313.4539035521173
 97
        0
 75
     0
 76
     1
 98
        0
  0
LWPOLYLINE
  5
3AF
330
3AA
100
AcDbEntity
  8
Default
  6
Continuous
 62
     7
 48
25.4
370
    20
100
AcDbPolyline
 90
        4
 70
     1
 43
0.0
 10
200.1870442162
 20
313.4539035521
 10
199.5203775178
 20
317.4539037421
 10
198.8537108195
 20
313.4539035521
 10
200.1870442162
 20
313.4539035521
  0
LINE
  5
3B0
330
3AA
100
AcDbEntity
  8
Default
  6
Continuous
 62
     7
 48
25.4
100
AcDbLine
 10
199.5203775178
 20
270.4539053514
 30
0.0
 11
199.5203775178
 21
317.4539037421
 31
0.0
  0
TEXT
  5
3B1
330
3AA
100
AcDbEntity
  8
Default
  6
Continuous
 62
     7
 48
25.4
100
AcDbText
 10
198.5203775178
 20
290.5911280403
 30
0.0
 40
4.0
  1
117.5
 50
90.0
  7
SEACAD_arial_ttf
 11
194.5203775178
 21
290.5911280403
 31
0.0
100
AcDbText
 73
     3
  0
TEXT
  5
3B2
330
3AA
100
AcDbEntity
  8
Default
  6
Continuous
 62
     7
 48
25.4
100
AcDbText
 10
198.5203775178
 20
283.2297245315
 30
0.0
 40
4.0
  1
O
 50
90.0
  7
SEACAD_semeca1_ttf
 11
194.5203775178
 21
283.2297245315
 31
0.0
100
AcDbText
 73
     3
  0
ENDBLK
  5
3B4
330
3AA
100
AcDbEntity
  8
0
100
AcDbBlockEnd
  0
BLOCK
  5
3BF
330
3B5
100
AcDbEntity
  8
0
100
AcDbBlockBegin
  2
GDimGGroup18
 70
     0
 71
     0
 10
0.0
 20
0.0
 30
0.0
  3
GDimGGroup18
  1

  0
HATCH
  5
3B7
330
3B5
100
AcDbEntity
  8
Default
  6
Continuous
 62
     7
 48
25.4
100
AcDbHatch
 10
0.0
 20
0.0
 30
0.0
210
0.0
220
0.0
230
1.0
  2
SOLID
 70
     1
 71
     0
 91
        1
 92
        1
 93
        3
 72
     1
 10
158.1753554680147
 20
175.4234178856982
 11
158.1753554680147
 21
176.7567512823615
 72
     1
 10
158.1753554680147
 20
176.7567512823615
 11
154.1753552780249
 21
176.0900845840299
 72
     1
 10
154.1753552780249
 20
176.0900845840299
 11
158.1753554680147
 21
175.4234178856982
 97
        0
 75
     0
 76
     1
 98
        0
  0
LWPOLYLINE
  5
3B8
330
3B5
100
AcDbEntity
  8
Default
  6
Continuous
 62
     7
 48
25.4
370
    20
100
AcDbPolyline
 90
        4
 70
     1
 43
0.0
 10
158.175355468
 20
175.4234178857
 10
154.175355278
 20
176.090084584
 10
158.175355468
 20
176.7567512824
 10
158.175355468
 20
175.4234178857
  0
HATCH
  5
3B9
330
3B5
100
AcDbEntity
  8
Default
  6
Continuous
 62
     7
 48
25.4
100
AcDbHatch
 10
0.0
 20
0.0
 30
0.0
210
0.0
220
0.0
230
1.0
  2
SOLID
 70
     1
 71
     0
 91
        1
 92
        1
 93
        3
 72
     1
 10
138.9753550880351
 20
175.4234178856982
 11
142.9753552780249
 21
176.0900845840299
 72
     1
 10
142.9753552780249
 20
176.0900845840299
 11
138.9753550880351
 21
176.7567512823615
 72
     1
 10
138.9753550880351
 20
176.7567512823615
 11
138.9753550880351
 21
175.4234178856982
 97
        0
 75
     0
 76
     1
 98
        0
  0
LWPOLYLINE
  5
3BA
330
3B5
100
AcDbEntity
  8
Default
  6
Continuous
 62
     7
 48
25.4
370
    20
100
AcDbPolyline
 90
        4
 70
     1
 43
0.0
 10
138.975355088
 20
175.4234178857
 10
142.975355278
 20
176.090084584
 10
138.975355088
 20
176.7567512824
 10
138.975355088
 20
175.4234178857
  0
LINE
  5
3BB
330
3B5
100
AcDbEntity
  8
Default
  6
Continuous
 62
     7
 48
25.4
100
AcDbLine
 10
154.175355278
 20
218.3539053514
 30
0.0
 11
154.175355278
 21
174.090084489
 31
0.0
  0
LINE
  5
3BC
330
3B5
100
AcDbEntity
  8
Default
  6
Continuous
 62
     7
 48
25.4
100
AcDbLine
 10
142.975355278
 20
243.3539053514
 30
0.0
 11
142.975355278
 21
174.090084489
 31
0.0
  0
LINE
  5
3BD
330
3B5
100
AcDbEntity
  8
Default
  6
Continuous
 62
     7
 48
25.4
100
AcDbLine
 10
162.175355658
 20
176.090084584
 30
0.0
 11
134.9753543661
 21
176.090084584
 31
0.0
  0
TEXT
  5
3BE
330
3B5
100
AcDbEntity
  8
Default
  6
Continuous
 62
     7
 48
25.4
100
AcDbText
 10
145.4449206951
 20
177.090084584
 30
0.0
 40
4.0
  1
28
  7
SEACAD_arial_ttf
 11
145.4449206951
 21
181.090084584
 31
0.0
100
AcDbText
 73
     3
  0
ENDBLK
  5
3C0
330
3B5
100
AcDbEntity
  8
0
100
AcDbBlockEnd
  0
BLOCK
  5
3CB
330
3C1
100
AcDbEntity
  8
0
100
AcDbBlockBegin
  2
GDimGGroup19
 70
     0
 71
     0
 10
0.0
 20
0.0
 30
0.0
  3
GDimGGroup19
  1

  0
HATCH
  5
3C3
330
3C1
100
AcDbEntity
  8
Default
  6
Continuous
 62
     7
 48
25.4
100
AcDbHatch
 10
0.0
 20
0.0
 30
0.0
210
0.0
220
0.0
230
1.0
  2
SOLID
 70
     1
 71
     0
 91
        1
 92
        1
 93
        3
 72
     1
 10
297.508223395679
 20
356.0911632278951
 11
296.1748899990157
 21
356.0911632278951
 72
     1
 10
296.1748899990157
 20
356.0911632278951
 11
296.8415566973473
 21
352.0911630379053
 72
     1
 10
296.8415566973473
 20
352.0911630379053
 11
297.508223395679
 21
356.0911632278951
 97
        0
 75
     0
 76
     1
 98
        0
  0
LWPOLYLINE
  5
3C4
330
3C1
100
AcDbEntity
  8
Default
  6
Continuous
 62
     7
 48
25.4
370
    20
100
AcDbPolyline
 90
        4
 70
     1
 43
0.0
 10
297.5082233957
 20
356.0911632279
 10
296.8415566973
 20
352.0911630379
 10
296.174889999
 20
356.0911632279
 10
297.5082233957
 20
356.0911632279
  0
HATCH
  5
3C5
330
3C1
100
AcDbEntity
  8
Default
  6
Continuous
 62
     7
 48
25.4
100
AcDbHatch
 10
0.0
 20
0.0
 30
0.0
210
0.0
220
0.0
230
1.0
  2
SOLID
 70
     1
 71
     0
 91
        1
 92
        1
 93
        3
 72
     1
 10
297.508223395679
 20
365.291163432041
 11
296.8415566973473
 21
369.2911636220308
 72
     1
 10
296.8415566973473
 20
369.2911636220308
 11
296.1748899990157
 21
365.291163432041
 72
     1
 10
296.1748899990157
 20
365.291163432041
 11
297.508223395679
 21
365.291163432041
 97
        0
 75
     0
 76
     1
 98
        0
  0
LWPOLYLINE
  5
3C6
330
3C1
100
AcDbEntity
  8
Default
  6
Continuous
 62
     7
 48
25.4
370
    20
100
AcDbPolyline
 90
        4
 70
     1
 43
0.0
 10
297.5082233957
 20
365.291163432
 10
296.8415566973
 20
369.291163622
 10
296.174889999
 20
365.291163432
 10
297.5082233957
 20
365.291163432
  0
LINE
  5
3C7
330
3C1
100
AcDbEntity
  8
Default
  6
Continuous
 62
     7
 48
25.4
100
AcDbLine
 10
247.8876845233
 20
352.0911630379
 30
0.0
 11
298.8415567923
 21
352.0911630379
 31
0.0
  0
LINE
  5
3C8
330
3C1
100
AcDbEntity
  8
Default
  6
Continuous
 62
     7
 48
25.4
100
AcDbLine
 10
247.5397937234
 20
369.2911630379
 30
0.0
 11
298.8415567923
 21
369.2911630379
 31
0.0
  0
LINE
  5
3C9
330
3C1
100
AcDbEntity
  8
Default
  6
Continuous
 62
     7
 48
25.4
100
AcDbLine
 10
296.8415566973
 20
352.0911630379
 30
0.0
 11
296.8415566973
 21
369.291163622
 31
0.0
  0
TEXT
  5
3CA
330
3C1
100
AcDbEntity
  8
Default
  6
Continuous
 62
     7
 48
25.4
100
AcDbText
 10
295.8415566973
 20
357.5607285474
 30
0.0
 40
4.0
  1
43
 50
90.0
  7
SEACAD_arial_ttf
 11
291.8415566973
 21
357.5607285474
 31
0.0
100
AcDbText
 73
     3
  0
ENDBLK
  5
3CC
330
3C1
100
AcDbEntity
  8
0
100
AcDbBlockEnd
  0
BLOCK
  5
3D7
330
3CD
100
AcDbEntity
  8
0
100
AcDbBlockBegin
  2
GDimGGroup20
 70
     0
 71
     0
 10
0.0
 20
0.0
 30
0.0
  3
GDimGGroup20
  1

  0
HATCH
  5
3CF
330
3CD
100
AcDbEntity
  8
Default
  6
Continuous
 62
     7
 48
25.4
100
AcDbHatch
 10
0.0
 20
0.0
 30
0.0
210
0.0
220
0.0
230
1.0
  2
SOLID
 70
     1
 71
     0
 91
        1
 92
        1
 93
        3
 72
     1
 10
297.508223395679
 20
348.0911628479155
 11
296.8415566973473
 21
352.0911630379053
 72
     1
 10
296.8415566973473
 20
352.0911630379053
 11
296.1748899990157
 21
348.0911628479155
 72
     1
 10
296.1748899990157
 20
348.0911628479155
 11
297.508223395679
 21
348.0911628479155
 97
        0
 75
     0
 76
     1
 98
        0
  0
LWPOLYLINE
  5
3D0
330
3CD
100
AcDbEntity
  8
Default
  6
Continuous
 62
     7
 48
25.4
370
    20
100
AcDbPolyline
 90
        4
 70
     1
 43
0.0
 10
297.5082233957
 20
348.0911628479
 10
296.8415566973
 20
352.0911630379
 10
296.174889999
 20
348.0911628479
 10
297.5082233957
 20
348.0911628479
  0
HATCH
  5
3D1
330
3CD
100
AcDbEntity
  8
Default
  6
Continuous
 62
     7
 48
25.4
100
AcDbHatch
 10
0.0
 20
0.0
 30
0.0
210
0.0
220
0.0
230
1.0
  2
SOLID
 70
     1
 71
     0
 91
        1
 92
        1
 93
        3
 72
     1
 10
297.508223395679
 20
322.0911613801511
 11
296.1748899990157
 21
322.0911613801511
 72
     1
 10
296.1748899990157
 20
322.0911613801511
 11
296.8415566973473
 21
318.0911611901613
 72
     1
 10
296.8415566973473
 20
318.0911611901613
 11
297.508223395679
 21
322.0911613801511
 97
        0
 75
     0
 76
     1
 98
        0
  0
LWPOLYLINE
  5
3D2
330
3CD
100
AcDbEntity
  8
Default
  6
Continuous
 62
     7
 48
25.4
370
    20
100
AcDbPolyline
 90
        4
 70
     1
 43
0.0
 10
297.5082233957
 20
322.0911613802
 10
296.8415566973
 20
318.0911611902
 10
296.174889999
 20
322.0911613802
 10
297.5082233957
 20
322.0911613802
  0
LINE
  5
3D3
330
3CD
100
AcDbEntity
  8
Default
  6
Continuous
 62
     7
 48
25.4
100
AcDbLine
 10
247.8876845233
 20
352.0911630379
 30
0.0
 11
298.8415567923
 21
352.0911630379
 31
0.0
  0
LINE
  5
3D4
330
3CD
100
AcDbEntity
  8
Default
  6
Continuous
 62
     7
 48
25.4
100
AcDbLine
 10
241.775355278
 20
318.0911630379
 30
0.0
 11
298.8415567923
 21
318.0911630379
 31
0.0
  0
LINE
  5
3D5
330
3CD
100
AcDbEntity
  8
Default
  6
Continuous
 62
     7
 48
25.4
100
AcDbLine
 10
296.8415566973
 20
352.0911630379
 30
0.0
 11
296.8415566973
 21
318.0911611902
 31
0.0
  0
TEXT
  5
3D6
330
3CD
100
AcDbEntity
  8
Default
  6
Continuous
 62
     7
 48
25.4
100
AcDbText
 10
295.8415566973
 20
331.9607273314
 30
0.0
 40
4.0
  1
85
 50
90.0
  7
SEACAD_arial_ttf
 11
291.8415566973
 21
331.9607273314
 31
0.0
100
AcDbText
 73
     3
  0
ENDBLK
  5
3D8
330
3CD
100
AcDbEntity
  8
0
100
AcDbBlockEnd
  0
BLOCK
  5
3E3
330
3D9
100
AcDbEntity
  8
0
100
AcDbBlockBegin
  2
GDimGGroup21
 70
     0
 71
     0
 10
0.0
 20
0.0
 30
0.0
  3
GDimGGroup21
  1

  0
HATCH
  5
3DB
330
3D9
100
AcDbEntity
  8
Default
  6
Continuous
 62
     7
 48
25.4
100
AcDbHatch
 10
0.0
 20
0.0
 30
0.0
210
0.0
220
0.0
230
1.0
  2
SOLID
 70
     1
 71
     0
 91
        1
 92
        1
 93
        3
 72
     1
 10
297.508222555562
 20
373.2911632278951
 11
296.1748891588987
 21
373.2911632278951
 72
     1
 10
296.1748891588987
 20
373.2911632278951
 11
296.8415558572304
 21
369.2911630379053
 72
     1
 10
296.8415558572304
 20
369.2911630379053
 11
297.508222555562
 21
373.2911632278951
 97
        0
 75
     0
 76
     1
 98
        0
  0
LWPOLYLINE
  5
3DC
330
3D9
100
AcDbEntity
  8
Default
  6
Continuous
 62
     7
 48
25.4
370
    20
100
AcDbPolyline
 90
        4
 70
     1
 43
0.0
 10
297.5082225556
 20
373.2911632279
 10
296.8415558572
 20
369.2911630379
 10
296.1748891589
 20
373.2911632279
 10
297.5082225556
 20
373.2911632279
  0
HATCH
  5
3DD
330
3D9
100
AcDbEntity
  8
Default
  6
Continuous
 62
     7
 48
25.4
100
AcDbHatch
 10
0.0
 20
0.0
 30
0.0
210
0.0
220
0.0
230
1.0
  2
SOLID
 70
     1
 71
     0
 91
        1
 92
        1
 93
        3
 72
     1
 10
297.508222555562
 20
380.0911628523858
 11
296.8415558572304
 21
384.0911630423756
 72
     1
 10
296.8415558572304
 20
384.0911630423756
 11
296.1748891588987
 21
380.0911628523858
 72
     1
 10
296.1748891588987
 20
380.0911628523858
 11
297.508222555562
 21
380.0911628523858
 97
        0
 75
     0
 76
     1
 98
        0
  0
LWPOLYLINE
  5
3DE
330
3D9
100
AcDbEntity
  8
Default
  6
Continuous
 62
     7
 48
25.4
370
    20
100
AcDbPolyline
 90
        4
 70
     1
 43
0.0
 10
297.5082225556
 20
380.0911628524
 10
296.8415558572
 20
384.0911630424
 10
296.1748891589
 20
380.0911628524
 10
297.5082225556
 20
380.0911628524
  0
LINE
  5
3DF
330
3D9
100
AcDbEntity
  8
Default
  6
Continuous
 62
     7
 48
25.4
100
AcDbLine
 10
247.5397937234
 20
369.2911630379
 30
0.0
 11
298.8415559522
 21
369.2911630379
 31
0.0
  0
LINE
  5
3E0
330
3D9
100
AcDbEntity
  8
Default
  6
Continuous
 62
     7
 48
25.4
100
AcDbLine
 10
241.775355278
 20
384.0911630379
 30
0.0
 11
298.8415559522
 21
384.0911630379
 31
0.0
  0
LINE
  5
3E1
330
3D9
100
AcDbEntity
  8
Default
  6
Continuous
 62
     7
 48
25.4
100
AcDbLine
 10
296.8415558572
 20
369.2911630379
 30
0.0
 11
296.8415558572
 21
384.0911630424
 31
0.0
  0
TEXT
  5
3E2
330
3D9
100
AcDbEntity
  8
Default
  6
Continuous
 62
     7
 48
25.4
100
AcDbText
 10
295.8415558572
 20
373.5607282575
 30
0.0
 40
4.0
  1
37
 50
90.0
  7
SEACAD_arial_ttf
 11
291.8415558572
 21
373.5607282575
 31
0.0
100
AcDbText
 73
     3
  0
ENDBLK
  5
3E4
330
3D9
100
AcDbEntity
  8
0
100
AcDbBlockEnd
  0
BLOCK
  5
3F1
330
3E5
100
AcDbEntity
  8
0
100
AcDbBlockBegin
  2
GDimGGroup22
 70
     0
 71
     0
 10
0.0
 20
0.0
 30
0.0
  3
GDimGGroup22
  1

  0
HATCH
  5
3E7
330
3E5
100
AcDbEntity
  8
Default
  6
Continuous
 62
     7
 48
25.4
100
AcDbHatch
 10
0.0
 20
0.0
 30
0.0
210
0.0
220
0.0
230
1.0
  2
SOLID
 70
     1
 71
     0
 91
        1
 92
        1
 93
        3
 72
     1
 10
274.3973036503826
 20
297.9539055414223
 11
273.0639702537193
 21
297.9539055414223
 72
     1
 10
273.0639702537193
 20
297.9539055414223
 11
273.7306369520509
 21
293.9539053514325
 72
     1
 10
273.7306369520509
 20
293.9539053514325
 11
274.3973036503826
 21
297.9539055414223
 97
        0
 75
     0
 76
     1
 98
        0
  0
LWPOLYLINE
  5
3E8
330
3E5
100
AcDbEntity
  8
Default
  6
Continuous
 62
     7
 48
25.4
370
    20
100
AcDbPolyline
 90
        4
 70
     1
 43
0.0
 10
274.3973036504
 20
297.9539055414
 10
273.7306369521
 20
293.9539053514
 10
273.0639702537
 20
297.9539055414
 10
274.3973036504
 20
297.9539055414
  0
HATCH
  5
3E9
330
3E5
100
AcDbEntity
  8
Default
  6
Continuous
 62
     7
 48
25.4
100
AcDbHatch
 10
0.0
 20
0.0
 30
0.0
210
0.0
220
0.0
230
1.0
  2
SOLID
 70
     1
 71
     0
 91
        1
 92
        1
 93
        3
 72
     1
 10
274.3973036503826
 20
322.7539053223753
 11
273.7306369520509
 21
326.7539055123651
 72
     1
 10
273.7306369520509
 20
326.7539055123651
 11
273.0639702537193
 21
322.7539053223753
 72
     1
 10
273.0639702537193
 20
322.7539053223753
 11
274.3973036503826
 21
322.7539053223753
 97
        0
 75
     0
 76
     1
 98
        0
  0
LWPOLYLINE
  5
3EA
330
3E5
100
AcDbEntity
  8
Default
  6
Continuous
 62
     7
 48
25.4
370
    20
100
AcDbPolyline
 90
        4
 70
     1
 43
0.0
 10
274.3973036504
 20
322.7539053224
 10
273.7306369521
 20
326.7539055124
 10
273.0639702537
 20
322.7539053224
 10
274.3973036504
 20
322.7539053224
  0
LINE
  5
3EB
330
3E5
100
AcDbEntity
  8
Default
  6
Continuous
 62
     7
 48
25.4
100
AcDbLine
 10
235.5555905081
 20
293.9539053514
 30
0.0
 11
275.730637047
 21
293.9539053514
 31
0.0
  0
LINE
  5
3EC
330
3E5
100
AcDbEntity
  8
Default
  6
Continuous
 62
     7
 48
25.4
100
AcDbLine
 10
209.775355278
 20
326.7539053514
 30
0.0
 11
275.730637047
 21
326.7539053514
 31
0.0
  0
LINE
  5
3ED
330
3E5
100
AcDbEntity
  8
Default
  6
Continuous
 62
     7
 48
25.4
100
AcDbLine
 10
273.7306369521
 20
267.0245231166
 30
0.0
 11
273.7306369521
 21
326.7539055124
 31
0.0
  0
TEXT
  5
3EE
330
3E5
100
AcDbEntity
  8
Default
  6
Continuous
 62
     7
 48
25.4
100
AcDbText
 10
266.7306369521
 20
283.1375659483
 30
0.0
 40
4.0
  1
82
 50
90.0
  7
SEACAD_arial_ttf
 11
262.7306369521
 21
283.1375659483
 31
0.0
100
AcDbText
 73
     3
  0
TEXT
  5
3EF
330
3E5
100
AcDbEntity
  8
Default
  6
Continuous
 62
     7
 48
25.4
100
AcDbText
 10
266.7306369521
 20
268.42452247
 30
0.0
 40
4.0
  1
MAX
 50
90.0
  7
SEACAD_arial_ttf
 11
262.7306369521
 21
268.42452247
 31
0.0
100
AcDbText
 73
     3
  0
TEXT
  5
3F0
330
3E5
100
AcDbEntity
  8
Default
  6
Continuous
 62
     7
 48
25.4
100
AcDbText
 10
272.7306369521
 20
268.42452247
 30
0.0
 40
4.0
  1
MIN 76.7
 50
90.0
  7
SEACAD_arial_ttf
 11
268.7306369521
 21
268.42452247
 31
0.0
100
AcDbText
 73
     3
  0
ENDBLK
  5
3F2
330
3E5
100
AcDbEntity
  8
0
100
AcDbBlockEnd
  0
BLOCK
  5
3FF
330
3F3
100
AcDbEntity
  8
0
100
AcDbBlockBegin
  2
GDimGGroup23
 70
     0
 71
     0
 10
0.0
 20
0.0
 30
0.0
  3
GDimGGroup23
  1

  0
HATCH
  5
3F5
330
3F3
100
AcDbEntity
  8
Default
  6
Continuous
 62
     7
 48
25.4
100
AcDbHatch
 10
0.0
 20
0.0
 30
0.0
210
0.0
220
0.0
230
1.0
  2
SOLID
 70
     1
 71
     0
 91
        1
 92
        1
 93
        3
 72
     1
 10
274.3973066314507
 20
330.7539055414223
 11
273.0639732347873
 21
330.7539055414223
 72
     1
 10
273.0639732347873
 20
330.7539055414223
 11
273.730639933119
 21
326.7539053514325
 72
     1
 10
273.730639933119
 20
326.7539053514325
 11
274.3973066314507
 21
330.7539055414223
 97
        0
 75
     0
 76
     1
 98
        0
  0
LWPOLYLINE
  5
3F6
330
3F3
100
AcDbEntity
  8
Default
  6
Continuous
 62
     7
 48
25.4
370
    20
100
AcDbPolyline
 90
        4
 70
     1
 43
0.0
 10
274.3973066315
 20
330.7539055414
 10
273.7306399331
 20
326.7539053514
 10
273.0639732348
 20
330.7539055414
 10
274.3973066315
 20
330.7539055414
  0
HATCH
  5
3F7
330
3F3
100
AcDbEntity
  8
Default
  6
Continuous
 62
     7
 48
25.4
100
AcDbHatch
 10
0.0
 20
0.0
 30
0.0
210
0.0
220
0.0
230
1.0
  2
SOLID
 70
     1
 71
     0
 91
        1
 92
        1
 93
        3
 72
     1
 10
274.3973066314507
 20
348.0911628479155
 11
273.730639933119
 21
352.0911630379053
 72
     1
 10
273.730639933119
 20
352.0911630379053
 11
273.0639732347873
 21
348.0911628479155
 72
     1
 10
273.0639732347873
 20
348.0911628479155
 11
274.3973066314507
 21
348.0911628479155
 97
        0
 75
     0
 76
     1
 98
        0
  0
LWPOLYLINE
  5
3F8
330
3F3
100
AcDbEntity
  8
Default
  6
Continuous
 62
     7
 48
25.4
370
    20
100
AcDbPolyline
 90
        4
 70
     1
 43
0.0
 10
274.3973066315
 20
348.0911628479
 10
273.7306399331
 20
352.0911630379
 10
273.0639732348
 20
348.0911628479
 10
274.3973066315
 20
348.0911628479
  0
LINE
  5
3F9
330
3F3
100
AcDbEntity
  8
Default
  6
Continuous
 62
     7
 48
25.4
100
AcDbLine
 10
209.775355278
 20
326.7539053514
 30
0.0
 11
275.7306400281
 21
326.7539053514
 31
0.0
  0
LINE
  5
3FA
330
3F3
100
AcDbEntity
  8
Default
  6
Continuous
 62
     7
 48
25.4
100
AcDbLine
 10
247.8876845233
 20
352.0911630379
 30
0.0
 11
275.7306400281
 21
352.0911630379
 31
0.0
  0
LINE
  5
3FB
330
3F3
100
AcDbEntity
  8
Default
  6
Continuous
 62
     7
 48
25.4
100
AcDbLine
 10
273.7306399331
 20
326.7539053514
 30
0.0
 11
273.7306399331
 21
386.2143590405
 31
0.0
  0
TEXT
  5
3FC
330
3F3
100
AcDbEntity
  8
Default
  6
Continuous
 62
     7
 48
25.4
100
AcDbText
 10
266.7306399331
 20
370.727402182
 30
0.0
 40
4.0
  1
78.25
 50
90.0
  7
SEACAD_arial_ttf
 11
262.7306399331
 21
370.727402182
 31
0.0
100
AcDbText
 73
     3
  0
TEXT
  5
3FD
330
3F3
100
AcDbEntity
  8
Default
  6
Continuous
 62
     7
 48
25.4
100
AcDbText
 10
266.7306399331
 20
356.0143587038
 30
0.0
 40
4.0
  1
MAX
 50
90.0
  7
SEACAD_arial_ttf
 11
262.7306399331
 21
356.0143587038
 31
0.0
100
AcDbText
 73
     3
  0
TEXT
  5
3FE
330
3F3
100
AcDbEntity
  8
Default
  6
Continuous
 62
     7
 48
25.4
100
AcDbText
 10
272.7306399331
 20
356.0143587038
 30
0.0
 40
4.0
  1
MIN 18.25
 50
90.0
  7
SEACAD_arial_ttf
 11
268.7306399331
 21
356.0143587038
 31
0.0
100
AcDbText
 73
     3
  0
ENDBLK
  5
400
330
3F3
100
AcDbEntity
  8
0
100
AcDbBlockEnd
  0
BLOCK
  5
40A
330
401
100
AcDbEntity
  8
0
100
AcDbBlockBegin
  2
GDimGGroup24
 70
     0
 71
     0
 10
0.0
 20
0.0
 30
0.0
  3
GDimGGroup24
  1

  0
HATCH
  5
403
330
401
100
AcDbEntity
  8
Default
  6
Continuous
 62
     7
 48
25.4
100
AcDbHatch
 10
0.0
 20
0.0
 30
0.0
210
0.0
220
0.0
230
1.0
  2
SOLID
 70
     1
 71
     0
 91
        1
 92
        1
 93
        3
 72
     1
 10
217.7753554680147
 20
211.0960895380351
 11
213.7753552780249
 21
210.4294228397035
 72
     1
 10
213.7753552780249
 20
210.4294228397035
 11
217.7753554680147
 21
209.7627561413719
 72
     1
 10
217.7753554680147
 20
209.7627561413719
 11
217.7753554680147
 21
211.0960895380351
 97
        0
 75
     0
 76
     1
 98
        0
  0
LWPOLYLINE
  5
404
330
401
100
AcDbEntity
  8
Default
  6
Continuous
 62
     7
 48
25.4
370
    20
100
AcDbPolyline
 90
        4
 70
     1
 43
0.0
 10
217.775355468
 20
211.096089538
 10
213.775355278
 20
210.4294228397
 10
217.775355468
 20
209.7627561414
 10
217.775355468
 20
211.096089538
  0
HATCH
  5
405
330
401
100
AcDbEntity
  8
Default
  6
Continuous
 62
     7
 48
25.4
100
AcDbHatch
 10
0.0
 20
0.0
 30
0.0
210
0.0
220
0.0
230
1.0
  2
SOLID
 70
     1
 71
     0
 91
        1
 92
        1
 93
        3
 72
     1
 10
198.975355088035
 20
211.0960895380351
 11
198.975355088035
 21
209.7627561413719
 72
     1
 10
198.975355088035
 20
209.7627561413719
 11
202.9753552780248
 21
210.4294228397035
 72
     1
 10
202.9753552780248
 20
210.4294228397035
 11
198.975355088035
 21
211.0960895380351
 97
        0
 75
     0
 76
     1
 98
        0
  0
LWPOLYLINE
  5
406
330
401
100
AcDbEntity
  8
Default
  6
Continuous
 62
     7
 48
25.4
370
    20
100
AcDbPolyline
 90
        4
 70
     1
 43
0.0
 10
198.975355088
 20
211.096089538
 10
202.975355278
 20
210.4294228397
 10
198.975355088
 20
209.7627561414
 10
198.975355088
 20
211.096089538
  0
LINE
  5
407
330
401
100
AcDbEntity
  8
Default
  6
Continuous
 62
     7
 48
25.4
100
AcDbLine
 10
202.975355278
 20
240.5539053514
 30
0.0
 11
202.975355278
 21
208.4294227447
 31
0.0
  0
LINE
  5
408
330
401
100
AcDbEntity
  8
Default
  6
Continuous
 62
     7
 48
25.4
100
AcDbLine
 10
221.775355658
 20
210.4294228397
 30
0.0
 11
194.9753555492
 21
210.4294228397
 31
0.0
  0
TEXT
  5
409
330
401
100
AcDbEntity
  8
Default
  6
Continuous
 62
     7
 48
25.4
100
AcDbText
 10
205.2449203553
 20
211.4294228397
 30
0.0
 40
4.0
  1
27
  7
SEACAD_arial_ttf
 11
205.2449203553
 21
215.4294228397
 31
0.0
100
AcDbText
 73
     3
  0
ENDBLK
  5
40B
330
401
100
AcDbEntity
  8
0
100
AcDbBlockEnd
  0
BLOCK
  5
416
330
40C
100
AcDbEntity
  8
0
100
AcDbBlockBegin
  2
GDimGGroup25
 70
     0
 71
     0
 10
0.0
 20
0.0
 30
0.0
  3
GDimGGroup25
  1

  0
HATCH
  5
40E
330
40C
100
AcDbEntity
  8
Default
  6
Continuous
 62
     7
 48
25.4
100
AcDbHatch
 10
0.0
 20
0.0
 30
0.0
210
0.0
220
0.0
230
1.0
  2
SOLID
 70
     1
 71
     0
 91
        1
 92
        1
 93
        3
 72
     1
 10
163.3753550880351
 20
268.7328636391434
 11
163.3753550880351
 21
267.3995302424801
 72
     1
 10
163.3753550880351
 20
267.3995302424801
 11
167.3753552780249
 21
268.0661969408118
 72
     1
 10
167.3753552780249
 20
268.0661969408118
 11
163.3753550880351
 21
268.7328636391434
 97
        0
 75
     0
 76
     1
 98
        0
  0
LWPOLYLINE
  5
40F
330
40C
100
AcDbEntity
  8
Default
  6
Continuous
 62
     7
 48
25.4
370
    20
100
AcDbPolyline
 90
        4
 70
     1
 43
0.0
 10
163.375355088
 20
268.7328636391
 10
167.375355278
 20
268.0661969408
 10
163.375355088
 20
267.3995302425
 10
163.375355088
 20
268.7328636391
  0
HATCH
  5
410
330
40C
100
AcDbEntity
  8
Default
  6
Continuous
 62
     7
 48
25.4
100
AcDbHatch
 10
0.0
 20
0.0
 30
0.0
210
0.0
220
0.0
230
1.0
  2
SOLID
 70
     1
 71
     0
 91
        1
 92
        1
 93
        3
 72
     1
 10
158.1753554680147
 20
268.7328636391434
 11
154.1753552780249
 21
268.0661969408118
 72
     1
 10
154.1753552780249
 20
268.0661969408118
 11
158.1753554680147
 21
267.3995302424801
 72
     1
 10
158.1753554680147
 20
267.3995302424801
 11
158.1753554680147
 21
268.7328636391434
 97
        0
 75
     0
 76
     1
 98
        0
  0
LWPOLYLINE
  5
411
330
40C
100
AcDbEntity
  8
Default
  6
Continuous
 62
     7
 48
25.4
370
    20
100
AcDbPolyline
 90
        4
 70
     1
 43
0.0
 10
158.175355468
 20
268.7328636391
 10
154.175355278
 20
268.0661969408
 10
158.175355468
 20
267.3995302425
 10
158.175355468
 20
268.7328636391
  0
LINE
  5
412
330
40C
100
AcDbEntity
  8
Default
  6
Continuous
 62
     7
 48
25.4
100
AcDbLine
 10
167.375355278
 20
268.0661969408
 30
0.0
 11
129.3365911291
 21
268.0661969408
 31
0.0
  0
TEXT
  5
413
330
40C
100
AcDbEntity
  8
Default
  6
Continuous
 62
     7
 48
25.4
100
AcDbText
 10
145.4496329729
 20
275.0661969408
 30
0.0
 40
4.0
  1
33
  7
SEACAD_arial_ttf
 11
145.4496329729
 21
279.0661969408
 31
0.0
100
AcDbText
 73
     3
  0
TEXT
  5
414
330
40C
100
AcDbEntity
  8
Default
  6
Continuous
 62
     7
 48
25.4
100
AcDbText
 10
130.7365894947
 20
275.0661969408
 30
0.0
 40
4.0
  1
MAX
  7
SEACAD_arial_ttf
 11
130.7365894947
 21
279.0661969408
 31
0.0
100
AcDbText
 73
     3
  0
TEXT
  5
415
330
40C
100
AcDbEntity
  8
Default
  6
Continuous
 62
     7
 48
25.4
100
AcDbText
 10
130.7365894947
 20
269.0661969408
 30
0.0
 40
4.0
  1
MIN 10
  7
SEACAD_arial_ttf
 11
130.7365894947
 21
273.0661969408
 31
0.0
100
AcDbText
 73
     3
  0
ENDBLK
  5
417
330
40C
100
AcDbEntity
  8
0
100
AcDbBlockEnd
  0
BLOCK
  5
423
330
418
100
AcDbEntity
  8
0
100
AcDbBlockBegin
  2
GDimGGroup26
 70
     0
 71
     0
 10
0.0
 20
0.0
 30
0.0
  3
GDimGGroup26
  1

  0
HATCH
  5
41A
330
418
100
AcDbEntity
  8
Default
  6
Continuous
 62
     7
 48
25.4
100
AcDbHatch
 10
0.0
 20
0.0
 30
0.0
210
0.0
220
0.0
230
1.0
  2
SOLID
 70
     1
 71
     0
 91
        1
 92
        1
 93
        3
 72
     1
 10
98.63932687911965
 20
270.1539055414223
 11
99.30599357745129
 21
266.1539053514325
 72
     1
 10
99.30599357745129
 20
266.1539053514325
 11
99.97266027578293
 21
270.1539055414223
 72
     1
 10
99.97266027578293
 20
270.1539055414223
 11
98.63932687911965
 21
270.1539055414223
 97
        0
 75
     0
 76
     1
 98
        0
  0
LWPOLYLINE
  5
41B
330
418
100
AcDbEntity
  8
Default
  6
Continuous
 62
     7
 48
25.4
370
    20
100
AcDbPolyline
 90
        4
 70
     1
 43
0.0
 10
98.6393268791
 20
270.1539055414
 10
99.3059935775
 20
266.1539053514
 10
99.9726602758
 20
270.1539055414
 10
98.6393268791
 20
270.1539055414
  0
HATCH
  5
41C
330
418
100
AcDbEntity
  8
Default
  6
Continuous
 62
     7
 48
25.4
100
AcDbHatch
 10
0.0
 20
0.0
 30
0.0
210
0.0
220
0.0
230
1.0
  2
SOLID
 70
     1
 71
     0
 91
        1
 92
        1
 93
        3
 72
     1
 10
98.63932687911965
 20
317.7539038441801
 11
99.97266027578293
 21
317.7539038441801
 72
     1
 10
99.97266027578293
 20
317.7539038441801
 11
99.30599357745129
 21
321.7539040341699
 72
     1
 10
99.30599357745129
 20
321.7539040341699
 11
98.63932687911965
 21
317.7539038441801
 97
        0
 75
     0
 76
     1
 98
        0
  0
LWPOLYLINE
  5
41D
330
418
100
AcDbEntity
  8
Default
  6
Continuous
 62
     7
 48
25.4
370
    20
100
AcDbPolyline
 90
        4
 70
     1
 43
0.0
 10
98.6393268791
 20
317.7539038442
 10
99.3059935775
 20
321.7539040342
 10
99.9726602758
 20
317.7539038442
 10
98.6393268791
 20
317.7539038442
  0
LINE
  5
41E
330
418
100
AcDbEntity
  8
Default
  6
Continuous
 62
     7
 48
25.4
100
AcDbLine
 10
168.1753552314
 20
266.1539053514
 30
0.0
 11
97.3059934825
 21
266.1539053514
 31
0.0
  0
LINE
  5
41F
330
418
100
AcDbEntity
  8
Default
  6
Continuous
 62
     7
 48
25.4
100
AcDbLine
 10
168.1753552314
 20
321.7539053514
 30
0.0
 11
97.3059934825
 21
321.7539053514
 31
0.0
  0
LINE
  5
420
330
418
100
AcDbEntity
  8
Default
  6
Continuous
 62
     7
 48
25.4
100
AcDbLine
 10
99.3059935775
 20
266.1539053514
 30
0.0
 11
99.3059935775
 21
321.7539040342
 31
0.0
  0
TEXT
  5
421
330
418
100
AcDbEntity
  8
Default
  6
Continuous
 62
     7
 48
25.4
100
AcDbText
 10
98.3059935775
 20
292.9389542733
 30
0.0
 40
4.0
  1
139
 50
90.0
  7
SEACAD_arial_ttf
 11
94.3059935775
 21
292.9389542733
 31
0.0
100
AcDbText
 73
     3
  0
TEXT
  5
422
330
418
100
AcDbEntity
  8
Default
  6
Continuous
 62
     7
 48
25.4
100
AcDbText
 10
98.3059935775
 20
285.5775507645
 30
0.0
 40
4.0
  1
O
 50
90.0
  7
SEACAD_semeca1_ttf
 11
94.3059935775
 21
285.5775507645
 31
0.0
100
AcDbText
 73
     3
  0
ENDBLK
  5
424
330
418
100
AcDbEntity
  8
0
100
AcDbBlockEnd
  0
BLOCK
  5
42F
330
425
100
AcDbEntity
  8
0
100
AcDbBlockBegin
  2
GDimGGroup27
 70
     0
 71
     0
 10
0.0
 20
0.0
 30
0.0
  3
GDimGGroup27
  1

  0
HATCH
  5
427
330
425
100
AcDbEntity
  8
Default
  6
Continuous
 62
     7
 48
25.4
100
AcDbHatch
 10
0.0
 20
0.0
 30
0.0
210
0.0
220
0.0
230
1.0
  2
SOLID
 70
     1
 71
     0
 91
        1
 92
        1
 93
        3
 72
     1
 10
237.775355088035
 20
399.8148319304627
 11
237.775355088035
 21
398.4814985337994
 72
     1
 10
237.775355088035
 20
398.4814985337994
 11
241.7753552780249
 21
399.148165232131
 72
     1
 10
241.7753552780249
 20
399.148165232131
 11
237.775355088035
 21
399.8148319304627
 97
        0
 75
     0
 76
     1
 98
        0
  0
LWPOLYLINE
  5
428
330
425
100
AcDbEntity
  8
Default
  6
Continuous
 62
     7
 48
25.4
370
    20
100
AcDbPolyline
 90
        4
 70
     1
 43
0.0
 10
237.775355088
 20
399.8148319305
 10
241.775355278
 20
399.1481652321
 10
237.775355088
 20
398.4814985338
 10
237.775355088
 20
399.8148319305
  0
HATCH
  5
429
330
425
100
AcDbEntity
  8
Default
  6
Continuous
 62
     7
 48
25.4
100
AcDbHatch
 10
0.0
 20
0.0
 30
0.0
210
0.0
220
0.0
230
1.0
  2
SOLID
 70
     1
 71
     0
 91
        1
 92
        1
 93
        3
 72
     1
 10
217.7753546037473
 20
399.8148319304627
 11
213.7753544137575
 21
399.148165232131
 72
     1
 10
213.7753544137575
 20
399.148165232131
 11
217.7753546037473
 21
398.4814985337994
 72
     1
 10
217.7753546037473
 20
398.4814985337994
 11
217.7753546037473
 21
399.8148319304627
 97
        0
 75
     0
 76
     1
 98
        0
  0
LWPOLYLINE
  5
42A
330
425
100
AcDbEntity
  8
Default
  6
Continuous
 62
     7
 48
25.4
370
    20
100
AcDbPolyline
 90
        4
 70
     1
 43
0.0
 10
217.7753546037
 20
399.8148319305
 10
213.7753544138
 20
399.1481652321
 10
217.7753546037
 20
398.4814985338
 10
217.7753546037
 20
399.8148319305
  0
LINE
  5
42B
330
425
100
AcDbEntity
  8
Default
  6
Continuous
 62
     7
 48
25.4
100
AcDbLine
 10
241.775355278
 20
384.0911630379
 30
0.0
 11
241.775355278
 21
401.1481653271
 31
0.0
  0
LINE
  5
42C
330
425
100
AcDbEntity
  8
Default
  6
Continuous
 62
     7
 48
25.4
100
AcDbLine
 10
213.775355278
 20
383.1539064005
 30
0.0
 11
213.775355278
 21
401.1481653271
 31
0.0
  0
LINE
  5
42D
330
425
100
AcDbEntity
  8
Default
  6
Continuous
 62
     7
 48
25.4
100
AcDbLine
 10
241.775355278
 20
399.1481652321
 30
0.0
 11
213.7753544138
 21
399.1481652321
 31
0.0
  0
TEXT
  5
42E
330
425
100
AcDbEntity
  8
Default
  6
Continuous
 62
     7
 48
25.4
100
AcDbText
 10
224.6449200633
 20
400.1481652321
 30
0.0
 40
4.0
  1
70
  7
SEACAD_arial_ttf
 11
224.6449200633
 21
404.1481652321
 31
0.0
100
AcDbText
 73
     3
  0
ENDBLK
  5
430
330
425
100
AcDbEntity
  8
0
100
AcDbBlockEnd
  0
BLOCK
  5
43B
330
431
100
AcDbEntity
  8
0
100
AcDbBlockBegin
  2
GDimGGroup28
 70
     0
 71
     0
 10
0.0
 20
0.0
 30
0.0
  3
GDimGGroup28
  1

  0
HATCH
  5
433
330
431
100
AcDbEntity
  8
Default
  6
Continuous
 62
     7
 48
25.4
100
AcDbHatch
 10
0.0
 20
0.0
 30
0.0
210
0.0
220
0.0
230
1.0
  2
SOLID
 70
     1
 71
     0
 91
        1
 92
        1
 93
        3
 72
     1
 10
525.8387500251714
 20
245.5420585722867
 11
524.4919623607939
 21
241.7170606646188
 72
     1
 10
524.4919623607939
 20
241.7170606646189
 11
527.0064905539082
 21
244.8985059293714
 72
     1
 10
527.0064905539082
 20
244.8985059293714
 11
525.8387500251715
 21
245.5420585722867
 97
        0
 75
     0
 76
     1
 98
        0
  0
LWPOLYLINE
  5
434
330
431
100
AcDbEntity
  8
Default
  6
Continuous
 62
     7
 48
25.4
370
    20
100
AcDbPolyline
 90
        4
 70
     1
 43
0.0
 10
525.8387500252
 20
245.5420585723
 10
524.4919623608
 20
241.7170606646
 10
527.0064905539
 20
244.8985059294
 10
525.8387500252
 20
245.5420585723
  0
HATCH
  5
435
330
431
100
AcDbEntity
  8
Default
  6
Continuous
 62
     7
 48
25.4
100
AcDbHatch
 10
0.0
 20
0.0
 30
0.0
210
0.0
220
0.0
230
1.0
  2
SOLID
 70
     1
 71
     0
 91
        1
 92
        1
 93
        3
 72
     1
 10
538.5407540109469
 20
287.944964446941
 11
537.9538312948837
 21
291.9574409555267
 72
     1
 10
537.9538312948837
 20
291.9574409555267
 11
537.207684726213
 21
287.9715017557089
 72
     1
 10
537.207684726213
 20
287.9715017557089
 11
538.5407540109469
 21
287.944964446941
 97
        0
 75
     0
 76
     1
 98
        0
  0
LWPOLYLINE
  5
436
330
431
100
AcDbEntity
  8
Default
  6
Continuous
 62
     7
 48
25.4
370
    20
100
AcDbPolyline
 90
        4
 70
     1
 43
0.0
 10
538.5407540109
 20
287.9449644469
 10
537.9538312949
 20
291.9574409555
 10
537.2076847262
 20
287.9715017557
 10
538.5407540109
 20
287.9449644469
  0
LINE
  5
437
330
431
100
AcDbEntity
  8
Default
  6
Continuous
 62
     7
 48
25.4
100
AcDbLine
 10
521.2322655062
 20
243.5990475211
 30
0.0
 11
526.2240102261
 21
240.7170623634
 31
0.0
  0
LINE
  5
438
330
431
100
AcDbEntity
  8
Default
  6
Continuous
 62
     7
 48
25.4
100
AcDbLine
 10
536.6851538814
 20
291.9574394915
 30
0.0
 11
539.9538278974
 21
291.9574394915
 31
0.0
  0
ARC
  5
439
330
431
100
AcDbEntity
  8
Default
  6
Continuous
 62
     7
 48
25.4
100
AcDbCircle
 10
437.4730736412
 20
291.9574394915
 30
0.0
 40
100.480757653714
100
AcDbArc
 50
330.0
 51
0.0000008348
  0
TEXT
  5
43A
330
431
100
AcDbEntity
  8
Default
  6
Continuous
 62
     7
 48
25.4
100
AcDbText
 10
532.4613124855
 20
262.094240834
 30
0.0
 40
4.0
  1
30°
 50
75.0
  7
SEACAD_arial_ttf
 11
528.5976091804
 21
263.1295170144
 31
0.0
100
AcDbText
 73
     3
  0
ENDBLK
  5
43C
330
431
100
AcDbEntity
  8
0
100
AcDbBlockEnd
  0
BLOCK
  5
447
330
43D
100
AcDbEntity
  8
0
100
AcDbBlockBegin
  2
GDimGGroup29
 70
     0
 71
     0
 10
0.0
 20
0.0
 30
0.0
  3
GDimGGroup29
  1

  0
HATCH
  5
43F
330
43D
100
AcDbEntity
  8
Default
  6
Continuous
 62
     7
 48
25.4
100
AcDbHatch
 10
0.0
 20
0.0
 30
0.0
210
0.0
220
0.0
230
1.0
  2
SOLID
 70
     1
 71
     0
 91
        1
 92
        1
 93
        3
 72
     1
 10
505.3613917906999
 20
365.4827810476385
 11
508.7073641859716
 21
363.1917300362765
 72
     1
 10
508.7073641859716
 20
363.1917300362765
 11
506.2852987346699
 21
366.444120688734
 72
     1
 10
506.2852987346699
 20
366.4441206887341
 11
505.3613917906999
 21
365.4827810476385
 97
        0
 75
     0
 76
     1
 98
        0
  0
LWPOLYLINE
  5
440
330
43D
100
AcDbEntity
  8
Default
  6
Continuous
 62
     7
 48
25.4
370
    20
100
AcDbPolyline
 90
        4
 70
     1
 43
0.0
 10
505.3613917907
 20
365.4827810476
 10
508.707364186
 20
363.1917300363
 10
506.2852987347
 20
366.4441206887
 10
505.3613917907
 20
365.4827810476
  0
HATCH
  5
441
330
43D
100
AcDbEntity
  8
Default
  6
Continuous
 62
     7
 48
25.4
100
AcDbHatch
 10
0.0
 20
0.0
 30
0.0
210
0.0
220
0.0
230
1.0
  2
SOLID
 70
     1
 71
     0
 91
        1
 92
        1
 93
        3
 72
     1
 10
441.4855178176521
 20
393.2850679501973
 11
437.473071439417
 21
392.6979392859586
 72
     1
 10
437.473071439417
 20
392.6979392859586
 11
441.4590489315546
 21
391.9519973051351
 72
     1
 10
441.4590489315546
 20
391.9519973051351
 11
441.4855178176521
 21
393.2850679501973
 97
        0
 75
     0
 76
     1
 98
        0
  0
LWPOLYLINE
  5
442
330
43D
100
AcDbEntity
  8
Default
  6
Continuous
 62
     7
 48
25.4
370
    20
100
AcDbPolyline
 90
        4
 70
     1
 43
0.0
 10
441.4855178177
 20
393.2850679502
 10
437.4730714394
 20
392.697939286
 10
441.4590489316
 20
391.9519973051
 10
441.4855178177
 20
393.2850679502
  0
LINE
  5
443
330
43D
100
AcDbEntity
  8
Default
  6
Continuous
 62
     7
 48
25.4
100
AcDbLine
 10
470.707091219
 20
325.1914570693
 30
0.0
 11
510.121575346
 21
364.6059411963
 31
0.0
  0
LINE
  5
444
330
43D
100
AcDbEntity
  8
Default
  6
Continuous
 62
     7
 48
25.4
100
AcDbLine
 10
437.4730736412
 20
291.9574394915
 30
0.0
 11
437.4730736412
 21
394.6979358885
 31
0.0
  0
ARC
  5
445
330
43D
100
AcDbEntity
  8
Default
  6
Continuous
 62
     7
 48
25.4
100
AcDbCircle
 10
437.4730736412
 20
291.9574394915
 30
0.0
 40
100.7404997944833
100
AcDbArc
 50
45.0
 51
90.0000012522
  0
TEXT
  5
446
330
43D
100
AcDbEntity
  8
Default
  6
Continuous
 62
     7
 48
25.4
100
AcDbText
 10
472.4709471311
 20
387.5839690691
 30
0.0
 40
4.0
  1
45°
 50
337.5
  7
SEACAD_arial_ttf
 11
474.0016808605
 21
391.2794871992
 31
0.0
100
AcDbText
 73
     3
  0
ENDBLK
  5
448
330
43D
100
AcDbEntity
  8
0
100
AcDbBlockEnd
  0
BLOCK
  5
453
330
449
100
AcDbEntity
  8
0
100
AcDbBlockBegin
  2
GDimGGroup30
 70
     0
 71
     0
 10
0.0
 20
0.0
 30
0.0
  3
GDimGGroup30
  1

  0
HATCH
  5
44B
330
449
100
AcDbEntity
  8
Default
  6
Continuous
 62
     7
 48
25.4
100
AcDbHatch
 10
0.0
 20
0.0
 30
0.0
210
0.0
220
0.0
230
1.0
  2
SOLID
 70
     1
 71
     0
 91
        1
 92
        1
 93
        3
 72
     1
 10
533.0287525569447
 20
321.6880940262756
 11
534.7809241459305
 21
318.0309994514342
 72
     1
 10
534.7809241459305
 20
318.0309994514342
 11
534.3095492617033
 21
322.0586851051444
 72
     1
 10
534.3095492617033
 20
322.0586851051444
 11
533.0287525569447
 21
321.6880940262756
 97
        0
 75
     0
 76
     1
 98
        0
  0
LWPOLYLINE
  5
44C
330
449
100
AcDbEntity
  8
Default
  6
Continuous
 62
     7
 48
25.4
370
    20
100
AcDbPolyline
 90
        4
 70
     1
 43
0.0
 10
533.0287525569
 20
321.6880940263
 10
534.7809241459
 20
318.0309994514
 10
534.3095492617
 20
322.0586851051
 10
533.0287525569
 20
321.6880940263
  0
HATCH
  5
44D
330
449
100
AcDbEntity
  8
Default
  6
Continuous
 62
     7
 48
25.4
100
AcDbHatch
 10
0.0
 20
0.0
 30
0.0
210
0.0
220
0.0
230
1.0
  2
SOLID
 70
     1
 71
     0
 91
        1
 92
        1
 93
        3
 72
     1
 10
511.9597538335193
 20
360.7696656672134
 11
508.707363148055
 21
363.1917310741931
 72
     1
 10
508.707363148055
 20
363.1917310741931
 11
510.9984142050142
 21
359.8457587101428
 72
     1
 10
510.9984142050142
 20
359.8457587101428
 11
511.9597538335193
 21
360.7696656672134
 97
        0
 75
     0
 76
     1
 98
        0
  0
LWPOLYLINE
  5
44E
330
449
100
AcDbEntity
  8
Default
  6
Continuous
 62
     7
 48
25.4
370
    20
100
AcDbPolyline
 90
        4
 70
     1
 43
0.0
 10
511.9597538335
 20
360.7696656672
 10
508.7073631481
 20
363.1917310742
 10
510.998414205
 20
359.8457587101
 10
511.9597538335
 20
360.7696656672
  0
LINE
  5
44F
330
449
100
AcDbEntity
  8
Default
  6
Continuous
 62
     7
 48
25.4
100
AcDbLine
 10
476.6896639387
 20
302.4654931916
 30
0.0
 11
536.7127725168
 21
318.5486366623
 31
0.0
  0
LINE
  5
450
330
449
100
AcDbEntity
  8
Default
  6
Continuous
 62
     7
 48
25.4
100
AcDbLine
 10
470.707091219
 20
325.1914570693
 30
0.0
 11
510.121575346
 21
364.6059411963
 31
0.0
  0
ARC
  5
451
330
449
100
AcDbEntity
  8
Default
  6
Continuous
 62
     7
 48
25.4
100
AcDbCircle
 10
437.4730736412
 20
291.9574394915
 30
0.0
 40
100.7404997944838
100
AcDbArc
 50
15.0
 51
45.0000008348
  0
TEXT
  5
452
330
449
100
AcDbEntity
  8
Default
  6
Continuous
 62
     7
 48
25.4
100
AcDbText
 10
523.4524962743
 20
346.5177106744
 30
0.0
 40
4.0
  1
30°
 50
300.0
  7
SEACAD_arial_ttf
 11
526.9165978894
 21
348.5177106744
 31
0.0
100
AcDbText
 73
     3
  0
ENDBLK
  5
454
330
449
100
AcDbEntity
  8
0
100
AcDbBlockEnd
  0
BLOCK
  5
45F
330
455
100
AcDbEntity
  8
0
100
AcDbBlockBegin
  2
GDimGGroup31
 70
     0
 71
     0
 10
0.0
 20
0.0
 30
0.0
  3
GDimGGroup31
  1

  0
HATCH
  5
457
330
455
100
AcDbEntity
  8
Default
  6
Continuous
 62
     7
 48
25.4
100
AcDbHatch
 10
0.0
 20
0.0
 30
0.0
210
0.0
220
0.0
230
1.0
  2
SOLID
 70
     1
 71
     0
 91
        1
 92
        1
 93
        3
 72
     1
 10
537.4676313714725
 20
295.9434169680134
 11
538.2135734356536
 21
291.9574394914755
 72
     1
 10
538.2135734356536
 20
291.9574394914754
 11
538.8007020159811
 21
295.969885881989
 72
     1
 10
538.8007020159811
 20
295.969885881989
 11
537.4676313714726
 21
295.9434169680134
 97
        0
 75
     0
 76
     1
 98
        0
  0
LWPOLYLINE
  5
458
330
455
100
AcDbEntity
  8
Default
  6
Continuous
 62
     7
 48
25.4
370
    20
100
AcDbPolyline
 90
        4
 70
     1
 43
0.0
 10
537.4676313715
 20
295.943416968
 10
538.2135734357
 20
291.9574394915
 10
538.800702016
 20
295.969885882
 10
537.4676313715
 20
295.943416968
  0
HATCH
  5
459
330
455
100
AcDbEntity
  8
Default
  6
Continuous
 62
     7
 48
25.4
100
AcDbHatch
 10
0.0
 20
0.0
 30
0.0
210
0.0
220
0.0
230
1.0
  2
SOLID
 70
     1
 71
     0
 91
        1
 92
        1
 93
        3
 72
     1
 10
536.3865441820041
 20
314.3072346338431
 11
534.7809239559786
 21
318.0310001603445
 72
     1
 10
534.7809239559786
 20
318.0310001603446
 11
535.0920461611913
 21
313.98777756197
 72
     1
 10
535.0920461611913
 20
313.98777756197
 11
536.3865441820041
 21
314.3072346338431
 97
        0
 75
     0
 76
     1
 98
        0
  0
LWPOLYLINE
  5
45A
330
455
100
AcDbEntity
  8
Default
  6
Continuous
 62
     7
 48
25.4
370
    20
100
AcDbPolyline
 90
        4
 70
     1
 43
0.0
 10
536.386544182
 20
314.3072346338
 10
534.780923956
 20
318.0310001603
 10
535.0920461612
 20
313.987777562
 10
536.386544182
 20
314.3072346338
  0
LINE
  5
45B
330
455
100
AcDbEntity
  8
Default
  6
Continuous
 62
     7
 48
25.4
100
AcDbLine
 10
536.6851538814
 20
291.9574394915
 30
0.0
 11
540.2135700382
 21
291.9574394915
 31
0.0
  0
LINE
  5
45C
330
455
100
AcDbEntity
  8
Default
  6
Continuous
 62
     7
 48
25.4
100
AcDbLine
 10
476.6896639387
 20
302.4654931916
 30
0.0
 11
536.7127725168
 21
318.5486366623
 31
0.0
  0
ARC
  5
45D
330
455
100
AcDbEntity
  8
Default
  6
Continuous
 62
     7
 48
25.4
100
AcDbCircle
 10
437.4730736412
 20
291.9574394915
 30
0.0
 40
100.7404997944872
100
AcDbArc
 50
0.0
 51
15.0000004174
  0
TEXT
  5
45E
330
455
100
AcDbEntity
  8
Default
  6
Continuous
 62
     7
 48
25.4
100
AcDbText
 10
537.7870142761
 20
309.4616567596
 30
0.0
 40
4.0
  1
15°
 50
277.5
  7
SEACAD_arial_ttf
 11
541.7527937216
 21
309.9837615285
 31
0.0
100
AcDbText
 73
     3
  0
ENDBLK
  5
460
330
455
100
AcDbEntity
  8
0
100
AcDbBlockEnd
  0
ENDSEC
  0
SECTION
  2
ENTITIES
  0
INSERT
  5
2C
330
1F
100
AcDbEntity
  8
Default
100
AcDbBlockReference
  2
SEANNOT_GROUP
 10
0.0
 20
0.0
 30
0.0
  0
INSERT
  5
37
330
1F
100
AcDbEntity
  8
Default
100
AcDbBlockReference
  2
SEANNOT_GROUP1
 10
0.0
 20
0.0
 30
0.0
  0
INSERT
  5
40
330
1F
100
AcDbEntity
  8
Default
100
AcDbBlockReference
  2
SEANNOT_GROUP2
 10
0.0
 20
0.0
 30
0.0
  0
INSERT
  5
4A
330
1F
100
AcDbEntity
  8
Default
100
AcDbBlockReference
  2
SEANNOT_GROUP3
 10
0.0
 20
0.0
 30
0.0
  0
INSERT
  5
55
330
1F
100
AcDbEntity
  8
Default
100
AcDbBlockReference
  2
SEANNOT_GROUP4
 10
0.0
 20
0.0
 30
0.0
  0
INSERT
  5
5F
330
1F
100
AcDbEntity
  8
Default
100
AcDbBlockReference
  2
SEANNOT_GROUP5
 10
0.0
 20
0.0
 30
0.0
  0
INSERT
  5
68
330
1F
100
AcDbEntity
  8
Default
100
AcDbBlockReference
  2
SE
 10
0.0
 20
0.0
 30
0.0
  0
INSERT
  5
140
330
1F
100
AcDbEntity
  8
Default
100
AcDbBlockReference
  2
SE1
 10
0.0
 20
0.0
 30
0.0
  0
INSERT
  5
1E3
330
1F
100
AcDbEntity
  8
Default
100
AcDbBlockReference
  2
GDimGGroup
 10
0.0
 20
0.0
 30
0.0
  0
INSERT
  5
1F0
330
1F
100
AcDbEntity
  8
Default
100
AcDbBlockReference
  2
GDimGGroup1
 10
0.0
 20
0.0
 30
0.0
  0
INSERT
  5
1FC
330
1F
100
AcDbEntity
  8
Default
100
AcDbBlockReference
  2
GDimGGroup2
 10
0.0
 20
0.0
 30
0.0
  0
INSERT
  5
208
330
1F
100
AcDbEntity
  8
Default
100
AcDbBlockReference
  2
GDimGGroup3
 10
0.0
 20
0.0
 30
0.0
  0
INSERT
  5
214
330
1F
100
AcDbEntity
  8
Default
100
AcDbBlockReference
  2
GDimGGroup4
 10
0.0
 20
0.0
 30
0.0
  0
INSERT
  5
220
330
1F
100
AcDbEntity
  8
Default
100
AcDbBlockReference
  2
GDimGGroup5
 10
0.0
 20
0.0
 30
0.0
  0
INSERT
  5
22D
330
1F
100
AcDbEntity
  8
Default
100
AcDbBlockReference
  2
GDimGGroup6
 10
0.0
 20
0.0
 30
0.0
  0
INSERT
  5
239
330
1F
100
AcDbEntity
  8
Default
100
AcDbBlockReference
  2
GDimGGroup7
 10
0.0
 20
0.0
 30
0.0
  0
INSERT
  5
246
330
1F
100
AcDbEntity
  8
Default
100
AcDbBlockReference
  2
GDimGGroup8
 10
0.0
 20
0.0
 30
0.0
  0
INSERT
  5
253
330
1F
100
AcDbEntity
  8
Default
100
AcDbBlockReference
  2
GDimGGroup9
 10
0.0
 20
0.0
 30
0.0
  0
INSERT
  5
261
330
1F
100
AcDbEntity
  8
Default
100
AcDbBlockReference
  2
GDimGGroup10
 10
0.0
 20
0.0
 30
0.0
  0
INSERT
  5
26B
330
1F
100
AcDbEntity
  8
Default
100
AcDbBlockReference
  2
SE2
 10
0.0
 20
0.0
 30
0.0
  0
INSERT
  5
361
330
1F
100
AcDbEntity
  8
Default
100
AcDbBlockReference
  2
GDimGGroup11
 10
0.0
 20
0.0
 30
0.0
  0
INSERT
  5
36D
330
1F
100
AcDbEntity
  8
Default
100
AcDbBlockReference
  2
GDimGGroup12
 10
0.0
 20
0.0
 30
0.0
  0
INSERT
  5
379
330
1F
100
AcDbEntity
  8
Default
100
AcDbBlockReference
  2
GDimGGroup13
 10
0.0
 20
0.0
 30
0.0
  0
INSERT
  5
386
330
1F
100
AcDbEntity
  8
Default
100
AcDbBlockReference
  2
GDimGGroup14
 10
0.0
 20
0.0
 30
0.0
  0
INSERT
  5
394
330
1F
100
AcDbEntity
  8
Default
100
AcDbBlockReference
  2
GDimGGroup15
 10
0.0
 20
0.0
 30
0.0
  0
INSERT
  5
3A0
330
1F
100
AcDbEntity
  8
Default
100
AcDbBlockReference
  2
GDimGGroup16
 10
0.0
 20
0.0
 30
0.0
  0
INSERT
  5
3AB
330
1F
100
AcDbEntity
  8
Default
100
AcDbBlockReference
  2
GDimGGroup17
 10
0.0
 20
0.0
 30
0.0
  0
INSERT
  5
3B6
330
1F
100
AcDbEntity
  8
Default
100
AcDbBlockReference
  2
GDimGGroup18
 10
0.0
 20
0.0
 30
0.0
  0
INSERT
  5
3C2
330
1F
100
AcDbEntity
  8
Default
100
AcDbBlockReference
  2
GDimGGroup19
 10
0.0
 20
0.0
 30
0.0
  0
INSERT
  5
3CE
330
1F
100
AcDbEntity
  8
Default
100
AcDbBlockReference
  2
GDimGGroup20
 10
0.0
 20
0.0
 30
0.0
  0
INSERT
  5
3DA
330
1F
100
AcDbEntity
  8
Default
100
AcDbBlockReference
  2
GDimGGroup21
 10
0.0
 20
0.0
 30
0.0
  0
INSERT
  5
3E6
330
1F
100
AcDbEntity
  8
Default
100
AcDbBlockReference
  2
GDimGGroup22
 10
0.0
 20
0.0
 30
0.0
  0
INSERT
  5
3F4
330
1F
100
AcDbEntity
  8
Default
100
AcDbBlockReference
  2
GDimGGroup23
 10
0.0
 20
0.0
 30
0.0
  0
INSERT
  5
402
330
1F
100
AcDbEntity
  8
Default
100
AcDbBlockReference
  2
GDimGGroup24
 10
0.0
 20
0.0
 30
0.0
  0
INSERT
  5
40D
330
1F
100
AcDbEntity
  8
Default
100
AcDbBlockReference
  2
GDimGGroup25
 10
0.0
 20
0.0
 30
0.0
  0
INSERT
  5
419
330
1F
100
AcDbEntity
  8
Default
100
AcDbBlockReference
  2
GDimGGroup26
 10
0.0
 20
0.0
 30
0.0
  0
INSERT
  5
426
330
1F
100
AcDbEntity
  8
Default
100
AcDbBlockReference
  2
GDimGGroup27
 10
0.0
 20
0.0
 30
0.0
  0
INSERT
  5
432
330
1F
100
AcDbEntity
  8
Default
100
AcDbBlockReference
  2
GDimGGroup28
 10
0.0
 20
0.0
 30
0.0
  0
INSERT
  5
43E
330
1F
100
AcDbEntity
  8
Default
100
AcDbBlockReference
  2
GDimGGroup29
 10
0.0
 20
0.0
 30
0.0
  0
INSERT
  5
44A
330
1F
100
AcDbEntity
  8
Default
100
AcDbBlockReference
  2
GDimGGroup30
 10
0.0
 20
0.0
 30
0.0
  0
INSERT
  5
456
330
1F
100
AcDbEntity
  8
Default
100
AcDbBlockReference
  2
GDimGGroup31
 10
0.0
 20
0.0
 30
0.0
  0
LINE
  5
462
330
1F
100
AcDbEntity
  8
BORDER
  6
Continuous
 62
     7
 48
25.4
100
AcDbLine
 10
6.2292620399
 20
410.0
 30
0.0
 11
586.2292620399
 21
410.0
 31
0.0
  0
LINE
  5
463
330
1F
100
AcDbEntity
  8
BORDER
  6
Continuous
 62
     7
 48
25.4
100
AcDbLine
 10
6.2292620399
 20
410.0
 30
0.0
 11
6.2292620399
 21
10.0
 31
0.0
  0
LINE
  5
464
330
1F
100
AcDbEntity
  8
BORDER
  6
Continuous
 62
     7
 48
25.4
100
AcDbLine
 10
6.2292620399
 20
10.0
 30
0.0
 11
586.2292620399
 21
10.0
 31
0.0
  0
LINE
  5
465
330
1F
100
AcDbEntity
  8
BORDER
  6
Continuous
 62
     7
 48
25.4
100
AcDbLine
 10
586.2292620399
 20
10.0
 30
0.0
 11
586.2292620399
 21
410.0
 31
0.0
  0
LINE
  5
466
330
1F
100
AcDbEntity
  8
Default
  6
Continuous
 62
     7
 48
25.4
100
AcDbLine
 10
3.7292620399
 20
412.5
 30
0.0
 11
588.7292620399
 21
412.5
 31
0.0
  0
LINE
  5
467
330
1F
100
AcDbEntity
  8
Default
  6
Continuous
 62
     7
 48
25.4
100
AcDbLine
 10
588.7292620399
 20
412.5
 30
0.0
 11
588.7292620399
 21
7.5
 31
0.0
  0
LINE
  5
468
330
1F
100
AcDbEntity
  8
Default
  6
Continuous
 62
     7
 48
25.4
100
AcDbLine
 10
588.7292620399
 20
7.5
 30
0.0
 11
3.7292620399
 21
7.5
 31
0.0
  0
LINE
  5
469
330
1F
100
AcDbEntity
  8
Default
  6
Continuous
 62
     7
 48
25.4
100
AcDbLine
 10
3.7292620399
 20
7.5
 30
0.0
 11
3.7292620399
 21
412.5
 31
0.0
  0
TEXT
  5
46A
330
1F
100
AcDbEntity
  8
Default
  6
Continuous
 62
     7
 48
25.4
100
AcDbText
 10
473.5242219525
 20
28.1561611714
 30
0.0
 40
5.0
  1
TITLE :
  7
SEACAD_arial_ttf
 11
473.5242219525
 21
33.1561611714
 31
0.0
100
AcDbText
 73
     3
  0
TEXT
  5
46B
330
1F
100
AcDbEntity
  8
Default
  6
Continuous
 62
     7
 48
25.4
100
AcDbText
 10
473.4498030642
 20
40.2710242694
 30
0.0
 40
5.0
  1
KITAGAWA EUROPE LIMITED
  7
SEACAD_arial_ttf
 11
473.4498030642
 21
45.2710242694
 31
0.0
100
AcDbText
 73
     3
  0
TEXT
  5
46C
330
1F
100
AcDbEntity
  8
Default
  6
Continuous
 62
     7
 48
25.4
100
AcDbText
 10
474.0233693351
 20
14.6180387033
 30
0.0
 40
5.0
  1
www.kitagawaeurope.com
  7
SEACAD_arial_ttf
 11
474.0233693351
 21
19.6180387033
 31
0.0
100
AcDbText
 73
     3
  0
TEXT
  5
46D
330
1F
100
AcDbEntity
  8
Default
  6
Continuous
 62
     7
 48
25.4
100
AcDbText
 10
497.8463064412
 20
27.8559210467
 30
0.0
 40
5.0
  1
B-18A11 POWER CHUCK
  7
SEACAD_arial_ttf
 11
497.8463064412
 21
32.8559210467
 31
0.0
100
AcDbText
 73
     3
  0
LINE
  5
46E
330
1F
100
AcDbEntity
  8
Default
  6
Continuous
 62
     7
 48
25.4
100
AcDbLine
 10
471.5030858285
 20
50.0
 30
0.0
 11
586.2292620399
 21
50.0
 31
0.0
  0
LINE
  5
46F
330
1F
100
AcDbEntity
  8
Default
  6
Continuous
 62
     7
 48
25.4
100
AcDbLine
 10
471.5030858285
 20
36.7
 30
0.0
 11
586.2292620399
 21
36.7
 31
0.0
  0
LINE
  5
470
330
1F
100
AcDbEntity
  8
Default
  6
Continuous
 62
     7
 48
25.4
100
AcDbLine
 10
586.2292620399
 20
23.4
 30
0.0
 11
471.5030858285
 21
23.4
 31
0.0
  0
LINE
  5
471
330
1F
100
AcDbEntity
  8
Default
  6
Continuous
 62
     7
 48
25.4
100
AcDbLine
 10
471.5030858285
 20
50.0
 30
0.0
 11
471.5030858285
 21
10.0
 31
0.0
  0
ENDSEC
  0
SECTION
  2
OBJECTS
  0
DICTIONARY
  5
C
330
0
100
AcDbDictionary
281
     1
  3
ACAD_GROUP
350
D
  3
ACAD_LAYOUT
350
1A
  3
ACAD_MLINESTYLE
350
17
  3
ACAD_PLOTSETTINGS
350
19
  3
ACAD_PLOTSTYLENAME
350
E
  0
DICTIONARY
  5
D
102
{ACAD_REACTORS
330
C
102
}
330
C
100
AcDbDictionary
281
     1
  0
DICTIONARY
  5
1A
102
{ACAD_REACTORS
330
C
102
}
330
C
100
AcDbDictionary
281
     1
  3
Layout1
350
1E
  3
Model
350
22
  0
DICTIONARY
  5
17
102
{ACAD_REACTORS
330
C
102
}
330
C
100
AcDbDictionary
281
     1
  3
Standard
350
18
  0
DICTIONARY
  5
19
102
{ACAD_REACTORS
330
C
102
}
330
C
100
AcDbDictionary
281
     1
  0
ACDBDICTIONARYWDFLT
  5
E
102
{ACAD_REACTORS
330
C
102
}
330
C
100
AcDbDictionary
281
     1
  3
Normal
350
F
100
AcDbDictionaryWithDefault
340
F
  0
LAYOUT
  5
1E
102
{ACAD_REACTORS
330
1A
102
}
330
1A
100
AcDbPlotSettings
  1

  2

  4

  6

 40
0.0
 41
0.0
 42
0.0
 43
0.0
 44
0.0
 45
0.0
 46
0.0
 47
0.0
 48
0.0
 49
0.0
140
0.0
141
0.0
142
1.0
143
1.0
 70
   688
 72
     0
 73
     0
 74
     5
  7

 75
    16
147
1.0
148
0.0
149
0.0
100
AcDbLayout
  1
Layout1
 70
     1
 71
     1
 10
0.0
 20
0.0
 11
594.0
 21
420.0
 12
0.0
 22
0.0
 32
0.0
 14
0.0
 24
0.0
 34
0.0
 15
594.0
 25
420.0
 35
0.0
146
0.0
 13
0.0
 23
0.0
 33
0.0
 16
1.0
 26
0.0
 36
0.0
 17
0.0
 27
1.0
 37
0.0
 76
     0
330
1B
  0
LAYOUT
  5
22
102
{ACAD_REACTORS
330
1A
102
}
330
1A
100
AcDbPlotSettings
  1

  2

  4

  6

 40
0.0
 41
0.0
 42
0.0
 43
0.0
 44
0.0
 45
0.0
 46
0.0
 47
0.0
 48
0.0
 49
0.0
140
0.0
141
0.0
142
1.0
143
1.0
 70
  1712
 72
     0
 73
     0
 74
     0
  7

 75
     0
147
1.0
148
0.0
149
0.0
100
AcDbLayout
  1
Model
 70
     1
 71
     0
 10
0.0
 20
0.0
 11
594.0
 21
420.0
 12
0.0
 22
0.0
 32
0.0
 14
0.0
 24
0.0
 34
0.0
 15
594.0
 25
420.0
 35
0.0
146
0.0
 13
0.0
 23
0.0
 33
0.0
 16
1.0
 26
0.0
 36
0.0
 17
0.0
 27
1.0
 37
0.0
 76
     0
330
1F
  0
MLINESTYLE
  5
18
102
{ACAD_REACTORS
330
17
102
}
330
17
100
AcDbMlineStyle
  2
Standard
 70
     0
  3

 62
   256
 51
90.0
 52
90.0
 71
     2
 49
0.5
 62
   256
  6
BYLAYER
 49
-0.5
 62
   256
  6
BYLAYER
  0
ACDBPLACEHOLDER
  5
F
102
{ACAD_REACTORS
330
E
102
}
330
E
  0
ENDSEC
  0
EOF
