  0
SECTION
  2
HEADER
  9
$ACADVER
  1
AC1015
  9
$ACADMAINTVER
 70
     6
  9
$DWGCODEPAGE
  3
ANSI_1252
  9
$INSBASE
 10
0.0
 20
0.0
 30
0.0
  9
$EXTMIN
 10
0.0
 20
0.0
 30
0.0
  9
$EXTMAX
 10
594.0
 20
420.0
 30
0.0
  9
$LIMMIN
 10
0.0
 20
0.0
  9
$LIMMAX
 10
594.0
 20
420.0
  9
$ORTHOMODE
 70
     0
  9
$REGENMODE
 70
     1
  9
$FILLMODE
 70
     1
  9
$QTEXTMODE
 70
     0
  9
$MIRRTEXT
 70
     1
  9
$LTSCALE
 40
1.0
  9
$ATTMODE
 70
     1
  9
$TEXTSIZE
 40
0.2
  9
$TRACEWID
 40
0.05
  9
$TEXTSTYLE
  7
Standard
  9
$CLAYER
  8
0
  9
$CELTYPE
  6
ByLayer
  9
$CECOLOR
 62
   256
  9
$CELTSCALE
 40
25.4
  9
$DISPSILH
 70
     0
  9
$DIMSCALE
 40
1.0
  9
$DIMASZ
 40
0.18
  9
$DIMEXO
 40
0.0625
  9
$DIMDLI
 40
0.38
  9
$DIMRND
 40
0.0
  9
$DIMDLE
 40
0.0
  9
$DIMEXE
 40
0.18
  9
$DIMTP
 40
0.0
  9
$DIMTM
 40
0.0
  9
$DIMTXT
 40
0.18
  9
$DIMCEN
 40
0.09
  9
$DIMTSZ
 40
0.0
  9
$DIMTOL
 70
     0
  9
$DIMLIM
 70
     0
  9
$DIMTIH
 70
     1
  9
$DIMTOH
 70
     1
  9
$DIMSE1
 70
     0
  9
$DIMSE2
 70
     0
  9
$DIMTAD
 70
     0
  9
$DIMZIN
 70
     0
  9
$DIMBLK
  1

  9
$DIMASO
 70
     1
  9
$DIMSHO
 70
     1
  9
$DIMPOST
  1

  9
$DIMAPOST
  1

  9
$DIMALT
 70
     0
  9
$DIMALTD
 70
     2
  9
$DIMALTF
 40
25.4
  9
$DIMLFAC
 40
1.0
  9
$DIMTOFL
 70
     0
  9
$DIMTVP
 40
0.0
  9
$DIMTIX
 70
     0
  9
$DIMSOXD
 70
     0
  9
$DIMSAH
 70
     0
  9
$DIMBLK1
  1

  9
$DIMBLK2
  1

  9
$DIMSTYLE
  2
Standard
  9
$DIMCLRD
 70
     0
  9
$DIMCLRE
 70
     0
  9
$DIMCLRT
 70
     0
  9
$DIMTFAC
 40
1.0
  9
$DIMGAP
 40
0.09
  9
$DIMJUST
 70
     0
  9
$DIMSD1
 70
     0
  9
$DIMSD2
 70
     0
  9
$DIMTOLJ
 70
     1
  9
$DIMTZIN
 70
     0
  9
$DIMALTZ
 70
     0
  9
$DIMALTTZ
 70
     0
  9
$DIMUPT
 70
     0
  9
$DIMDEC
 70
     4
  9
$DIMTDEC
 70
     4
  9
$DIMALTU
 70
     2
  9
$DIMALTTD
 70
     2
  9
$DIMTXSTY
  7
Standard
  9
$DIMAUNIT
 70
     0
  9
$DIMADEC
 70
     0
  9
$DIMALTRND
 40
0.0
  9
$DIMAZIN
 70
     0
  9
$DIMDSEP
 70
    46
  9
$DIMATFIT
 70
     3
  9
$DIMFRAC
 70
     0
  9
$DIMLDRBLK
  1

  9
$DIMLUNIT
 70
     2
  9
$DIMLWD
 70
    -2
  9
$DIMLWE
 70
    -2
  9
$DIMTMOVE
 70
     0
  9
$LUNITS
 70
     2
  9
$LUPREC
 70
     4
  9
$SKETCHINC
 40
0.1
  9
$FILLETRAD
 40
0.5
  9
$AUNITS
 70
     0
  9
$AUPREC
 70
     0
  9
$MENU
  1
.
  9
$ELEVATION
 40
0.0
  9
$PELEVATION
 40
0.0
  9
$THICKNESS
 40
0.0
  9
$LIMCHECK
 70
     0
  9
$CHAMFERA
 40
0.5
  9
$CHAMFERB
 40
0.5
  9
$CHAMFERC
 40
1.0
  9
$CHAMFERD
 40
0.0
  9
$SKPOLY
 70
     0
  9
$TDCREATE
 40
2454876.370206886
  9
$TDUCREATE
 40
2454876.370206886
  9
$TDUPDATE
 40
2454876.370206898
  9
$TDUUPDATE
 40
2454876.370206898
  9
$TDINDWG
 40
0.0000000116
  9
$TDUSRTIMER
 40
0.0000000116
  9
$USRTIMER
 70
     1
  9
$ANGBASE
 50
0.0
  9
$ANGDIR
 70
     0
  9
$PDMODE
 70
     0
  9
$PDSIZE
 40
0.0
  9
$PLINEWID
 40
0.0
  9
$SPLFRAME
 70
     0
  9
$SPLINETYPE
 70
     6
  9
$SPLINESEGS
 70
     8
  9
$HANDSEED
  5
5C7
  9
$SURFTAB1
 70
     6
  9
$SURFTAB2
 70
     6
  9
$SURFTYPE
 70
     6
  9
$SURFU
 70
     6
  9
$SURFV
 70
     6
  9
$UCSBASE
  2

  9
$UCSNAME
  2

  9
$UCSORG
 10
0.0
 20
0.0
 30
0.0
  9
$UCSXDIR
 10
1.0
 20
0.0
 30
0.0
  9
$UCSYDIR
 10
0.0
 20
1.0
 30
0.0
  9
$UCSORTHOREF
  2

  9
$UCSORTHOVIEW
 70
     0
  9
$UCSORGTOP
 10
0.0
 20
0.0
 30
0.0
  9
$UCSORGBOTTOM
 10
0.0
 20
0.0
 30
0.0
  9
$UCSORGLEFT
 10
0.0
 20
0.0
 30
0.0
  9
$UCSORGRIGHT
 10
0.0
 20
0.0
 30
0.0
  9
$UCSORGFRONT
 10
0.0
 20
0.0
 30
0.0
  9
$UCSORGBACK
 10
0.0
 20
0.0
 30
0.0
  9
$PUCSBASE
  2

  9
$PUCSNAME
  2

  9
$PUCSORG
 10
0.0
 20
0.0
 30
0.0
  9
$PUCSXDIR
 10
1.0
 20
0.0
 30
0.0
  9
$PUCSYDIR
 10
0.0
 20
1.0
 30
0.0
  9
$PUCSORTHOREF
  2

  9
$PUCSORTHOVIEW
 70
     0
  9
$PUCSORGTOP
 10
0.0
 20
0.0
 30
0.0
  9
$PUCSORGBOTTOM
 10
0.0
 20
0.0
 30
0.0
  9
$PUCSORGLEFT
 10
0.0
 20
0.0
 30
0.0
  9
$PUCSORGRIGHT
 10
0.0
 20
0.0
 30
0.0
  9
$PUCSORGFRONT
 10
0.0
 20
0.0
 30
0.0
  9
$PUCSORGBACK
 10
0.0
 20
0.0
 30
0.0
  9
$USERI1
 70
     0
  9
$USERI2
 70
     0
  9
$USERI3
 70
     0
  9
$USERI4
 70
     0
  9
$USERI5
 70
     0
  9
$USERR1
 40
0.0
  9
$USERR2
 40
0.0
  9
$USERR3
 40
0.0
  9
$USERR4
 40
0.0
  9
$USERR5
 40
0.0
  9
$WORLDVIEW
 70
     1
  9
$SHADEDGE
 70
     3
  9
$SHADEDIF
 70
    70
  9
$TILEMODE
 70
     1
  9
$MAXACTVP
 70
    64
  9
$PINSBASE
 10
0.0
 20
0.0
 30
0.0
  9
$PLIMCHECK
 70
     0
  9
$PEXTMIN
 10
0.0
 20
0.0
 30
0.0
  9
$PEXTMAX
 10
594.0
 20
420.0
 30
0.0
  9
$PLIMMIN
 10
0.0
 20
0.0
  9
$PLIMMAX
 10
594.0
 20
420.0
  9
$UNITMODE
 70
     0
  9
$VISRETAIN
 70
     1
  9
$PLINEGEN
 70
     0
  9
$PSLTSCALE
 70
     1
  9
$TREEDEPTH
 70
  3020
  9
$CMLSTYLE
  2
Standard
  9
$CMLJUST
 70
     0
  9
$CMLSCALE
 40
1.0
  9
$PROXYGRAPHICS
 70
     1
  9
$MEASUREMENT
 70
     1
  9
$CELWEIGHT
370
    -1
  9
$ENDCAPS
280
     0
  9
$JOINSTYLE
280
     0
  9
$LWDISPLAY
290
     0
  9
$INSUNITS
 70
     1
  9
$HYPERLINKBASE
  1

  9
$STYLESHEET
  1

  9
$XEDIT
290
     1
  9
$CEPSNTYPE
380
     0
  9
$PSTYLEMODE
290
     1
  9
$FINGERPRINTGUID
  2
{65A9E40A-80E0-4A1F-8104-1808B96C57D1}
  9
$VERSIONGUID
  2
{FAEB1C32-E019-11D5-929B-00C0DF256EC4}
  9
$EXTNAMES
290
     1
  9
$PSVPSCALE
 40
0.0
  9
$OLESTARTUP
290
     0
  0
ENDSEC
  0
SECTION
  2
CLASSES
  0
CLASS
  1
ACDBDICTIONARYWDFLT
  2
AcDbDictionaryWithDefault
  3
ObjectDBX Classes
 90
        0
280
     0
281
     0
  0
CLASS
  1
ACDBPLACEHOLDER
  2
AcDbPlaceHolder
  3
ObjectDBX Classes
 90
        0
280
     0
281
     0
  0
CLASS
  1
LAYOUT
  2
AcDbLayout
  3
ObjectDBX Classes
 90
        0
280
     0
281
     0
  0
ENDSEC
  0
SECTION
  2
TABLES
  0
TABLE
  2
VPORT
  5
8
330
0
100
AcDbSymbolTable
 70
     1
  0
VPORT
  5
29
330
8
100
AcDbSymbolTableRecord
100
AcDbViewportTableRecord
  2
*Active
 70
     0
 10
0.0
 20
0.0
 11
1.0
 21
1.0
 12
10.4299065421
 22
4.5
 13
0.0
 23
0.0
 14
0.5
 24
0.5
 15
0.5
 25
0.5
 16
0.0
 26
0.0
 36
1.0
 17
0.0
 27
0.0
 37
0.0
 40
9.0
 41
1.9729729729
 42
50.0
 43
0.0
 44
0.0
 50
0.0
 51
0.0
 71
     0
 72
   100
 73
     1
 74
     3
 75
     0
 76
     0
 77
     0
 78
     0
281
     0
 65
     1
110
0.0
120
0.0
130
0.0
111
1.0
121
0.0
131
0.0
112
0.0
122
1.0
132
0.0
 79
     0
146
0.0
  0
ENDTAB
  0
TABLE
  2
LTYPE
  5
5
330
0
100
AcDbSymbolTable
 70
     3
  0
LTYPE
  5
14
330
5
100
AcDbSymbolTableRecord
100
AcDbLinetypeTableRecord
  2
ByBlock
 70
     0
  3

 72
    65
 73
     0
 40
0.0
  0
LTYPE
  5
15
330
5
100
AcDbSymbolTableRecord
100
AcDbLinetypeTableRecord
  2
ByLayer
 70
     0
  3

 72
    65
 73
     0
 40
0.0
  0
LTYPE
  5
16
330
5
100
AcDbSymbolTableRecord
100
AcDbLinetypeTableRecord
  2
Continuous
 70
     0
  3
Solid line
 72
    65
 73
     0
 40
0.0
  0
LTYPE
  5
8D
330
5
100
AcDbSymbolTableRecord
100
AcDbLinetypeTableRecord
  2
CENTER2
 70
     0
  3
___ _ ___ _ ___ _ ___ _ ___ _ ___ _ ___ _ ___ _
 72
    65
 73
     4
 40
1.125
 49
0.75
 74
     4
 75
     0
340
0
 46
0.0
 50
0.0
 44
0.0
 45
0.0
 49
-0.125
 74
     4
 75
     0
340
0
 46
0.0
 50
0.0
 44
0.0
 45
0.0
 49
0.125
 74
     4
 75
     0
340
0
 46
0.0
 50
0.0
 44
0.0
 45
0.0
 49
-0.125
 74
     4
 75
     0
340
0
 46
0.0
 50
0.0
 44
0.0
 45
0.0
  0
LTYPE
  5
182
330
5
100
AcDbSymbolTableRecord
100
AcDbLinetypeTableRecord
  2
HIDDEN2
 70
     0
  3
_ _ _ _ _ _ _ _ _ _ _ _ _ _ _ _ _ _ _ _ _ _ _ _
 72
    65
 73
     2
 40
0.1875
 49
0.125
 74
     4
 75
     0
340
0
 46
0.0
 50
0.0
 44
0.0
 45
0.0
 49
-0.0625
 74
     4
 75
     0
340
0
 46
0.0
 50
0.0
 44
0.0
 45
0.0
  0
ENDTAB
  0
TABLE
  2
LAYER
  5
2
330
0
100
AcDbSymbolTable
 70
     6
  0
LAYER
  5
10
330
2
100
AcDbSymbolTableRecord
100
AcDbLayerTableRecord
  2
0
 70
     0
 62
     7
  6
Continuous
370
    -3
390
F
  0
LAYER
  5
2A
330
2
100
AcDbSymbolTableRecord
100
AcDbLayerTableRecord
  2
Default
 70
     0
 62
     7
  6
Continuous
370
    -3
390
F
  0
LAYER
  5
67
330
2
100
AcDbSymbolTableRecord
100
AcDbLayerTableRecord
  2
DV1_Default
 70
     0
 62
     7
  6
Continuous
370
    -3
390
F
  0
LAYER
  5
148
330
2
100
AcDbSymbolTableRecord
100
AcDbLayerTableRecord
  2
DV2_Default
 70
     0
 62
     7
  6
Continuous
370
    -3
390
F
  0
LAYER
  5
3A9
330
2
100
AcDbSymbolTableRecord
100
AcDbLayerTableRecord
  2
DV3_Default
 70
     0
 62
     7
  6
Continuous
370
    -3
390
F
  0
LAYER
  5
5B6
330
2
100
AcDbSymbolTableRecord
100
AcDbLayerTableRecord
  2
BORDER
 70
     0
 62
     7
  6
Continuous
370
    -3
390
F
  0
ENDTAB
  0
TABLE
  2
STYLE
  5
3
330
0
100
AcDbSymbolTable
 70
     3
  0
STYLE
  5
11
330
3
100
AcDbSymbolTableRecord
100
AcDbTextStyleTableRecord
  2
Standard
 70
     0
 40
0.0
 41
1.0
 50
0.0
 71
     0
 42
0.2
  3
txt
  4

  0
STYLE
  5
31
330
3
100
AcDbSymbolTableRecord
100
AcDbTextStyleTableRecord
  2
SEACAD_arial_ttf
 70
     0
 40
0.2
 41
1.0
 50
0.0
 71
     0
 42
0.2
  3
arial.ttf
  4

  0
STYLE
  5
44
330
3
100
AcDbSymbolTableRecord
100
AcDbTextStyleTableRecord
  2
SEACAD_semeca1_ttf
 70
     0
 40
0.2
 41
1.0
 50
0.0
 71
     0
 42
0.2
  3
semeca1.ttf
  4

  0
ENDTAB
  0
TABLE
  2
VIEW
  5
6
330
0
100
AcDbSymbolTable
 70
     0
  0
ENDTAB
  0
TABLE
  2
UCS
  5
7
330
0
100
AcDbSymbolTable
 70
     0
  0
ENDTAB
  0
TABLE
  2
APPID
  5
9
330
0
100
AcDbSymbolTable
 70
     1
  0
APPID
  5
12
330
9
100
AcDbSymbolTableRecord
100
AcDbRegAppTableRecord
  2
ACAD
 70
     0
  0
ENDTAB
  0
TABLE
  2
DIMSTYLE
  5
A
330
0
100
AcDbSymbolTable
 70
     1
100
AcDbDimStyleTable
  0
DIMSTYLE
105
27
330
A
100
AcDbSymbolTableRecord
100
AcDbDimStyleTableRecord
  2
Standard
 70
     0
340
11
  0
ENDTAB
  0
TABLE
  2
BLOCK_RECORD
  5
1
330
0
100
AcDbSymbolTable
 70
    40
  0
BLOCK_RECORD
  5
1F
330
1
100
AcDbSymbolTableRecord
100
AcDbBlockTableRecord
  2
*Model_Space
340
22
  0
BLOCK_RECORD
  5
1B
330
1
100
AcDbSymbolTableRecord
100
AcDbBlockTableRecord
  2
*Paper_Space
340
1E
  0
BLOCK_RECORD
  5
2B
330
1
100
AcDbSymbolTableRecord
100
AcDbBlockTableRecord
  2
SEANNOT_GROUP
340
0
102
{BLKREFS
331
2C
102
}
  0
BLOCK_RECORD
  5
35
330
1
100
AcDbSymbolTableRecord
100
AcDbBlockTableRecord
  2
SEANNOT_GROUP1
340
0
102
{BLKREFS
331
36
102
}
  0
BLOCK_RECORD
  5
3F
330
1
100
AcDbSymbolTableRecord
100
AcDbBlockTableRecord
  2
SEANNOT_GROUP2
340
0
102
{BLKREFS
331
40
102
}
  0
BLOCK_RECORD
  5
49
330
1
100
AcDbSymbolTableRecord
100
AcDbBlockTableRecord
  2
SEANNOT_GROUP3
340
0
102
{BLKREFS
331
4A
102
}
  0
BLOCK_RECORD
  5
53
330
1
100
AcDbSymbolTableRecord
100
AcDbBlockTableRecord
  2
SEANNOT_GROUP4
340
0
102
{BLKREFS
331
54
102
}
  0
BLOCK_RECORD
  5
5C
330
1
100
AcDbSymbolTableRecord
100
AcDbBlockTableRecord
  2
SEANNOT_GROUP5
340
0
102
{BLKREFS
331
5D
102
}
  0
BLOCK_RECORD
  5
65
330
1
100
AcDbSymbolTableRecord
100
AcDbBlockTableRecord
  2
SE
340
0
102
{BLKREFS
331
66
102
}
  0
BLOCK_RECORD
  5
146
330
1
100
AcDbSymbolTableRecord
100
AcDbBlockTableRecord
  2
SE1
340
0
102
{BLKREFS
331
147
102
}
  0
BLOCK_RECORD
  5
3A7
330
1
100
AcDbSymbolTableRecord
100
AcDbBlockTableRecord
  2
SE2
340
0
102
{BLKREFS
331
3A8
102
}
  0
BLOCK_RECORD
  5
445
330
1
100
AcDbSymbolTableRecord
100
AcDbBlockTableRecord
  2
GDimGGroup
340
0
102
{BLKREFS
331
446
102
}
  0
BLOCK_RECORD
  5
451
330
1
100
AcDbSymbolTableRecord
100
AcDbBlockTableRecord
  2
GDimGGroup1
340
0
102
{BLKREFS
331
452
102
}
  0
BLOCK_RECORD
  5
45D
330
1
100
AcDbSymbolTableRecord
100
AcDbBlockTableRecord
  2
GDimGGroup2
340
0
102
{BLKREFS
331
45E
102
}
  0
BLOCK_RECORD
  5
46A
330
1
100
AcDbSymbolTableRecord
100
AcDbBlockTableRecord
  2
GDimGGroup3
340
0
102
{BLKREFS
331
46B
102
}
  0
BLOCK_RECORD
  5
476
330
1
100
AcDbSymbolTableRecord
100
AcDbBlockTableRecord
  2
GDimGGroup4
340
0
102
{BLKREFS
331
477
102
}
  0
BLOCK_RECORD
  5
482
330
1
100
AcDbSymbolTableRecord
100
AcDbBlockTableRecord
  2
GDimGGroup5
340
0
102
{BLKREFS
331
483
102
}
  0
BLOCK_RECORD
  5
48D
330
1
100
AcDbSymbolTableRecord
100
AcDbBlockTableRecord
  2
GDimGGroup6
340
0
102
{BLKREFS
331
48E
102
}
  0
BLOCK_RECORD
  5
49A
330
1
100
AcDbSymbolTableRecord
100
AcDbBlockTableRecord
  2
GDimGGroup7
340
0
102
{BLKREFS
331
49B
102
}
  0
BLOCK_RECORD
  5
4A6
330
1
100
AcDbSymbolTableRecord
100
AcDbBlockTableRecord
  2
GDimGGroup8
340
0
102
{BLKREFS
331
4A7
102
}
  0
BLOCK_RECORD
  5
4B3
330
1
100
AcDbSymbolTableRecord
100
AcDbBlockTableRecord
  2
GDimGGroup9
340
0
102
{BLKREFS
331
4B4
102
}
  0
BLOCK_RECORD
  5
4C0
330
1
100
AcDbSymbolTableRecord
100
AcDbBlockTableRecord
  2
GDimGGroup10
340
0
102
{BLKREFS
331
4C1
102
}
  0
BLOCK_RECORD
  5
4CB
330
1
100
AcDbSymbolTableRecord
100
AcDbBlockTableRecord
  2
GDimGGroup11
340
0
102
{BLKREFS
331
4CC
102
}
  0
BLOCK_RECORD
  5
4D7
330
1
100
AcDbSymbolTableRecord
100
AcDbBlockTableRecord
  2
GDimGGroup12
340
0
102
{BLKREFS
331
4D8
102
}
  0
BLOCK_RECORD
  5
4E3
330
1
100
AcDbSymbolTableRecord
100
AcDbBlockTableRecord
  2
GDimGGroup13
340
0
102
{BLKREFS
331
4E4
102
}
  0
BLOCK_RECORD
  5
4EF
330
1
100
AcDbSymbolTableRecord
100
AcDbBlockTableRecord
  2
GDimGGroup14
340
0
102
{BLKREFS
331
4F0
102
}
  0
BLOCK_RECORD
  5
4FD
330
1
100
AcDbSymbolTableRecord
100
AcDbBlockTableRecord
  2
GDimGGroup15
340
0
102
{BLKREFS
331
4FE
102
}
  0
BLOCK_RECORD
  5
50B
330
1
100
AcDbSymbolTableRecord
100
AcDbBlockTableRecord
  2
GDimGGroup16
340
0
102
{BLKREFS
331
50C
102
}
  0
BLOCK_RECORD
  5
516
330
1
100
AcDbSymbolTableRecord
100
AcDbBlockTableRecord
  2
GDimGGroup17
340
0
102
{BLKREFS
331
517
102
}
  0
BLOCK_RECORD
  5
520
330
1
100
AcDbSymbolTableRecord
100
AcDbBlockTableRecord
  2
GDimGGroup18
340
0
102
{BLKREFS
331
521
102
}
  0
BLOCK_RECORD
  5
52D
330
1
100
AcDbSymbolTableRecord
100
AcDbBlockTableRecord
  2
GDimGGroup19
340
0
102
{BLKREFS
331
52E
102
}
  0
BLOCK_RECORD
  5
53B
330
1
100
AcDbSymbolTableRecord
100
AcDbBlockTableRecord
  2
GDimGGroup20
340
0
102
{BLKREFS
331
53C
102
}
  0
BLOCK_RECORD
  5
547
330
1
100
AcDbSymbolTableRecord
100
AcDbBlockTableRecord
  2
GDimGGroup21
340
0
102
{BLKREFS
331
548
102
}
  0
BLOCK_RECORD
  5
553
330
1
100
AcDbSymbolTableRecord
100
AcDbBlockTableRecord
  2
GDimGGroup22
340
0
102
{BLKREFS
331
554
102
}
  0
BLOCK_RECORD
  5
55F
330
1
100
AcDbSymbolTableRecord
100
AcDbBlockTableRecord
  2
GDimGGroup23
340
0
102
{BLKREFS
331
560
102
}
  0
BLOCK_RECORD
  5
56C
330
1
100
AcDbSymbolTableRecord
100
AcDbBlockTableRecord
  2
GDimGGroup24
340
0
102
{BLKREFS
331
56D
102
}
  0
BLOCK_RECORD
  5
578
330
1
100
AcDbSymbolTableRecord
100
AcDbBlockTableRecord
  2
GDimGGroup25
340
0
102
{BLKREFS
331
579
102
}
  0
BLOCK_RECORD
  5
586
330
1
100
AcDbSymbolTableRecord
100
AcDbBlockTableRecord
  2
GDimGGroup26
340
0
102
{BLKREFS
331
587
102
}
  0
BLOCK_RECORD
  5
592
330
1
100
AcDbSymbolTableRecord
100
AcDbBlockTableRecord
  2
GDimGGroup27
340
0
102
{BLKREFS
331
593
102
}
  0
BLOCK_RECORD
  5
59E
330
1
100
AcDbSymbolTableRecord
100
AcDbBlockTableRecord
  2
GDimGGroup28
340
0
102
{BLKREFS
331
59F
102
}
  0
BLOCK_RECORD
  5
5AA
330
1
100
AcDbSymbolTableRecord
100
AcDbBlockTableRecord
  2
GDimGGroup29
340
0
102
{BLKREFS
331
5AB
102
}
  0
ENDTAB
  0
ENDSEC
  0
SECTION
  2
BLOCKS
  0
BLOCK
  5
20
330
1F
100
AcDbEntity
  8
0
100
AcDbBlockBegin
  2
*Model_Space
 70
     0
 71
     0
 10
0.0
 20
0.0
 30
0.0
  3
*Model_Space
  1

  0
ENDBLK
  5
21
330
1F
100
AcDbEntity
  8
0
100
AcDbBlockEnd
  0
BLOCK
  5
1C
330
1B
100
AcDbEntity
 67
     1
  8
0
100
AcDbBlockBegin
  2
*Paper_Space
 70
     0
 71
     0
 10
0.0
 20
0.0
 30
0.0
  3
*Paper_Space
  1

  0
ENDBLK
  5
1D
330
1B
100
AcDbEntity
 67
     1
  8
0
100
AcDbBlockEnd
  0
BLOCK
  5
33
330
2B
100
AcDbEntity
  8
0
100
AcDbBlockBegin
  2
SEANNOT_GROUP
 70
     0
 71
     0
 10
0.0
 20
0.0
 30
0.0
  3
SEANNOT_GROUP
  1

  0
LWPOLYLINE
  5
2D
330
2B
100
AcDbEntity
  8
Default
  6
Continuous
 62
     7
 48
25.4
100
AcDbPolyline
 90
        2
 70
     0
 43
0.0
 10
111.2299057632
 20
233.0960213059
 10
131.1175376068
 20
251.9111045661
  0
HATCH
  5
2E
330
2B
100
AcDbEntity
  8
Default
  6
Continuous
 62
     7
 48
25.4
100
AcDbHatch
 10
0.0
 20
0.0
 30
0.0
210
0.0
220
0.0
230
1.0
  2
SOLID
 70
     1
 71
     0
 91
        1
 92
        1
 93
        3
 72
     1
 10
128.6700079860161
 20
248.6778330399414
 11
131.1175376068218
 21
251.911104566099
 72
     1
 10
131.1175376068218
 20
251.911104566099
 11
127.7536782813599
 21
249.6463978643194
 72
     1
 10
127.7536782813599
 20
249.6463978643194
 11
128.6700079860161
 21
248.6778330399414
 97
        0
 75
     0
 76
     1
 98
        0
  0
LWPOLYLINE
  5
2F
330
2B
100
AcDbEntity
  8
Default
  6
Continuous
 62
     7
 48
25.4
370
    20
100
AcDbPolyline
 90
        4
 70
     1
 43
0.00025
 10
128.670007986
 20
248.6778330399
 10
131.1175376068
 20
251.9111045661
 10
127.7536782814
 20
249.6463978643
 10
128.670007986
 20
248.6778330399
  0
LINE
  5
30
330
2B
100
AcDbEntity
  8
Default
  6
Continuous
 62
     7
 48
25.4
100
AcDbLine
 10
111.2299057632
 20
233.0960213059
 30
0.0
 11
91.5590867256
 21
233.0960213059
 31
0.0
  0
TEXT
  5
32
330
2B
100
AcDbEntity
  8
Default
  6
Continuous
 62
     7
 48
25.4
100
AcDbText
 10
91.5590867256
 20
234.0960213059
 30
0.0
 40
4.0
  1
6 - M12
  7
SEACAD_arial_ttf
 11
91.5590867256
 21
238.0960213059
 31
0.0
100
AcDbText
 73
     3
  0
ENDBLK
  5
34
330
2B
100
AcDbEntity
  8
0
100
AcDbBlockEnd
  0
BLOCK
  5
3D
330
35
100
AcDbEntity
  8
0
100
AcDbBlockBegin
  2
SEANNOT_GROUP1
 70
     0
 71
     0
 10
0.0
 20
0.0
 30
0.0
  3
SEANNOT_GROUP1
  1

  0
LWPOLYLINE
  5
37
330
35
100
AcDbEntity
  8
Default
  6
Continuous
 62
     7
 48
25.4
100
AcDbPolyline
 90
        2
 70
     0
 43
0.0
 10
245.1252133722
 20
392.3185375001
 10
210.421096514
 20
362.9908438757
  0
HATCH
  5
38
330
35
100
AcDbEntity
  8
Default
  6
Continuous
 62
     7
 48
25.4
100
AcDbHatch
 10
0.0
 20
0.0
 30
0.0
210
0.0
220
0.0
230
1.0
  2
SOLID
 70
     1
 71
     0
 91
        1
 92
        1
 93
        3
 72
     1
 10
213.0459527090616
 20
366.0818915883667
 11
210.4210965140049
 21
362.9908438757205
 72
     1
 10
210.4210965140049
 20
362.9908438757205
 11
213.9065705512681
 21
365.0635032163133
 72
     1
 10
213.9065705512682
 20
365.0635032163134
 11
213.0459527090616
 21
366.0818915883668
 97
        0
 75
     0
 76
     1
 98
        0
  0
LWPOLYLINE
  5
39
330
35
100
AcDbEntity
  8
Default
  6
Continuous
 62
     7
 48
25.4
370
    20
100
AcDbPolyline
 90
        4
 70
     1
 43
0.00025
 10
213.0459527091
 20
366.0818915884
 10
210.421096514
 20
362.9908438757
 10
213.9065705513
 20
365.0635032163
 10
213.0459527091
 20
366.0818915884
  0
LINE
  5
3A
330
35
100
AcDbEntity
  8
Default
  6
Continuous
 62
     7
 48
25.4
100
AcDbLine
 10
245.1252133722
 20
392.3185375001
 30
0.0
 11
316.9657930824
 21
392.3185375001
 31
0.0
  0
TEXT
  5
3B
330
35
100
AcDbEntity
  8
Default
  6
Continuous
 62
     7
 48
25.4
100
AcDbText
 10
245.1252133722
 20
393.3185375001
 30
0.0
 40
4.0
  1
SERRATION PITCH 1.5X60
  7
SEACAD_arial_ttf
 11
245.1252133722
 21
397.3185375001
 31
0.0
100
AcDbText
 73
     3
  0
TEXT
  5
3C
330
35
100
AcDbEntity
  8
Default
  6
Continuous
 62
     7
 48
25.4
100
AcDbText
 10
315.2991264157
 20
393.3185375001
 30
0.0
 40
4.0
  1
°
  7
SEACAD_arial_ttf
 11
315.2991264157
 21
397.3185375001
 31
0.0
100
AcDbText
 73
     3
  0
ENDBLK
  5
3E
330
35
100
AcDbEntity
  8
0
100
AcDbBlockEnd
  0
BLOCK
  5
47
330
3F
100
AcDbEntity
  8
0
100
AcDbBlockBegin
  2
SEANNOT_GROUP2
 70
     0
 71
     0
 10
0.0
 20
0.0
 30
0.0
  3
SEANNOT_GROUP2
  1

  0
LWPOLYLINE
  5
41
330
3F
100
AcDbEntity
  8
Default
  6
Continuous
 62
     7
 48
25.4
100
AcDbPolyline
 90
        2
 70
     0
 43
0.0
 10
232.1007201152
 20
280.8172264401
 10
232.1007201152
 20
256.1346727149
  0
HATCH
  5
42
330
3F
100
AcDbEntity
  8
Default
  6
Continuous
 62
     7
 48
25.4
100
AcDbHatch
 10
0.0
 20
0.0
 30
0.0
210
0.0
220
0.0
230
1.0
  2
SOLID
 70
     1
 71
     0
 91
        1
 92
        1
 93
        3
 72
     1
 10
231.4340534168725
 20
260.1346729049188
 11
232.1007201152042
 21
256.134672714929
 72
     1
 10
232.1007201152042
 20
256.134672714929
 11
232.7673868135358
 21
260.1346729049188
 72
     1
 10
232.7673868135358
 20
260.1346729049188
 11
231.4340534168725
 21
260.1346729049188
 97
        0
 75
     0
 76
     1
 98
        0
  0
LWPOLYLINE
  5
43
330
3F
100
AcDbEntity
  8
Default
  6
Continuous
 62
     7
 48
25.4
370
    20
100
AcDbPolyline
 90
        4
 70
     1
 43
0.00025
 10
231.4340534169
 20
260.1346729049
 10
232.1007201152
 20
256.1346727149
 10
232.7673868135
 20
260.1346729049
 10
231.4340534169
 20
260.1346729049
  0
TEXT
  5
45
330
3F
100
AcDbEntity
  8
Default
  6
Continuous
 62
     7
 48
25.4
100
AcDbText
 10
233.5007201152
 20
278.8172264401
 30
0.0
 40
4.0
  1
O
  7
SEACAD_semeca1_ttf
 11
233.5007201152
 21
282.8172264401
 31
0.0
100
AcDbText
 73
     3
  0
TEXT
  5
46
330
3F
100
AcDbEntity
  8
Default
  6
Continuous
 62
     7
 48
25.4
100
AcDbText
 10
238.062123624
 20
278.8172264401
 30
0.0
 40
4.0
  1
133.4
  7
SEACAD_arial_ttf
 11
238.062123624
 21
282.8172264401
 31
0.0
100
AcDbText
 73
     3
  0
ENDBLK
  5
48
330
3F
100
AcDbEntity
  8
0
100
AcDbBlockEnd
  0
BLOCK
  5
51
330
49
100
AcDbEntity
  8
0
100
AcDbBlockBegin
  2
SEANNOT_GROUP3
 70
     0
 71
     0
 10
0.0
 20
0.0
 30
0.0
  3
SEANNOT_GROUP3
  1

  0
LWPOLYLINE
  5
4B
330
49
100
AcDbEntity
  8
Default
  6
Continuous
 62
     7
 48
25.4
100
AcDbPolyline
 90
        2
 70
     0
 43
0.0
 10
129.6236872412
 20
345.1147006209
 10
129.6236872412
 20
354.2691371864
  0
HATCH
  5
4C
330
49
100
AcDbEntity
  8
Default
  6
Continuous
 62
     7
 48
25.4
100
AcDbHatch
 10
0.0
 20
0.0
 30
0.0
210
0.0
220
0.0
230
1.0
  2
SOLID
 70
     1
 71
     0
 91
        1
 92
        1
 93
        3
 72
     1
 10
130.2903539395649
 20
350.2691369964417
 11
129.6236872412332
 21
354.2691371864315
 72
     1
 10
129.6236872412332
 20
354.2691371864315
 11
128.9570205429016
 21
350.2691369964417
 72
     1
 10
128.9570205429016
 20
350.2691369964417
 11
130.2903539395649
 21
350.2691369964417
 97
        0
 75
     0
 76
     1
 98
        0
  0
LWPOLYLINE
  5
4D
330
49
100
AcDbEntity
  8
Default
  6
Continuous
 62
     7
 48
25.4
370
    20
100
AcDbPolyline
 90
        4
 70
     1
 43
0.00025
 10
130.2903539396
 20
350.2691369964
 10
129.6236872412
 20
354.2691371864
 10
128.9570205429
 20
350.2691369964
 10
130.2903539396
 20
350.2691369964
  0
LINE
  5
4E
330
49
100
AcDbEntity
  8
Default
  6
Continuous
 62
     7
 48
25.4
100
AcDbLine
 10
134.4886104043
 20
354.2691371864
 30
0.0
 11
127.6236872412
 21
354.2691371864
 31
0.0
  0
TEXT
  5
4F
330
49
100
AcDbEntity
  8
Default
  6
Continuous
 62
     7
 48
25.4
100
AcDbText
 10
114.2709793846
 20
343.1147006209
 30
0.0
 40
4.0
  1
O
  7
SEACAD_semeca1_ttf
 11
114.2709793846
 21
347.1147006209
 31
0.0
100
AcDbText
 73
     3
  0
TEXT
  5
50
330
49
100
AcDbEntity
  8
Default
  6
Continuous
 62
     7
 48
25.4
100
AcDbText
 10
118.8323828934
 20
343.1147006209
 30
0.0
 40
4.0
  1
150
  7
SEACAD_arial_ttf
 11
118.8323828934
 21
347.1147006209
 31
0.0
100
AcDbText
 73
     3
  0
ENDBLK
  5
52
330
49
100
AcDbEntity
  8
0
100
AcDbBlockEnd
  0
BLOCK
  5
5A
330
53
100
AcDbEntity
  8
0
100
AcDbBlockBegin
  2
SEANNOT_GROUP4
 70
     0
 71
     0
 10
0.0
 20
0.0
 30
0.0
  3
SEANNOT_GROUP4
  1

  0
LWPOLYLINE
  5
55
330
53
100
AcDbEntity
  8
Default
  6
Continuous
 62
     7
 48
25.4
100
AcDbPolyline
 90
        2
 70
     0
 43
0.0
 10
169.7259936523
 20
344.8399103426
 10
161.0558859065
 20
323.1058706485
  0
HATCH
  5
56
330
53
100
AcDbEntity
  8
Default
  6
Continuous
 62
     7
 48
25.4
100
AcDbHatch
 10
0.0
 20
0.0
 30
0.0
210
0.0
220
0.0
230
1.0
  2
SOLID
 70
     1
 71
     0
 91
        1
 92
        1
 93
        3
 72
     1
 10
161.9187685875341
 20
327.0681779920823
 11
161.0558859065183
 21
323.105870648452
 72
     1
 10
161.0558859065183
 20
323.105870648452
 11
163.1571989324403
 21
326.5741453742593
 72
     1
 10
163.1571989324403
 20
326.5741453742593
 11
161.9187685875341
 21
327.0681779920823
 97
        0
 75
     0
 76
     1
 98
        0
  0
LWPOLYLINE
  5
57
330
53
100
AcDbEntity
  8
Default
  6
Continuous
 62
     7
 48
25.4
370
    20
100
AcDbPolyline
 90
        4
 70
     1
 43
0.00025
 10
161.9187685875
 20
327.0681779921
 10
161.0558859065
 20
323.1058706485
 10
163.1571989324
 20
326.5741453743
 10
161.9187685875
 20
327.0681779921
  0
LINE
  5
58
330
53
100
AcDbEntity
  8
Default
  6
Continuous
 62
     7
 48
25.4
100
AcDbLine
 10
169.7259936523
 20
344.8399103426
 30
0.0
 11
205.4651240871
 21
344.8399103426
 31
0.0
  0
TEXT
  5
59
330
53
100
AcDbEntity
  8
Default
  6
Continuous
 62
     7
 48
25.4
100
AcDbText
 10
169.7259936523
 20
345.8399103426
 30
0.0
 40
4.0
  1
MAX M60X2.0
  7
SEACAD_arial_ttf
 11
169.7259936523
 21
349.8399103426
 31
0.0
100
AcDbText
 73
     3
  0
ENDBLK
  5
5B
330
53
100
AcDbEntity
  8
0
100
AcDbBlockEnd
  0
BLOCK
  5
63
330
5C
100
AcDbEntity
  8
0
100
AcDbBlockBegin
  2
SEANNOT_GROUP5
 70
     0
 71
     0
 10
0.0
 20
0.0
 30
0.0
  3
SEANNOT_GROUP5
  1

  0
LWPOLYLINE
  5
5E
330
5C
100
AcDbEntity
  8
Default
  6
Continuous
 62
     7
 48
25.4
100
AcDbPolyline
 90
        2
 70
     0
 43
0.0
 10
162.6846936183
 20
387.7749646442
 10
150.2405582257
 20
356.051357527
  0
HATCH
  5
5F
330
5C
100
AcDbEntity
  8
Default
  6
Continuous
 62
     7
 48
25.4
100
AcDbHatch
 10
0.0
 20
0.0
 30
0.0
210
0.0
220
0.0
230
1.0
  2
SOLID
 70
     1
 71
     0
 91
        1
 92
        1
 93
        3
 72
     1
 10
151.0806394834437
 20
360.0185617676399
 11
150.2405582256797
 21
356.0513575270019
 72
     1
 10
150.2405582256797
 20
356.0513575270019
 11
152.3218905205283
 21
359.5316595088711
 72
     1
 10
152.3218905205283
 20
359.5316595088711
 11
151.0806394834437
 21
360.0185617676399
 97
        0
 75
     0
 76
     1
 98
        0
  0
LWPOLYLINE
  5
60
330
5C
100
AcDbEntity
  8
Default
  6
Continuous
 62
     7
 48
25.4
370
    20
100
AcDbPolyline
 90
        4
 70
     1
 43
0.00025
 10
151.0806394834
 20
360.0185617676
 10
150.2405582257
 20
356.051357527
 10
152.3218905205
 20
359.5316595089
 10
151.0806394834
 20
360.0185617676
  0
LINE
  5
61
330
5C
100
AcDbEntity
  8
Default
  6
Continuous
 62
     7
 48
25.4
100
AcDbLine
 10
162.6846936183
 20
387.7749646442
 30
0.0
 11
175.3803457922
 21
387.7749646442
 31
0.0
  0
TEXT
  5
62
330
5C
100
AcDbEntity
  8
Default
  6
Continuous
 62
     7
 48
25.4
100
AcDbText
 10
162.6846936183
 20
388.7749646442
 30
0.0
 40
4.0
  1
3-M6
  7
SEACAD_arial_ttf
 11
162.6846936183
 21
392.7749646442
 31
0.0
100
AcDbText
 73
     3
  0
ENDBLK
  5
64
330
5C
100
AcDbEntity
  8
0
100
AcDbBlockEnd
  0
BLOCK
  5
144
330
65
100
AcDbEntity
  8
0
100
AcDbBlockBegin
  2
SE
 70
     0
 71
     0
 10
0.0
 20
0.0
 30
0.0
  3
SE
  1

  0
LINE
  5
68
330
65
100
AcDbEntity
  8
DV1_Default
  6
Continuous
 62
     7
 48
25.4
100
AcDbLine
 10
204.1685915433
 20
280.9061222196
 30
0.0
 11
196.1886819275
 21
280.9061222196
 31
0.0
  0
LINE
  5
69
330
65
100
AcDbEntity
  8
DV1_Default
  6
Continuous
 62
     7
 48
25.4
100
AcDbLine
 10
204.3788115617
 20
325.0209317257
 30
0.0
 11
205.0788036333
 21
325.024263355
 31
0.0
  0
LINE
  5
6A
330
65
100
AcDbEntity
  8
DV1_Default
  6
Continuous
 62
     7
 48
25.4
100
AcDbLine
 10
189.2603309669
 20
265.8356403771
 30
0.0
 11
188.5571222771
 21
266.5081364129
 31
0.0
  0
LINE
  5
6B
330
65
100
AcDbEntity
  8
DV1_Default
  6
Continuous
 62
     7
 48
25.4
100
AcDbLine
 10
170.0845319452
 20
276.7079038949
 30
0.0
 11
166.2898256052
 21
276.7079038949
 31
0.0
  0
LINE
  5
6C
330
65
100
AcDbEntity
  8
DV1_Default
  6
Continuous
 62
     7
 48
25.4
100
AcDbLine
 10
159.6302510707
 20
278.7037364123
 30
0.0
 11
158.9856194156
 21
279.3202137668
 31
0.0
  0
LINE
  5
6D
330
65
100
AcDbEntity
  8
DV1_Default
  6
Continuous
 62
     7
 48
25.4
100
AcDbLine
 10
160.1661511726
 20
275.0489057058
 30
0.0
 11
160.7235702618
 21
275.5925007149
 31
0.0
  0
LINE
  5
6E
330
65
100
AcDbEntity
  8
DV1_Default
  6
Continuous
 62
     7
 48
25.4
100
AcDbLine
 10
165.763513177
 20
275.5925007149
 30
0.0
 11
160.7235702618
 21
275.5925007149
 31
0.0
  0
LINE
  5
6F
330
65
100
AcDbEntity
  8
DV1_Default
  6
Continuous
 62
     7
 48
25.4
100
AcDbLine
 10
197.7429049308
 20
263.2405969618
 30
0.0
 11
197.7429049308
 21
249.2405969618
 31
0.0
  0
LINE
  5
70
330
65
100
AcDbEntity
  8
DV1_Default
  6
Continuous
 62
     7
 48
25.4
100
AcDbLine
 10
197.7429049308
 20
263.2405969618
 30
0.0
 11
209.0366414697
 21
263.2405969618
 31
0.0
  0
LINE
  5
71
330
65
100
AcDbEntity
  8
DV1_Default
  6
Continuous
 62
     7
 48
25.4
100
AcDbLine
 10
197.7429049308
 20
249.2405969618
 30
0.0
 11
209.0366414697
 21
249.2405969618
 31
0.0
  0
LINE
  5
72
330
65
100
AcDbEntity
  8
DV1_Default
  6
Continuous
 62
     7
 48
25.4
100
AcDbLine
 10
148.8359199735
 20
260.6846727149
 30
0.0
 11
148.8359199735
 21
362.1786203959
 31
0.0
  0
LINE
  5
73
330
65
100
AcDbEntity
  8
DV1_Default
  6
Continuous
 62
     7
 48
25.4
100
AcDbLine
 10
197.7429049308
 20
262.4150736555
 30
0.0
 11
205.7387597424
 21
262.4150736555
 31
0.0
  0
LINE
  5
74
330
65
100
AcDbEntity
  8
DV1_Default
  6
Continuous
 62
     7
 48
25.4
100
AcDbLine
 10
197.7429049308
 20
249.9405969618
 30
0.0
 11
205.7387597424
 21
249.9405969618
 31
0.0
  0
LINE
  5
75
330
65
100
AcDbEntity
  8
DV1_Default
  6
Continuous
 62
     7
 48
25.4
100
AcDbLine
 10
206.1429049308
 20
250.6405969618
 30
0.0
 11
206.1429049308
 21
261.7150736555
 31
0.0
  0
LINE
  5
76
330
65
100
AcDbEntity
  8
DV1_Default
  6
Continuous
 62
     7
 48
25.4
100
AcDbLine
 10
205.7387597424
 20
249.9405969618
 30
0.0
 11
206.1429049308
 21
250.6405969618
 31
0.0
  0
LINE
  5
77
330
65
100
AcDbEntity
  8
DV1_Default
  6
Continuous
 62
     7
 48
25.4
100
AcDbLine
 10
205.7387597424
 20
262.4150736555
 30
0.0
 11
206.1429049308
 21
261.7150736555
 31
0.0
  0
LINE
  5
78
330
65
100
AcDbEntity
  8
DV1_Default
  6
Continuous
 62
     7
 48
25.4
100
AcDbLine
 10
205.7387597424
 20
262.4150736555
 30
0.0
 11
205.7387597424
 21
249.9405969618
 31
0.0
  0
LINE
  5
79
330
65
100
AcDbEntity
  8
DV1_Default
  6
Continuous
 62
     7
 48
25.4
100
AcDbLine
 10
148.8359199735
 20
243.1786203959
 30
0.0
 11
148.8359199735
 21
251.5846727149
 31
0.0
  0
LINE
  5
7A
330
65
100
AcDbEntity
  8
DV1_Default
  6
Continuous
 62
     7
 48
25.4
100
AcDbLine
 10
155.5706755926
 20
260.682317894
 30
0.0
 11
155.5706755926
 21
251.5846727149
 31
0.0
  0
LINE
  5
7B
330
65
100
AcDbEntity
  8
DV1_Default
  6
Continuous
 62
     7
 48
25.4
100
AcDbLine
 10
148.8359199735
 20
250.8846749881
 30
0.0
 11
197.7429049308
 21
250.8846749881
 31
0.0
  0
LINE
  5
7C
330
65
100
AcDbEntity
  8
DV1_Default
  6
Continuous
 62
     7
 48
25.4
100
AcDbLine
 10
148.8359199735
 20
261.3846755412
 30
0.0
 11
197.7429049308
 21
261.3846755412
 31
0.0
  0
LINE
  5
7D
330
65
100
AcDbEntity
  8
DV1_Default
  6
Continuous
 62
     7
 48
25.4
100
AcDbLine
 10
148.8359199735
 20
262.0846755412
 30
0.0
 11
189.5803922054
 21
262.0846755412
 31
0.0
  0
LINE
  5
7E
330
65
100
AcDbEntity
  8
DV1_Default
  6
Continuous
 62
     7
 48
25.4
100
AcDbLine
 10
189.5803922054
 20
262.0846755412
 30
0.0
 11
189.5803922054
 21
282.1611603008
 31
0.0
  0
LINE
  5
7F
330
65
100
AcDbEntity
  8
DV1_Default
  6
Continuous
 62
     7
 48
25.4
100
AcDbLine
 10
188.5571222771
 20
266.5081364129
 30
0.0
 11
188.5571222771
 21
282.1611603008
 31
0.0
  0
LINE
  5
80
330
65
100
AcDbEntity
  8
DV1_Default
  6
Continuous
 62
     7
 48
25.4
100
AcDbLine
 10
189.2584770867
 20
262.0846755412
 30
0.0
 11
189.2584770867
 21
282.1611603008
 31
0.0
  0
LINE
  5
81
330
65
100
AcDbEntity
  8
DV1_Default
  6
Continuous
 62
     7
 48
25.4
100
AcDbLine
 10
196.1886819275
 20
282.1611603008
 30
0.0
 11
196.1886819275
 21
277.9114797694
 31
0.0
  0
LINE
  5
82
330
65
100
AcDbEntity
  8
DV1_Default
  6
Continuous
 62
     7
 48
25.4
100
AcDbLine
 10
196.1886819275
 20
277.9114797694
 30
0.0
 11
189.5803922054
 21
277.9114797694
 31
0.0
  0
LINE
  5
83
330
65
100
AcDbEntity
  8
DV1_Default
  6
Continuous
 62
     7
 48
25.4
100
AcDbLine
 10
204.5821535498
 20
282.1611603008
 30
0.0
 11
204.5821535498
 21
278.8693450679
 31
0.0
  0
LINE
  5
84
330
65
100
AcDbEntity
  8
DV1_Default
  6
Continuous
 62
     7
 48
25.4
100
AcDbLine
 10
204.5821535498
 20
273.4427616577
 30
0.0
 11
209.0366414697
 21
273.4427616577
 31
0.0
  0
LINE
  5
85
330
65
100
AcDbEntity
  8
DV1_Default
  6
Continuous
 62
     7
 48
25.4
100
AcDbLine
 10
204.5821535498
 20
280.9061222196
 30
0.0
 11
196.1886819275
 21
280.9061222196
 31
0.0
  0
LINE
  5
86
330
65
100
AcDbEntity
  8
DV1_Default
  6
Continuous
 62
     7
 48
25.4
100
AcDbLine
 10
159.6302510707
 20
265.3591307665
 30
0.0
 11
170.0845319452
 21
265.3591307665
 31
0.0
  0
LINE
  5
87
330
65
100
AcDbEntity
  8
DV1_Default
  6
Continuous
 62
     7
 48
25.4
100
AcDbLine
 10
160.1661511726
 20
267.159678233
 30
0.0
 11
160.1661511726
 21
275.0489057058
 31
0.0
  0
LINE
  5
88
330
65
100
AcDbEntity
  8
DV1_Default
  6
Continuous
 62
     7
 48
25.4
100
AcDbLine
 10
165.7623547164
 20
266.4020031601
 30
0.0
 11
159.6302510707
 21
266.4020031601
 31
0.0
  0
LINE
  5
89
330
65
100
AcDbEntity
  8
DV1_Default
  6
Continuous
 62
     7
 48
25.4
100
AcDbLine
 10
165.7623547164
 20
275.8598868472
 30
0.0
 11
159.6302510707
 21
275.8598868472
 31
0.0
  0
LINE
  5
8A
330
65
100
AcDbEntity
  8
DV1_Default
  6
Continuous
 62
     7
 48
25.4
100
AcDbLine
 10
160.7235702618
 20
275.5925007149
 30
0.0
 11
160.7235702618
 21
266.6214138308
 31
0.0
  0
LINE
  5
8B
330
65
100
AcDbEntity
  8
DV1_Default
  6
Continuous
 62
     7
 48
25.4
100
AcDbLine
 10
181.9602935848
 20
268.4308763247
 30
0.0
 11
181.9602935848
 21
273.8310136826
 31
0.0
  0
LINE
  5
8C
330
65
100
AcDbEntity
  8
DV1_Default
  6
Continuous
 62
     7
 48
25.4
100
AcDbLine
 10
181.9602935848
 20
273.8310136826
 30
0.0
 11
165.7720111875
 21
273.8310136826
 31
0.0
  0
LINE
  5
8E
330
65
100
AcDbEntity
  8
DV1_Default
  6
CENTER2
 62
     7
 48
25.4
100
AcDbLine
 10
157.7161511726
 20
271.1042919694
 30
0.0
 11
186.7121131588
 21
271.1042919694
 31
0.0
  0
LINE
  5
8F
330
65
100
AcDbEntity
  8
DV1_Default
  6
Continuous
 62
     7
 48
25.4
100
AcDbLine
 10
165.7623547164
 20
266.4020031601
 30
0.0
 11
165.7623547164
 21
275.8598868472
 31
0.0
  0
LINE
  5
90
330
65
100
AcDbEntity
  8
DV1_Default
  6
Continuous
 62
     7
 48
25.4
100
AcDbLine
 10
160.7235702618
 20
266.6214138308
 30
0.0
 11
165.7623547164
 21
266.6214138308
 31
0.0
  0
LINE
  5
91
330
65
100
AcDbEntity
  8
DV1_Default
  6
Continuous
 62
     7
 48
25.4
100
AcDbLine
 10
160.7235702618
 20
266.6214138308
 30
0.0
 11
160.1661511726
 21
267.159678233
 31
0.0
  0
LINE
  5
92
330
65
100
AcDbEntity
  8
DV1_Default
  6
Continuous
 62
     7
 48
25.4
100
AcDbLine
 10
170.0845319452
 20
268.4308763247
 30
0.0
 11
170.0845319452
 21
265.3591307665
 31
0.0
  0
LINE
  5
93
330
65
100
AcDbEntity
  8
DV1_Default
  6
Continuous
 62
     7
 48
25.4
100
AcDbLine
 10
165.7623547164
 20
274.1810136826
 30
0.0
 11
170.0845319452
 21
274.1810136826
 31
0.0
  0
LINE
  5
94
330
65
100
AcDbEntity
  8
DV1_Default
  6
Continuous
 62
     7
 48
25.4
100
AcDbLine
 10
165.7623547164
 20
268.4308763247
 30
0.0
 11
181.9602935848
 21
268.4308763247
 31
0.0
  0
LINE
  5
95
330
65
100
AcDbEntity
  8
DV1_Default
  6
Continuous
 62
     7
 48
25.4
100
AcDbLine
 10
165.7623547164
 20
268.0808763247
 30
0.0
 11
170.0845319452
 21
268.0808763247
 31
0.0
  0
LINE
  5
96
330
65
100
AcDbEntity
  8
DV1_Default
  6
Continuous
 62
     7
 48
25.4
100
AcDbLine
 10
165.7623547164
 20
268.7808763247
 30
0.0
 11
181.9602935848
 21
268.7808763247
 31
0.0
  0
LINE
  5
97
330
65
100
AcDbEntity
  8
DV1_Default
  6
Continuous
 62
     7
 48
25.4
100
AcDbLine
 10
165.7623547164
 20
273.4810136826
 30
0.0
 11
181.9602935848
 21
273.4810136826
 31
0.0
  0
LINE
  5
98
330
65
100
AcDbEntity
  8
DV1_Default
  6
Continuous
 62
     7
 48
25.4
100
AcDbLine
 10
166.2801757506
 20
278.7037364123
 30
0.0
 11
166.2801757506
 21
276.3699900624
 31
0.0
  0
LINE
  5
99
330
65
100
AcDbEntity
  8
DV1_Default
  6
Continuous
 62
     7
 48
25.4
100
AcDbLine
 10
166.2914339143
 20
276.3699900624
 30
0.0
 11
170.0845319452
 21
276.3699900624
 31
0.0
  0
LINE
  5
9A
330
65
100
AcDbEntity
  8
DV1_Default
  6
Continuous
 62
     7
 48
25.4
100
AcDbLine
 10
159.6302510707
 20
278.7037364123
 30
0.0
 11
166.2801757506
 21
278.7037364123
 31
0.0
  0
LINE
  5
9B
330
65
100
AcDbEntity
  8
DV1_Default
  6
Continuous
 62
     7
 48
25.4
100
AcDbLine
 10
170.0845319452
 20
273.8310136826
 30
0.0
 11
170.0845319452
 21
278.703728687
 31
0.0
  0
LINE
  5
9C
330
65
100
AcDbEntity
  8
DV1_Default
  6
Continuous
 62
     7
 48
25.4
100
AcDbLine
 10
175.6319975537
 20
278.7037364123
 30
0.0
 11
175.6319975537
 21
282.1611680261
 31
0.0
  0
LINE
  5
9D
330
65
100
AcDbEntity
  8
DV1_Default
  6
Continuous
 62
     7
 48
25.4
100
AcDbLine
 10
175.6319975537
 20
282.1611603008
 30
0.0
 11
204.5821535498
 21
282.1611603008
 31
0.0
  0
LINE
  5
9E
330
65
100
AcDbEntity
  8
DV1_Default
  6
Continuous
 62
     7
 48
25.4
100
AcDbLine
 10
209.0366414697
 20
229.6695232189
 30
0.0
 11
209.0366414697
 21
373.8695232189
 31
0.0
  0
LINE
  5
9F
330
65
100
AcDbEntity
  8
DV1_Default
  6
Continuous
 62
     7
 48
25.4
100
AcDbLine
 10
207.6366414697
 20
375.2695232189
 30
0.0
 11
146.7359199735
 21
375.2695232189
 31
0.0
  0
LINE
  5
A0
330
65
100
AcDbEntity
  8
DV1_Default
  6
Continuous
 62
     7
 48
25.4
100
AcDbLine
 10
175.3575563534
 20
283.5094917272
 30
0.0
 11
175.3575563534
 21
278.7037364123
 31
0.0
  0
LINE
  5
A1
330
65
100
AcDbEntity
  8
DV1_Default
  6
Continuous
 62
     7
 48
25.4
100
AcDbLine
 10
175.3575563534
 20
283.5094917272
 30
0.0
 11
175.3575563534
 21
301.7695232189
 31
0.0
  0
LINE
  5
A2
330
65
100
AcDbEntity
  8
DV1_Default
  6
Continuous
 62
     7
 48
25.4
100
AcDbLine
 10
175.9088619551
 20
282.1611680261
 30
0.0
 11
175.9088619551
 21
301.7695232189
 31
0.0
  0
LINE
  5
A3
330
65
100
AcDbEntity
  8
DV1_Default
  6
Continuous
 62
     7
 48
25.4
100
AcDbLine
 10
170.2660349907
 20
326.8315057253
 30
0.0
 11
166.2898256052
 21
326.8315057253
 31
0.0
  0
LINE
  5
A4
330
65
100
AcDbEntity
  8
DV1_Default
  6
Continuous
 62
     7
 48
25.4
100
AcDbLine
 10
159.6302510707
 20
324.835673208
 30
0.0
 11
158.9856194156
 21
324.2191958535
 31
0.0
  0
LINE
  5
A5
330
65
100
AcDbEntity
  8
DV1_Default
  6
Continuous
 62
     7
 48
25.4
100
AcDbLine
 10
173.3356194156
 20
320.039912781
 30
0.0
 11
175.3575563534
 21
320.039912781
 31
0.0
  0
LINE
  5
A6
330
65
100
AcDbEntity
  8
DV1_Default
  6
Continuous
 62
     7
 48
25.4
100
AcDbLine
 10
166.2801757506
 20
324.835673208
 30
0.0
 11
166.2801757506
 21
327.1694195579
 31
0.0
  0
LINE
  5
A7
330
65
100
AcDbEntity
  8
DV1_Default
  6
Continuous
 62
     7
 48
25.4
100
AcDbLine
 10
166.2914339143
 20
327.1694195579
 30
0.0
 11
170.2660349907
 21
327.1694195579
 31
0.0
  0
LINE
  5
A8
330
65
100
AcDbEntity
  8
DV1_Default
  6
Continuous
 62
     7
 48
25.4
100
AcDbLine
 10
159.6302510707
 20
324.835673208
 30
0.0
 11
166.2801757506
 21
324.835673208
 31
0.0
  0
LINE
  5
A9
330
65
100
AcDbEntity
  8
DV1_Default
  6
Continuous
 62
     7
 48
25.4
100
AcDbLine
 10
170.2660349907
 20
324.835673208
 30
0.0
 11
175.3575563534
 21
324.835673208
 31
0.0
  0
LINE
  5
AA
330
65
100
AcDbEntity
  8
DV1_Default
  6
Continuous
 62
     7
 48
25.4
100
AcDbLine
 10
175.3575563534
 20
324.835673208
 30
0.0
 11
175.6319975537
 21
324.835673208
 31
0.0
  0
LINE
  5
AB
330
65
100
AcDbEntity
  8
DV1_Default
  6
Continuous
 62
     7
 48
25.4
100
AcDbLine
 10
175.3575563534
 20
320.0299178931
 30
0.0
 11
175.3575563534
 21
324.835673208
 31
0.0
  0
LINE
  5
AC
330
65
100
AcDbEntity
  8
DV1_Default
  6
Continuous
 62
     7
 48
25.4
100
AcDbLine
 10
175.3575563534
 20
320.0299178931
 30
0.0
 11
175.3575563534
 21
301.7698864014
 31
0.0
  0
LINE
  5
AD
330
65
100
AcDbEntity
  8
DV1_Default
  6
Continuous
 62
     7
 48
25.4
100
AcDbLine
 10
171.8366209794
 20
323.949718351
 30
0.0
 11
171.8366209794
 21
324.835673208
 31
0.0
  0
LINE
  5
AE
330
65
100
AcDbEntity
  8
DV1_Default
  6
Continuous
 62
     7
 48
25.4
100
AcDbLine
 10
170.2660349907
 20
327.1694195579
 30
0.0
 11
170.2660349907
 21
324.835673208
 31
0.0
  0
LINE
  5
AF
330
65
100
AcDbEntity
  8
DV1_Default
  6
Continuous
 62
     7
 48
25.4
100
AcDbLine
 10
148.8359199735
 20
342.0823407829
 30
0.0
 11
163.4023572511
 21
342.0823407829
 31
0.0
  0
SPLINE
  5
B0
330
65
100
AcDbEntity
  8
DV1_Default
  6
Continuous
 62
     7
 48
25.4
100
AcDbSpline
210
0.0
220
0.0
230
1.0
 70
     8
 71
     3
 72
    12
 73
     8
 74
     0
 42
0.0000000001
 43
0.0000000001
 40
0.0
 40
0.0
 40
0.0
 40
0.0
 40
0.2670015346279587
 40
0.5228421795804982
 40
0.7453897530618391
 40
0.9064186172102742
 40
1.0
 40
1.0
 40
1.0
 40
1.0
 10
145.3359199734715
 20
369.5102715624029
 30
0.0
 10
151.4800841116947
 20
370.0511443068062
 30
0.0
 10
165.3473045165569
 20
365.0387974243618
 30
0.0
 10
163.5043970864272
 20
345.4747353449175
 30
0.0
 10
162.9124718871087
 20
331.5263801588537
 30
0.0
 10
176.2557719413002
 20
328.9152226611978
 30
0.0
 10
178.4164246990792
 20
324.2995793524211
 30
0.0
 10
180.4917923051495
 20
321.3778861369239
 30
0.0
  0
LINE
  5
B1
330
65
100
AcDbEntity
  8
DV1_Default
  6
Continuous
 62
     7
 48
25.4
100
AcDbLine
 10
175.6319975537
 20
321.3778938622
 30
0.0
 11
175.6319975537
 21
324.835673208
 31
0.0
  0
LINE
  5
B2
330
65
100
AcDbEntity
  8
DV1_Default
  6
Continuous
 62
     7
 48
25.4
100
AcDbLine
 10
146.7359199735
 20
228.2695232189
 30
0.0
 11
207.6366414697
 21
228.2695232189
 31
0.0
  0
LINE
  5
B3
330
65
100
AcDbEntity
  8
DV1_Default
  6
CENTER2
 62
     7
 48
25.4
100
AcDbLine
 10
132.8267954987
 20
301.7695232189
 30
0.0
 11
257.0627924608
 21
301.7695232189
 31
0.0
  0
LINE
  5
B4
330
65
100
AcDbEntity
  8
DV1_Default
  6
Continuous
 62
     7
 48
25.4
100
AcDbLine
 10
145.3359199735
 20
229.6695232189
 30
0.0
 11
145.3359199735
 21
243.1786203959
 31
0.0
  0
LINE
  5
B5
330
65
100
AcDbEntity
  8
DV1_Default
  6
Continuous
 62
     7
 48
25.4
100
AcDbLine
 10
209.0366414697
 20
280.8403987307
 30
0.0
 11
206.0572234175
 21
280.8403987307
 31
0.0
  0
LINE
  5
B6
330
65
100
AcDbEntity
  8
DV1_Default
  6
Continuous
 62
     7
 48
25.4
100
AcDbLine
 10
206.0572234175
 20
280.8403987307
 30
0.0
 11
206.0572234175
 21
273.8403987307
 31
0.0
  0
LINE
  5
B7
330
65
100
AcDbEntity
  8
DV1_Default
  6
Continuous
 62
     7
 48
25.4
100
AcDbLine
 10
206.0572234175
 20
273.8403987307
 30
0.0
 11
209.0366414697
 21
273.8403987307
 31
0.0
  0
LINE
  5
B8
330
65
100
AcDbEntity
  8
DV1_Default
  6
CENTER2
 62
     7
 48
25.4
100
AcDbLine
 10
208.5072234175
 20
277.3403987307
 30
0.0
 11
196.7210282734
 21
277.3403987307
 31
0.0
  0
LINE
  5
B9
330
65
100
AcDbEntity
  8
DV1_Default
  6
Continuous
 62
     7
 48
25.4
100
AcDbLine
 10
206.0572234175
 20
279.0854769414
 30
0.0
 11
198.3612704807
 21
279.0854769414
 31
0.0
  0
LINE
  5
BA
330
65
100
AcDbEntity
  8
DV1_Default
  6
Continuous
 62
     7
 48
25.4
100
AcDbLine
 10
198.3612704807
 20
279.0854769414
 30
0.0
 11
198.3612704807
 21
275.5854769414
 31
0.0
  0
LINE
  5
BB
330
65
100
AcDbEntity
  8
DV1_Default
  6
Continuous
 62
     7
 48
25.4
100
AcDbLine
 10
198.3612704807
 20
275.5854769414
 30
0.0
 11
206.0572234175
 21
275.5854769414
 31
0.0
  0
LINE
  5
BC
330
65
100
AcDbEntity
  8
DV1_Default
  6
Continuous
 62
     7
 48
25.4
100
AcDbLine
 10
206.0572234175
 20
275.8210741464
 30
0.0
 11
198.3612704807
 21
275.8210741464
 31
0.0
  0
LINE
  5
BD
330
65
100
AcDbEntity
  8
DV1_Default
  6
Continuous
 62
     7
 48
25.4
100
AcDbLine
 10
206.0572234175
 20
278.8693450679
 30
0.0
 11
198.3612704807
 21
278.8693450679
 31
0.0
  0
LINE
  5
BE
330
65
100
AcDbEntity
  8
DV1_Default
  6
Continuous
 62
     7
 48
25.4
100
AcDbLine
 10
204.5821535498
 20
275.8210741464
 30
0.0
 11
204.5821535498
 21
273.4427616577
 31
0.0
  0
LINE
  5
BF
330
65
100
AcDbEntity
  8
DV1_Default
  6
Continuous
 62
     7
 48
25.4
100
AcDbLine
 10
206.0572234175
 20
279.3248338263
 30
0.0
 11
204.5821535498
 21
279.3248338263
 31
0.0
  0
LINE
  5
C0
330
65
100
AcDbEntity
  8
DV1_Default
  6
Continuous
 62
     7
 48
25.4
100
AcDbLine
 10
206.0572234175
 20
275.3305477912
 30
0.0
 11
204.5821535498
 21
275.3305477912
 31
0.0
  0
ARC
  5
C1
330
65
100
AcDbEntity
  8
DV1_Default
  6
Continuous
 62
     7
 48
25.4
100
AcDbCircle
 10
205.7169142217
 20
277.3630915647
 30
0.0
 40
3.296802531687355
100
AcDbArc
 50
275.9248541235
 51
84.0751458765
  0
LINE
  5
C2
330
65
100
AcDbEntity
  8
DV1_Default
  6
Continuous
 62
     7
 48
25.4
100
AcDbLine
 10
205.0788036333
 20
325.024263355
 30
0.0
 11
209.0366414697
 21
322.7392046147
 31
0.0
  0
LINE
  5
C3
330
65
100
AcDbEntity
  8
DV1_Default
  6
Continuous
 62
     7
 48
25.4
100
AcDbLine
 10
209.7366414697
 20
375.2494491158
 30
0.0
 11
209.7366414697
 21
322.4628624873
 31
0.0
  0
LINE
  5
C4
330
65
100
AcDbEntity
  8
DV1_Default
  6
Continuous
 62
     7
 48
25.4
100
AcDbLine
 10
211.4866414697
 20
309.4695232189
 30
0.0
 11
236.3366414697
 21
309.4695232189
 31
0.0
  0
LINE
  5
C5
330
65
100
AcDbEntity
  8
DV1_Default
  6
Continuous
 62
     7
 48
25.4
100
AcDbLine
 10
236.3366414697
 20
309.4695232189
 30
0.0
 11
236.3366414697
 21
375.9695232189
 31
0.0
  0
LINE
  5
C6
330
65
100
AcDbEntity
  8
DV1_Default
  6
Continuous
 62
     7
 48
25.4
100
AcDbLine
 10
236.3366414697
 20
375.9695232189
 30
0.0
 11
210.4567155728
 21
375.9695232189
 31
0.0
  0
LINE
  5
C7
330
65
100
AcDbEntity
  8
DV1_Default
  6
Continuous
 62
     7
 48
25.4
100
AcDbLine
 10
213.2366414697
 20
309.4695232189
 30
0.0
 11
213.2366414697
 21
336.5550962677
 31
0.0
  0
LINE
  5
C8
330
65
100
AcDbEntity
  8
DV1_Default
  6
Continuous
 62
     7
 48
25.4
100
AcDbLine
 10
213.2366414697
 20
309.4695232189
 30
0.0
 11
211.4866414697
 21
309.4695232189
 31
0.0
  0
LINE
  5
C9
330
65
100
AcDbEntity
  8
DV1_Default
  6
Continuous
 62
     7
 48
25.4
100
AcDbLine
 10
211.4866414697
 20
309.4695232189
 30
0.0
 11
211.4866414697
 21
321.5376345081
 31
0.0
  0
ARC
  5
CA
330
65
100
AcDbEntity
  8
DV1_Default
  6
Continuous
 62
     7
 48
25.4
100
AcDbCircle
 10
211.9149320481
 20
324.4653258228
 30
0.0
 40
2.958852692187891
100
AcDbArc
 50
222.5917679133
 51
261.6772630227
  0
LINE
  5
CB
330
65
100
AcDbEntity
  8
DV1_Default
  6
Continuous
 62
     7
 48
25.4
100
AcDbLine
 10
210.421096514
 20
321.9112575678
 30
0.0
 11
210.421096514
 21
375.9695232189
 31
0.0
  0
LINE
  5
CC
330
65
100
AcDbEntity
  8
DV1_Default
  6
CENTER2
 62
     7
 48
25.4
100
AcDbLine
 10
201.2157484367
 20
341.7224971374
 30
0.0
 11
243.8005881144
 21
341.7224971374
 31
0.0
  0
LINE
  5
CD
330
65
100
AcDbEntity
  8
DV1_Default
  6
CENTER2
 62
     7
 48
25.4
100
AcDbLine
 10
200.9583912403
 20
359.1695372097
 30
0.0
 11
244.3392092297
 21
359.1695372097
 31
0.0
  0
LINE
  5
CE
330
65
100
AcDbEntity
  8
DV1_Default
  6
Continuous
 62
     7
 48
25.4
100
AcDbLine
 10
210.421096514
 20
331.855101888
 30
0.0
 11
212.2918977566
 21
331.855101888
 31
0.0
  0
LINE
  5
CF
330
65
100
AcDbEntity
  8
DV1_Default
  6
Continuous
 62
     7
 48
25.4
100
AcDbLine
 10
212.2918977566
 20
331.855101888
 30
0.0
 11
212.2918977566
 21
370.1227677475
 31
0.0
  0
LINE
  5
D0
330
65
100
AcDbEntity
  8
DV1_Default
  6
Continuous
 62
     7
 48
25.4
100
AcDbLine
 10
212.2918977566
 20
370.1227677475
 30
0.0
 11
210.421096514
 21
370.1227677475
 31
0.0
  0
LINE
  5
D1
330
65
100
AcDbEntity
  8
DV1_Default
  6
Continuous
 62
     7
 48
25.4
100
AcDbLine
 10
236.3366414697
 20
365.9888721283
 30
0.0
 11
220.2366414697
 21
365.9888721283
 31
0.0
  0
LINE
  5
D2
330
65
100
AcDbEntity
  8
DV1_Default
  6
Continuous
 62
     7
 48
25.4
100
AcDbLine
 10
220.2366414697
 20
365.9888721283
 30
0.0
 11
220.2366414697
 21
352.6888721283
 31
0.0
  0
LINE
  5
D3
330
65
100
AcDbEntity
  8
DV1_Default
  6
Continuous
 62
     7
 48
25.4
100
AcDbLine
 10
220.2366414697
 20
352.6888721283
 30
0.0
 11
236.3366414697
 21
352.6888721283
 31
0.0
  0
LINE
  5
D4
330
65
100
AcDbEntity
  8
DV1_Default
  6
Continuous
 62
     7
 48
25.4
100
AcDbLine
 10
220.2366414697
 20
363.7185611602
 30
0.0
 11
212.2918977566
 21
363.7185611602
 31
0.0
  0
LINE
  5
D5
330
65
100
AcDbEntity
  8
DV1_Default
  6
Continuous
 62
     7
 48
25.4
100
AcDbLine
 10
212.2918977566
 20
354.6185611602
 30
0.0
 11
220.2366414697
 21
354.6185611602
 31
0.0
  0
LINE
  5
D6
330
65
100
AcDbEntity
  8
DV1_Default
  6
Continuous
 62
     7
 48
25.4
100
AcDbLine
 10
213.2366414697
 20
364.2839494583
 30
0.0
 11
213.2366414697
 21
375.9695232189
 31
0.0
  0
LINE
  5
D7
330
65
100
AcDbEntity
  8
DV1_Default
  6
Continuous
 62
     7
 48
25.4
100
AcDbLine
 10
220.2366414697
 20
363.2120674733
 30
0.0
 11
212.2918977566
 21
363.2120674733
 31
0.0
  0
LINE
  5
D8
330
65
100
AcDbEntity
  8
DV1_Default
  6
Continuous
 62
     7
 48
25.4
100
AcDbLine
 10
220.2366414697
 20
355.1729525857
 30
0.0
 11
212.2918977566
 21
355.1729525857
 31
0.0
  0
LINE
  5
D9
330
65
100
AcDbEntity
  8
DV1_Default
  6
Continuous
 62
     7
 48
25.4
100
AcDbLine
 10
220.2366414697
 20
364.2839494583
 30
0.0
 11
213.2366414697
 21
364.2839494583
 31
0.0
  0
LINE
  5
DA
330
65
100
AcDbEntity
  8
DV1_Default
  6
Continuous
 62
     7
 48
25.4
100
AcDbLine
 10
213.2366414697
 20
354.1010706007
 30
0.0
 11
220.2366414697
 21
354.1010706007
 31
0.0
  0
LINE
  5
DB
330
65
100
AcDbEntity
  8
DV1_Default
  6
Continuous
 62
     7
 48
25.4
100
AcDbLine
 10
220.2366414697
 20
365.4954237356
 30
0.0
 11
226.6595946382
 21
365.4954237356
 31
0.0
  0
LINE
  5
DC
330
65
100
AcDbEntity
  8
DV1_Default
  6
Continuous
 62
     7
 48
25.4
100
AcDbLine
 10
227.3595946382
 20
364.7954237356
 30
0.0
 11
227.3595946382
 21
353.8793260432
 31
0.0
  0
LINE
  5
DD
330
65
100
AcDbEntity
  8
DV1_Default
  6
Continuous
 62
     7
 48
25.4
100
AcDbLine
 10
226.6595946382
 20
353.1793260432
 30
0.0
 11
220.2366414697
 21
353.1793260432
 31
0.0
  0
LINE
  5
DE
330
65
100
AcDbEntity
  8
DV1_Default
  6
Continuous
 62
     7
 48
25.4
100
AcDbLine
 10
227.3595946382
 20
364.7954237356
 30
0.0
 11
226.6595946382
 21
365.4954237356
 31
0.0
  0
LINE
  5
DF
330
65
100
AcDbEntity
  8
DV1_Default
  6
Continuous
 62
     7
 48
25.4
100
AcDbLine
 10
226.6595946382
 20
353.1793260432
 30
0.0
 11
227.3595946382
 21
353.8793260432
 31
0.0
  0
LINE
  5
E0
330
65
100
AcDbEntity
  8
DV1_Default
  6
Continuous
 62
     7
 48
25.4
100
AcDbLine
 10
226.6595946382
 20
365.4954237356
 30
0.0
 11
226.6595946382
 21
353.1793260432
 31
0.0
  0
LINE
  5
E1
330
65
100
AcDbEntity
  8
DV1_Default
  6
Continuous
 62
     7
 48
25.4
100
AcDbLine
 10
236.3366414697
 20
334.8501735977
 30
0.0
 11
220.2366414697
 21
334.8501735977
 31
0.0
  0
LINE
  5
E2
330
65
100
AcDbEntity
  8
DV1_Default
  6
Continuous
 62
     7
 48
25.4
100
AcDbLine
 10
220.2366414697
 20
334.8501735977
 30
0.0
 11
220.2366414697
 21
348.1501735977
 31
0.0
  0
LINE
  5
E3
330
65
100
AcDbEntity
  8
DV1_Default
  6
Continuous
 62
     7
 48
25.4
100
AcDbLine
 10
220.2366414697
 20
348.1501735977
 30
0.0
 11
236.3366414697
 21
348.1501735977
 31
0.0
  0
LINE
  5
E4
330
65
100
AcDbEntity
  8
DV1_Default
  6
Continuous
 62
     7
 48
25.4
100
AcDbLine
 10
220.2366414697
 20
337.1204845658
 30
0.0
 11
212.2918977566
 21
337.1204845658
 31
0.0
  0
LINE
  5
E5
330
65
100
AcDbEntity
  8
DV1_Default
  6
Continuous
 62
     7
 48
25.4
100
AcDbLine
 10
212.2918977566
 20
346.2204845658
 30
0.0
 11
220.2366414697
 21
346.2204845658
 31
0.0
  0
LINE
  5
E6
330
65
100
AcDbEntity
  8
DV1_Default
  6
Continuous
 62
     7
 48
25.4
100
AcDbLine
 10
220.2366414697
 20
337.6269782527
 30
0.0
 11
212.2918977566
 21
337.6269782527
 31
0.0
  0
LINE
  5
E7
330
65
100
AcDbEntity
  8
DV1_Default
  6
Continuous
 62
     7
 48
25.4
100
AcDbLine
 10
220.2366414697
 20
345.6660931403
 30
0.0
 11
212.2918977566
 21
345.6660931403
 31
0.0
  0
LINE
  5
E8
330
65
100
AcDbEntity
  8
DV1_Default
  6
Continuous
 62
     7
 48
25.4
100
AcDbLine
 10
220.2366414697
 20
336.5550962677
 30
0.0
 11
213.2366414697
 21
336.5550962677
 31
0.0
  0
LINE
  5
E9
330
65
100
AcDbEntity
  8
DV1_Default
  6
Continuous
 62
     7
 48
25.4
100
AcDbLine
 10
213.2366414697
 20
346.7379751253
 30
0.0
 11
220.2366414697
 21
346.7379751253
 31
0.0
  0
LINE
  5
EA
330
65
100
AcDbEntity
  8
DV1_Default
  6
Continuous
 62
     7
 48
25.4
100
AcDbLine
 10
220.2366414697
 20
335.3436219904
 30
0.0
 11
226.6595946382
 21
335.3436219904
 31
0.0
  0
LINE
  5
EB
330
65
100
AcDbEntity
  8
DV1_Default
  6
Continuous
 62
     7
 48
25.4
100
AcDbLine
 10
227.3595946382
 20
336.0436219904
 30
0.0
 11
227.3595946382
 21
346.9597196828
 31
0.0
  0
LINE
  5
EC
330
65
100
AcDbEntity
  8
DV1_Default
  6
Continuous
 62
     7
 48
25.4
100
AcDbLine
 10
226.6595946382
 20
347.6597196828
 30
0.0
 11
220.2366414697
 21
347.6597196828
 31
0.0
  0
LINE
  5
ED
330
65
100
AcDbEntity
  8
DV1_Default
  6
Continuous
 62
     7
 48
25.4
100
AcDbLine
 10
227.3595946382
 20
336.0436219904
 30
0.0
 11
226.6595946382
 21
335.3436219904
 31
0.0
  0
LINE
  5
EE
330
65
100
AcDbEntity
  8
DV1_Default
  6
Continuous
 62
     7
 48
25.4
100
AcDbLine
 10
226.6595946382
 20
347.6597196828
 30
0.0
 11
227.3595946382
 21
346.9597196828
 31
0.0
  0
LINE
  5
EF
330
65
100
AcDbEntity
  8
DV1_Default
  6
Continuous
 62
     7
 48
25.4
100
AcDbLine
 10
226.6595946382
 20
335.3436219904
 30
0.0
 11
226.6595946382
 21
347.6597196828
 31
0.0
  0
LINE
  5
F0
330
65
100
AcDbEntity
  8
DV1_Default
  6
Continuous
 62
     7
 48
25.4
100
AcDbLine
 10
213.2366414697
 20
346.7379751253
 30
0.0
 11
213.2366414697
 21
354.1010706007
 31
0.0
  0
LINE
  5
F1
330
65
100
AcDbEntity
  8
DV1_Default
  6
Continuous
 62
     7
 48
25.4
100
AcDbLine
 10
204.3704822119
 20
328.8595232189
 30
0.0
 11
209.0366414697
 21
328.8595232189
 31
0.0
  0
LINE
  5
F2
330
65
100
AcDbEntity
  8
DV1_Default
  6
Continuous
 62
     7
 48
25.4
100
AcDbLine
 10
209.0366414697
 20
328.8595232189
 30
0.0
 11
210.421096514
 21
329.6588387114
 31
0.0
  0
LINE
  5
F3
330
65
100
AcDbEntity
  8
DV1_Default
  6
Continuous
 62
     7
 48
25.4
100
AcDbLine
 10
204.3704822119
 20
321.3778861369
 30
0.0
 11
204.3704822119
 21
328.8595232189
 31
0.0
  0
LINE
  5
F4
330
65
100
AcDbEntity
  8
DV1_Default
  6
Continuous
 62
     7
 48
25.4
100
AcDbLine
 10
145.3359199735
 20
373.8695232189
 30
0.0
 11
146.7359199735
 21
375.2695232189
 31
0.0
  0
LINE
  5
F5
330
65
100
AcDbEntity
  8
DV1_Default
  6
Continuous
 62
     7
 48
25.4
100
AcDbLine
 10
207.6366414697
 20
375.2695232189
 30
0.0
 11
209.0366414697
 21
373.8695232189
 31
0.0
  0
LINE
  5
F6
330
65
100
AcDbEntity
  8
DV1_Default
  6
Continuous
 62
     7
 48
25.4
100
AcDbLine
 10
146.7359199735
 20
228.2695232189
 30
0.0
 11
145.3359199735
 21
229.6695232189
 31
0.0
  0
LINE
  5
F7
330
65
100
AcDbEntity
  8
DV1_Default
  6
Continuous
 62
     7
 48
25.4
100
AcDbLine
 10
207.6366414697
 20
228.2695232189
 30
0.0
 11
209.0366414697
 21
229.6695232189
 31
0.0
  0
LINE
  5
F8
330
65
100
AcDbEntity
  8
DV1_Default
  6
Continuous
 62
     7
 48
25.4
100
AcDbLine
 10
210.4567155728
 20
375.9695232189
 30
0.0
 11
209.7366414697
 21
375.2494491158
 31
0.0
  0
ARC
  5
F9
330
65
100
AcDbEntity
  8
DV1_Default
  6
Continuous
 62
     7
 48
25.4
100
AcDbCircle
 10
208.6516201049
 20
371.5958173162
 30
0.0
 40
3.811337913286055
100
AcDbArc
 50
62.3372402555
 51
105.4445150934
  0
LINE
  5
FA
330
65
100
AcDbEntity
  8
DV1_Default
  6
Continuous
 62
     7
 48
25.4
100
AcDbLine
 10
177.1057750881
 20
301.7695232189
 30
0.0
 11
177.1057750881
 21
283.5695232189
 31
0.0
  0
LINE
  5
FB
330
65
100
AcDbEntity
  8
DV1_Default
  6
Continuous
 62
     7
 48
25.4
100
AcDbLine
 10
177.1057750881
 20
283.5695232189
 30
0.0
 11
209.0366414697
 21
283.5695232189
 31
0.0
  0
LINE
  5
FC
330
65
100
AcDbEntity
  8
DV1_Default
  6
Continuous
 62
     7
 48
25.4
100
AcDbLine
 10
177.1057750881
 20
283.5695232189
 30
0.0
 11
175.9088619551
 21
282.7314356205
 31
0.0
  0
LINE
  5
FD
330
65
100
AcDbEntity
  8
DV1_Default
  6
Continuous
 62
     7
 48
25.4
100
AcDbLine
 10
175.9088619551
 20
321.3778861369
 30
0.0
 11
204.3704822119
 21
321.3778861369
 31
0.0
  0
LINE
  5
FE
330
65
100
AcDbEntity
  8
DV1_Default
  6
Continuous
 62
     7
 48
25.4
100
AcDbLine
 10
175.3575563534
 20
320.0295701612
 30
0.0
 11
175.3575563534
 21
301.7695386695
 31
0.0
  0
LINE
  5
FF
330
65
100
AcDbEntity
  8
DV1_Default
  6
Continuous
 62
     7
 48
25.4
100
AcDbLine
 10
175.9088619551
 20
321.3778938622
 30
0.0
 11
175.9088619551
 21
301.7695386695
 31
0.0
  0
LINE
  5
100
330
65
100
AcDbEntity
  8
DV1_Default
  6
Continuous
 62
     7
 48
25.4
100
AcDbLine
 10
177.1057750881
 20
301.7695232189
 30
0.0
 11
177.1057750881
 21
319.9695232189
 31
0.0
  0
LINE
  5
101
330
65
100
AcDbEntity
  8
DV1_Default
  6
Continuous
 62
     7
 48
25.4
100
AcDbLine
 10
177.1057750881
 20
319.9695232189
 30
0.0
 11
209.0366414697
 21
319.9695232189
 31
0.0
  0
LINE
  5
102
330
65
100
AcDbEntity
  8
DV1_Default
  6
Continuous
 62
     7
 48
25.4
100
AcDbLine
 10
177.1057750881
 20
319.9695232189
 30
0.0
 11
175.9088619551
 21
320.8076108172
 31
0.0
  0
LINE
  5
103
330
65
100
AcDbEntity
  8
DV1_Default
  6
Continuous
 62
     7
 48
25.4
100
AcDbLine
 10
158.9856194156
 20
301.7695232189
 30
0.0
 11
158.9856194156
 21
324.2191958535
 31
0.0
  0
LINE
  5
104
330
65
100
AcDbEntity
  8
DV1_Default
  6
Continuous
 62
     7
 48
25.4
100
AcDbLine
 10
158.9856194156
 20
301.7695232189
 30
0.0
 11
158.9856194156
 21
279.3202137668
 31
0.0
  0
LINE
  5
105
330
65
100
AcDbEntity
  8
DV1_Default
  6
Continuous
 62
     7
 48
25.4
100
AcDbLine
 10
173.3356194156
 20
301.7695232189
 30
0.0
 11
173.3356194156
 21
323.949718351
 31
0.0
  0
LINE
  5
106
330
65
100
AcDbEntity
  8
DV1_Default
  6
Continuous
 62
     7
 48
25.4
100
AcDbLine
 10
173.3356194156
 20
323.949718351
 30
0.0
 11
170.5356194156
 21
323.949718351
 31
0.0
  0
LINE
  5
107
330
65
100
AcDbEntity
  8
DV1_Default
  6
Continuous
 62
     7
 48
25.4
100
AcDbLine
 10
159.6302510707
 20
324.835673208
 30
0.0
 11
159.6302510707
 21
342.0823407829
 31
0.0
  0
LINE
  5
108
330
65
100
AcDbEntity
  8
DV1_Default
  6
Continuous
 62
     7
 48
25.4
100
AcDbLine
 10
170.5356194156
 20
322.5433985228
 30
0.0
 11
158.9856194156
 21
322.5433985228
 31
0.0
  0
LINE
  5
109
330
65
100
AcDbEntity
  8
DV1_Default
  6
Continuous
 62
     7
 48
25.4
100
AcDbLine
 10
170.5356194156
 20
323.1058706485
 30
0.0
 11
158.9856194156
 21
323.1058706485
 31
0.0
  0
LINE
  5
10A
330
65
100
AcDbEntity
  8
DV1_Default
  6
Continuous
 62
     7
 48
25.4
100
AcDbLine
 10
158.9856194156
 20
312.2431277219
 30
0.0
 11
170.5356194156
 21
312.2431277219
 31
0.0
  0
LINE
  5
10B
330
65
100
AcDbEntity
  8
DV1_Default
  6
Continuous
 62
     7
 48
25.4
100
AcDbLine
 10
175.6319975537
 20
321.3778938622
 30
0.0
 11
175.9088619551
 21
321.3778938622
 31
0.0
  0
LINE
  5
10C
330
65
100
AcDbEntity
  8
DV1_Default
  6
Continuous
 62
     7
 48
25.4
100
AcDbLine
 10
170.5356194156
 20
323.949718351
 30
0.0
 11
170.5356194156
 21
301.7695232189
 31
0.0
  0
LINE
  5
10D
330
65
100
AcDbEntity
  8
DV1_Default
  6
Continuous
 62
     7
 48
25.4
100
AcDbLine
 10
159.6302510707
 20
278.7033732297
 30
0.0
 11
158.9856194156
 21
279.3198505842
 31
0.0
  0
LINE
  5
10E
330
65
100
AcDbEntity
  8
DV1_Default
  6
Continuous
 62
     7
 48
25.4
100
AcDbLine
 10
173.3356194156
 20
283.4991336568
 30
0.0
 11
175.3575563534
 21
283.4991336568
 31
0.0
  0
LINE
  5
10F
330
65
100
AcDbEntity
  8
DV1_Default
  6
Continuous
 62
     7
 48
25.4
100
AcDbLine
 10
159.6302510707
 20
278.7033732297
 30
0.0
 11
166.2801757506
 21
278.7033732297
 31
0.0
  0
LINE
  5
110
330
65
100
AcDbEntity
  8
DV1_Default
  6
Continuous
 62
     7
 48
25.4
100
AcDbLine
 10
175.3575563534
 20
283.5091285446
 30
0.0
 11
175.3575563534
 21
278.7033732297
 31
0.0
  0
LINE
  5
111
330
65
100
AcDbEntity
  8
DV1_Default
  6
Continuous
 62
     7
 48
25.4
100
AcDbLine
 10
175.3575563534
 20
283.5091285446
 30
0.0
 11
175.3575563534
 21
301.7691600364
 31
0.0
  0
LINE
  5
112
330
65
100
AcDbEntity
  8
DV1_Default
  6
Continuous
 62
     7
 48
25.4
100
AcDbLine
 10
171.8366209794
 20
279.5893280867
 30
0.0
 11
171.8366209794
 21
278.7033732297
 31
0.0
  0
LINE
  5
113
330
65
100
AcDbEntity
  8
DV1_Default
  6
Continuous
 62
     7
 48
25.4
100
AcDbLine
 10
175.3575563534
 20
283.5094762766
 30
0.0
 11
175.3575563534
 21
301.7695077683
 31
0.0
  0
LINE
  5
114
330
65
100
AcDbEntity
  8
DV1_Default
  6
Continuous
 62
     7
 48
25.4
100
AcDbLine
 10
158.9856194156
 20
301.7695232189
 30
0.0
 11
158.9856194156
 21
279.3198505842
 31
0.0
  0
LINE
  5
115
330
65
100
AcDbEntity
  8
DV1_Default
  6
Continuous
 62
     7
 48
25.4
100
AcDbLine
 10
173.3356194156
 20
301.7695232189
 30
0.0
 11
173.3356194156
 21
279.5893280867
 31
0.0
  0
LINE
  5
116
330
65
100
AcDbEntity
  8
DV1_Default
  6
Continuous
 62
     7
 48
25.4
100
AcDbLine
 10
173.3356194156
 20
279.5893280867
 30
0.0
 11
170.5356194156
 21
279.5893280867
 31
0.0
  0
LINE
  5
117
330
65
100
AcDbEntity
  8
DV1_Default
  6
Continuous
 62
     7
 48
25.4
100
AcDbLine
 10
170.5356194156
 20
280.995647915
 30
0.0
 11
158.9856194156
 21
280.995647915
 31
0.0
  0
LINE
  5
118
330
65
100
AcDbEntity
  8
DV1_Default
  6
Continuous
 62
     7
 48
25.4
100
AcDbLine
 10
170.5356194156
 20
280.4331757893
 30
0.0
 11
158.9856194156
 21
280.4331757893
 31
0.0
  0
LINE
  5
119
330
65
100
AcDbEntity
  8
DV1_Default
  6
Continuous
 62
     7
 48
25.4
100
AcDbLine
 10
158.9856194156
 20
291.2959187159
 30
0.0
 11
170.5356194156
 21
291.2959187159
 31
0.0
  0
LINE
  5
11A
330
65
100
AcDbEntity
  8
DV1_Default
  6
Continuous
 62
     7
 48
25.4
100
AcDbLine
 10
170.5356194156
 20
279.5893280867
 30
0.0
 11
170.5356194156
 21
301.7695232189
 31
0.0
  0
LINE
  5
11B
330
65
100
AcDbEntity
  8
DV1_Default
  6
Continuous
 62
     7
 48
25.4
100
AcDbLine
 10
166.2801757506
 20
278.7033732297
 30
0.0
 11
175.6319975537
 21
278.7037364123
 31
0.0
  0
LINE
  5
11C
330
65
100
AcDbEntity
  8
DV1_Default
  6
Continuous
 62
     7
 48
25.4
100
AcDbLine
 10
159.6302510707
 20
278.7033732297
 30
0.0
 11
159.6302510707
 21
262.0846755412
 31
0.0
  0
LINE
  5
11D
330
65
100
AcDbEntity
  8
DV1_Default
  6
Continuous
 62
     7
 48
25.4
100
AcDbLine
 10
148.8359199735
 20
243.1786203959
 30
0.0
 11
137.6359199735
 21
243.1786203959
 31
0.0
  0
LINE
  5
11E
330
65
100
AcDbEntity
  8
DV1_Default
  6
Continuous
 62
     7
 48
25.4
100
AcDbLine
 10
136.9359199735
 20
260.6846727149
 30
0.0
 11
136.9359199735
 21
361.4786203959
 31
0.0
  0
LINE
  5
11F
330
65
100
AcDbEntity
  8
DV1_Default
  6
Continuous
 62
     7
 48
25.4
100
AcDbLine
 10
137.6359199735
 20
362.1786203959
 30
0.0
 11
148.8359199735
 21
362.1786203959
 31
0.0
  0
LINE
  5
120
330
65
100
AcDbEntity
  8
DV1_Default
  6
Continuous
 62
     7
 48
25.4
100
AcDbLine
 10
136.9359199735
 20
243.8786203959
 30
0.0
 11
136.9359199735
 21
251.5846727149
 31
0.0
  0
LINE
  5
121
330
65
100
AcDbEntity
  8
DV1_Default
  6
Continuous
 62
     7
 48
25.4
100
AcDbLine
 10
145.3359199735
 20
362.1786203959
 30
0.0
 11
145.3359199735
 21
373.8695232189
 31
0.0
  0
LINE
  5
122
330
65
100
AcDbEntity
  8
DV1_Default
  6
Continuous
 62
     7
 48
25.4
100
AcDbLine
 10
136.9359199735
 20
361.4786203959
 30
0.0
 11
137.6359199735
 21
362.1786203959
 31
0.0
  0
LINE
  5
123
330
65
100
AcDbEntity
  8
DV1_Default
  6
Continuous
 62
     7
 48
25.4
100
AcDbLine
 10
136.9359199735
 20
243.8786203959
 30
0.0
 11
137.6359199735
 21
243.1786203959
 31
0.0
  0
LINE
  5
124
330
65
100
AcDbEntity
  8
DV1_Default
  6
Continuous
 62
     7
 48
25.4
100
AcDbLine
 10
136.9359199735
 20
251.5846727149
 30
0.0
 11
197.7429049308
 21
251.5846727149
 31
0.0
  0
LINE
  5
125
330
65
100
AcDbEntity
  8
DV1_Default
  6
Continuous
 62
     7
 48
25.4
100
AcDbLine
 10
136.9359199735
 20
251.5846727149
 30
0.0
 11
124.3359199735
 21
251.5846727149
 31
0.0
  0
LINE
  5
126
330
65
100
AcDbEntity
  8
DV1_Default
  6
Continuous
 62
     7
 48
25.4
100
AcDbLine
 10
136.9359199735
 20
260.6846727149
 30
0.0
 11
197.7429049308
 21
260.6846727149
 31
0.0
  0
LINE
  5
127
330
65
100
AcDbEntity
  8
DV1_Default
  6
Continuous
 62
     7
 48
25.4
100
AcDbLine
 10
136.9359199735
 20
260.6846727149
 30
0.0
 11
124.3359199735
 21
260.6846727149
 31
0.0
  0
LINE
  5
128
330
65
100
AcDbEntity
  8
DV1_Default
  6
Continuous
 62
     7
 48
25.4
100
AcDbLine
 10
124.3359199735
 20
260.6846727149
 30
0.0
 11
124.3359199735
 21
251.5846727149
 31
0.0
  0
LINE
  5
129
330
65
100
AcDbEntity
  8
DV1_Default
  6
Continuous
 62
     7
 48
25.4
100
AcDbLine
 10
155.5706755926
 20
260.3395221819
 30
0.0
 11
124.3359199735
 21
260.3395221819
 31
0.0
  0
LINE
  5
12A
330
65
100
AcDbEntity
  8
DV1_Default
  6
Continuous
 62
     7
 48
25.4
100
AcDbLine
 10
155.6179884997
 20
251.9111045661
 30
0.0
 11
124.3832440665
 21
251.9111045661
 31
0.0
  0
LINE
  5
12B
330
65
100
AcDbEntity
  8
DV1_Default
  6
CENTER2
 62
     7
 48
25.4
100
AcDbLine
 10
121.8859199735
 20
256.1346727149
 30
0.0
 11
238.0759234946
 21
256.1346727149
 31
0.0
  0
LINE
  5
12C
330
65
100
AcDbEntity
  8
DV1_Default
  6
Continuous
 62
     7
 48
25.4
100
AcDbLine
 10
141.1386104043
 20
358.553333044
 30
0.0
 11
136.9386104043
 21
358.553333044
 31
0.0
  0
LINE
  5
12D
330
65
100
AcDbEntity
  8
DV1_Default
  6
Continuous
 62
     7
 48
25.4
100
AcDbLine
 10
141.1386104043
 20
356.3565079943
 30
0.0
 11
154.4386104043
 21
356.3565079943
 31
0.0
  0
LINE
  5
12E
330
65
100
AcDbEntity
  8
DV1_Default
  6
Continuous
 62
     7
 48
25.4
100
AcDbLine
 10
154.4386104043
 20
356.3565079943
 30
0.0
 11
154.4386104043
 21
352.1565079943
 31
0.0
  0
LINE
  5
12F
330
65
100
AcDbEntity
  8
DV1_Default
  6
Continuous
 62
     7
 48
25.4
100
AcDbLine
 10
154.4386104043
 20
352.1565079943
 30
0.0
 11
141.1386104043
 21
352.1565079943
 31
0.0
  0
LINE
  5
130
330
65
100
AcDbEntity
  8
DV1_Default
  6
Continuous
 62
     7
 48
25.4
100
AcDbLine
 10
141.1386104043
 20
356.051357527
 30
0.0
 11
154.4386104043
 21
356.051357527
 31
0.0
  0
LINE
  5
131
330
65
100
AcDbEntity
  8
DV1_Default
  6
Continuous
 62
     7
 48
25.4
100
AcDbLine
 10
141.1386104043
 20
352.4156366787
 30
0.0
 11
154.4386104043
 21
352.4156366787
 31
0.0
  0
LINE
  5
132
330
65
100
AcDbEntity
  8
DV1_Default
  6
Continuous
 62
     7
 48
25.4
100
AcDbLine
 10
141.1386104043
 20
358.1065079943
 30
0.0
 11
137.4688318527
 21
358.1065079943
 31
0.0
  0
LINE
  5
133
330
65
100
AcDbEntity
  8
DV1_Default
  6
Continuous
 62
     7
 48
25.4
100
AcDbLine
 10
137.4688318527
 20
350.4065079943
 30
0.0
 11
141.1386104043
 21
350.4065079943
 31
0.0
  0
LINE
  5
134
330
65
100
AcDbEntity
  8
DV1_Default
  6
Continuous
 62
     7
 48
25.4
100
AcDbLine
 10
137.2667592585
 20
357.7565079943
 30
0.0
 11
137.2667592585
 21
350.7565079943
 31
0.0
  0
LINE
  5
135
330
65
100
AcDbEntity
  8
DV1_Default
  6
Continuous
 62
     7
 48
25.4
100
AcDbLine
 10
137.4688318527
 20
358.1065079943
 30
0.0
 11
137.2667592585
 21
357.7565079943
 31
0.0
  0
LINE
  5
136
330
65
100
AcDbEntity
  8
DV1_Default
  6
Continuous
 62
     7
 48
25.4
100
AcDbLine
 10
137.4688318527
 20
350.4065079943
 30
0.0
 11
137.2667592585
 21
350.7565079943
 31
0.0
  0
LINE
  5
137
330
65
100
AcDbEntity
  8
DV1_Default
  6
Continuous
 62
     7
 48
25.4
100
AcDbLine
 10
137.4688318527
 20
358.1065079943
 30
0.0
 11
137.4688318527
 21
350.4065079943
 31
0.0
  0
LINE
  5
138
330
65
100
AcDbEntity
  8
DV1_Default
  6
Continuous
 62
     7
 48
25.4
100
AcDbLine
 10
141.1386104043
 20
358.553333044
 30
0.0
 11
141.1386104043
 21
349.9849413288
 31
0.0
  0
LINE
  5
139
330
65
100
AcDbEntity
  8
DV1_Default
  6
Continuous
 62
     7
 48
25.4
100
AcDbLine
 10
141.1386104043
 20
349.9849413288
 30
0.0
 11
136.9386104043
 21
349.9849413288
 31
0.0
  0
LINE
  5
13A
330
65
100
AcDbEntity
  8
DV1_Default
  6
Continuous
 62
     7
 48
25.4
100
AcDbLine
 10
136.9386104043
 20
358.553333044
 30
0.0
 11
136.9386104043
 21
349.9849413288
 31
0.0
  0
LINE
  5
13B
330
65
100
AcDbEntity
  8
DV1_Default
  6
CENTER2
 62
     7
 48
25.4
100
AcDbLine
 10
134.4886104043
 20
354.2691371864
 30
0.0
 11
161.0120085862
 21
354.2691371864
 31
0.0
  0
LINE
  5
13C
330
65
100
AcDbEntity
  8
DV1_Default
  6
Continuous
 62
     7
 48
25.4
100
AcDbLine
 10
141.1386104043
 20
351.8173535012
 30
0.0
 11
148.8359199735
 21
351.8173535012
 31
0.0
  0
LINE
  5
13D
330
65
100
AcDbEntity
  8
DV1_Default
  6
Continuous
 62
     7
 48
25.4
100
AcDbLine
 10
141.1387036197
 20
356.6472437367
 30
0.0
 11
148.8359199735
 21
356.6472437367
 31
0.0
  0
LINE
  5
13E
330
65
100
AcDbEntity
  8
DV1_Default
  6
Continuous
 62
     7
 48
25.4
100
AcDbLine
 10
136.9359199735
 20
339.0007732189
 30
0.0
 11
145.3358380548
 21
337.9693929656
 31
0.0
  0
LINE
  5
13F
330
65
100
AcDbEntity
  8
DV1_Default
  6
Continuous
 62
     7
 48
25.4
100
AcDbLine
 10
145.3358380548
 20
337.9693929656
 30
0.0
 11
148.8358380548
 21
337.9693929656
 31
0.0
  0
LINE
  5
140
330
65
100
AcDbEntity
  8
DV1_Default
  6
Continuous
 62
     7
 48
25.4
100
AcDbLine
 10
145.3358380548
 20
260.6846727149
 30
0.0
 11
145.3358380548
 21
260.3395221819
 31
0.0
  0
LINE
  5
141
330
65
100
AcDbEntity
  8
DV1_Default
  6
Continuous
 62
     7
 48
25.4
100
AcDbLine
 10
136.9359199735
 20
264.5382732189
 30
0.0
 11
145.3358380548
 21
265.5696534721
 31
0.0
  0
LINE
  5
142
330
65
100
AcDbEntity
  8
DV1_Default
  6
Continuous
 62
     7
 48
25.4
100
AcDbLine
 10
145.3358380548
 20
265.5696534721
 30
0.0
 11
148.8358380548
 21
265.5696534721
 31
0.0
  0
LINE
  5
143
330
65
100
AcDbEntity
  8
DV1_Default
  6
Continuous
 62
     7
 48
25.4
100
AcDbLine
 10
145.3358380548
 20
337.9693929656
 30
0.0
 11
145.3358380548
 21
265.5696534721
 31
0.0
  0
ENDBLK
  5
145
330
65
100
AcDbEntity
  8
0
100
AcDbBlockEnd
  0
BLOCK
  5
3A5
330
146
100
AcDbEntity
  8
0
100
AcDbBlockBegin
  2
SE1
 70
     0
 71
     0
 10
0.0
 20
0.0
 30
0.0
  3
SE1
  1

  0
ARC
  5
149
330
146
100
AcDbEntity
  8
DV2_Default
  6
Continuous
 62
     7
 48
25.4
100
AcDbCircle
 10
433.8161382168
 20
301.5413384176
 30
0.0
 40
28.7
100
AcDbArc
 50
49.3637764732
 51
63.1780464574
  0
ARC
  5
14A
330
146
100
AcDbEntity
  8
DV2_Default
  6
Continuous
 62
     7
 48
25.4
100
AcDbCircle
 10
433.8161382168
 20
301.5413384176
 30
0.0
 40
28.7
100
AcDbArc
 50
356.8219535426
 51
10.608476444
  0
ARC
  5
14B
330
146
100
AcDbEntity
  8
DV2_Default
  6
Continuous
 62
     7
 48
25.4
100
AcDbCircle
 10
433.8161382168
 20
301.5413384176
 30
0.0
 40
73.49999999999999
100
AcDbArc
 50
340.1479439053
 51
79.8520560947
  0
LINE
  5
14C
330
146
100
AcDbEntity
  8
DV2_Default
  6
Continuous
 62
     7
 48
25.4
100
AcDbLine
 10
446.7661382168
 20
327.6233609618
 30
0.0
 11
446.7661382168
 21
373.8915111886
 31
0.0
  0
LINE
  5
14D
330
146
100
AcDbEntity
  8
DV2_Default
  6
Continuous
 62
     7
 48
25.4
100
AcDbLine
 10
446.7661382168
 20
325.3413384176
 30
0.0
 11
446.7661382168
 21
327.1535913446
 31
0.0
  0
LINE
  5
14E
330
146
100
AcDbEntity
  8
DV2_Default
  6
Continuous
 62
     7
 48
25.4
100
AcDbLine
 10
446.7661382168
 20
327.1535913446
 30
0.0
 11
446.7661382168
 21
327.6233609618
 31
0.0
  0
ARC
  5
14F
330
146
100
AcDbEntity
  8
DV2_Default
  6
Continuous
 62
     7
 48
25.4
100
AcDbCircle
 10
433.8161382168
 20
301.5413384176
 30
0.0
 40
73.5
100
AcDbArc
 50
100.1479439053
 51
199.8520560947
  0
ARC
  5
150
330
146
100
AcDbEntity
  8
DV2_Default
  6
Continuous
 62
     7
 48
25.4
100
AcDbCircle
 10
433.8161382168
 20
301.5413384176
 30
0.0
 40
28.7
100
AcDbArc
 50
169.3360450391
 51
183.1780464574
  0
ARC
  5
151
330
146
100
AcDbEntity
  8
DV2_Default
  6
Continuous
 62
     7
 48
25.4
100
AcDbCircle
 10
433.8161382168
 20
301.5413384176
 30
0.0
 40
28.7
100
AcDbArc
 50
116.8219535426
 51
130.6362235268
  0
ARC
  5
152
330
146
100
AcDbEntity
  8
DV2_Default
  6
Continuous
 62
     7
 48
25.4
100
AcDbCircle
 10
433.8161382168
 20
301.5413384176
 30
0.0
 40
73.5
100
AcDbArc
 50
220.1479439053
 51
319.8520560947
  0
ARC
  5
153
330
146
100
AcDbEntity
  8
DV2_Default
  6
Continuous
 62
     7
 48
25.4
100
AcDbCircle
 10
433.8161382168
 20
301.5413384176
 30
0.0
 40
28.69999999999999
100
AcDbArc
 50
289.391523556
 51
303.1780464574
  0
ARC
  5
154
330
146
100
AcDbEntity
  8
DV2_Default
  6
Continuous
 62
     7
 48
25.4
100
AcDbCircle
 10
433.8161382168
 20
301.5413384176
 30
0.0
 40
28.69999999999999
100
AcDbArc
 50
236.8219535426
 51
250.663954961
  0
CIRCLE
  5
155
330
146
100
AcDbEntity
  8
DV2_Default
  6
Continuous
 62
     7
 48
25.4
100
AcDbCircle
 10
421.7573761911
 20
256.537425861
 30
0.0
 40
6.999999999999999
  0
CIRCLE
  5
156
330
146
100
AcDbEntity
  8
DV2_Default
  6
Continuous
 62
     7
 48
25.4
100
AcDbCircle
 10
445.8749002426
 20
256.537425861
 30
0.0
 40
6.999999999999999
  0
CIRCLE
  5
157
330
146
100
AcDbEntity
  8
DV2_Default
  6
Continuous
 62
     7
 48
25.4
100
AcDbCircle
 10
400.870987686
 20
334.4864889484
 30
0.0
 40
6.999999999999999
  0
CIRCLE
  5
158
330
146
100
AcDbEntity
  8
DV2_Default
  6
Continuous
 62
     7
 48
25.4
100
AcDbCircle
 10
388.8122256603
 20
313.6001004433
 30
0.0
 40
6.999999999999999
  0
CIRCLE
  5
159
330
146
100
AcDbEntity
  8
DV2_Default
  6
Continuous
 62
     7
 48
25.4
100
AcDbCircle
 10
478.8200507734
 20
313.6001004433
 30
0.0
 40
6.999999999999999
  0
CIRCLE
  5
15A
330
146
100
AcDbEntity
  8
DV2_Default
  6
Continuous
 62
     7
 48
25.4
100
AcDbCircle
 10
466.7612887476
 20
334.4864889484
 30
0.0
 40
6.999999999999999
  0
CIRCLE
  5
15B
330
146
100
AcDbEntity
  8
DV2_Default
  6
Continuous
 62
     7
 48
25.4
100
AcDbCircle
 10
433.8164126496
 20
341.0547214191
 30
0.0
 40
6.65
  0
CIRCLE
  5
15C
330
146
100
AcDbEntity
  8
DV2_Default
  6
Continuous
 62
     7
 48
25.4
100
AcDbCircle
 10
433.8164126496
 20
358.5547214191
 30
0.0
 40
6.65
  0
LINE
  5
15D
330
146
100
AcDbEntity
  8
DV2_Default
  6
Continuous
 62
     7
 48
25.4
100
AcDbLine
 10
429.6164126496
 20
308.8547214191
 30
0.0
 11
438.0164126496
 21
308.8547214191
 31
0.0
  0
LINE
  5
15E
330
146
100
AcDbEntity
  8
DV2_Default
  6
Continuous
 62
     7
 48
25.4
100
AcDbLine
 10
438.0164126496
 20
308.8547214191
 30
0.0
 11
445.6464126496
 21
313.341871968
 31
0.0
  0
LINE
  5
15F
330
146
100
AcDbEntity
  8
DV2_Default
  6
Continuous
 62
     7
 48
25.4
100
AcDbLine
 10
421.5664126496
 20
314.0129734049
 30
0.0
 11
421.5664126496
 21
375.3547214191
 31
0.0
  0
LINE
  5
160
330
146
100
AcDbEntity
  8
DV2_Default
  6
Continuous
 62
     7
 48
25.4
100
AcDbLine
 10
421.9864126496
 20
375.3547214191
 30
0.0
 11
445.6464126496
 21
375.3547214191
 31
0.0
  0
LINE
  5
161
330
146
100
AcDbEntity
  8
DV2_Default
  6
Continuous
 62
     7
 48
25.4
100
AcDbLine
 10
445.6464126496
 20
375.3547214191
 30
0.0
 11
446.0664126496
 21
375.3547214191
 31
0.0
  0
LINE
  5
162
330
146
100
AcDbEntity
  8
DV2_Default
  6
Continuous
 62
     7
 48
25.4
100
AcDbLine
 10
421.5664126496
 20
375.3547214191
 30
0.0
 11
421.9864126496
 21
375.3547214191
 31
0.0
  0
LINE
  5
163
330
146
100
AcDbEntity
  8
DV2_Default
  6
Continuous
 62
     7
 48
25.4
100
AcDbLine
 10
421.9864126496
 20
313.3457602578
 30
0.0
 11
429.6164126496
 21
308.8547214191
 31
0.0
  0
LINE
  5
164
330
146
100
AcDbEntity
  8
DV2_Default
  6
Continuous
 62
     7
 48
25.4
100
AcDbLine
 10
445.6464126496
 20
313.341871968
 30
0.0
 11
445.6464126496
 21
375.3547214191
 31
0.0
  0
LINE
  5
165
330
146
100
AcDbEntity
  8
DV2_Default
  6
Continuous
 62
     7
 48
25.4
100
AcDbLine
 10
421.9864126496
 20
375.3547214191
 30
0.0
 11
421.9864126496
 21
313.3457602578
 31
0.0
  0
LINE
  5
166
330
146
100
AcDbEntity
  8
DV2_Default
  6
Continuous
 62
     7
 48
25.4
100
AcDbLine
 10
421.9864126496
 20
313.3457602578
 30
0.0
 11
421.9283668851
 21
313.3799261534
 31
0.0
  0
LINE
  5
167
330
146
100
AcDbEntity
  8
DV2_Default
  6
Continuous
 62
     7
 48
25.4
100
AcDbLine
 10
421.9283668851
 20
313.3799261534
 30
0.0
 11
421.5664126496
 21
314.0129734049
 31
0.0
  0
LINE
  5
168
330
146
100
AcDbEntity
  8
DV2_Default
  6
Continuous
 62
     7
 48
25.4
100
AcDbLine
 10
446.0664126496
 20
375.3547214191
 30
0.0
 11
446.0664126496
 21
314.0088710807
 31
0.0
  0
LINE
  5
169
330
146
100
AcDbEntity
  8
DV2_Default
  6
Continuous
 62
     7
 48
25.4
100
AcDbLine
 10
446.0664126496
 20
314.0088710807
 30
0.0
 11
445.704377788
 21
313.3759608674
 31
0.0
  0
LINE
  5
16A
330
146
100
AcDbEntity
  8
DV2_Default
  6
Continuous
 62
     7
 48
25.4
100
AcDbLine
 10
445.704377788
 20
313.3759608674
 30
0.0
 11
445.6464126496
 21
313.341871968
 31
0.0
  0
CIRCLE
  5
16B
330
146
100
AcDbEntity
  8
DV2_Default
  6
Continuous
 62
     7
 48
25.4
100
AcDbCircle
 10
384.23913849
 20
272.9179570222
 30
0.0
 40
3.5371
  0
CIRCLE
  5
16C
330
146
100
AcDbEntity
  8
DV2_Default
  6
Continuous
 62
     7
 48
25.4
100
AcDbCircle
 10
399.3945830562
 20
281.6679570222
 30
0.0
 40
3.5371
  0
LINE
  5
16D
330
146
100
AcDbEntity
  8
DV2_Default
  6
Continuous
 62
     7
 48
25.4
100
AcDbLine
 10
403.6599126253
 20
288.9802884582
 30
0.0
 11
407.8599126253
 21
281.7056750664
 31
0.0
  0
LINE
  5
16E
330
146
100
AcDbEntity
  8
DV2_Default
  6
Continuous
 62
     7
 48
25.4
100
AcDbLine
 10
407.8599126253
 20
281.7056750664
 30
0.0
 11
407.7500745286
 21
280.9956277103
 31
0.0
  0
LINE
  5
16F
330
146
100
AcDbEntity
  8
DV2_Default
  6
Continuous
 62
     7
 48
25.4
100
AcDbLine
 10
407.6676959561
 20
280.4630921932
 30
0.0
 11
407.653976695
 21
280.3744041569
 31
0.0
  0
LINE
  5
170
330
146
100
AcDbEntity
  8
DV2_Default
  6
Continuous
 62
     7
 48
25.4
100
AcDbLine
 10
380.1607857321
 20
264.5819701707
 30
0.0
 11
380.195758963
 21
264.5213947578
 31
0.0
  0
LINE
  5
171
330
146
100
AcDbEntity
  8
DV2_Default
  6
Continuous
 62
     7
 48
25.4
100
AcDbLine
 10
407.7226150045
 20
280.8181158712
 30
0.0
 11
407.6676959561
 21
280.4630921932
 31
0.0
  0
LINE
  5
172
330
146
100
AcDbEntity
  8
DV2_Default
  6
Continuous
 62
     7
 48
25.4
100
AcDbLine
 10
380.1607857321
 20
264.5819701707
 30
0.0
 11
380.0207857321
 21
264.8244572838
 31
0.0
  0
LINE
  5
173
330
146
100
AcDbEntity
  8
DV2_Default
  6
Continuous
 62
     7
 48
25.4
100
AcDbLine
 10
402.1140896989
 20
289.2194137032
 30
0.0
 11
402.5557533921
 21
289.1510922046
 31
0.0
  0
LINE
  5
174
330
146
100
AcDbEntity
  8
DV2_Default
  6
Continuous
 62
     7
 48
25.4
100
AcDbLine
 10
375.1207857321
 20
273.3115062409
 30
0.0
 11
374.9807857321
 21
273.5539933539
 31
0.0
  0
LINE
  5
175
330
146
100
AcDbEntity
  8
DV2_Default
  6
Continuous
 62
     7
 48
25.4
100
AcDbLine
 10
402.0036737756
 20
289.2364940778
 30
0.0
 11
402.1140896989
 21
289.2194137032
 31
0.0
  0
LINE
  5
176
330
146
100
AcDbEntity
  8
DV2_Default
  6
Continuous
 62
     7
 48
25.4
100
AcDbLine
 10
374.9457857321
 20
273.6146151322
 30
0.0
 11
374.9807857321
 21
273.5539933539
 31
0.0
  0
LINE
  5
177
330
146
100
AcDbEntity
  8
DV2_Default
  6
Continuous
 62
     7
 48
25.4
100
AcDbLine
 10
375.1207857321
 20
273.3115062409
 30
0.0
 11
402.5557533921
 21
289.1510922046
 31
0.0
  0
LINE
  5
178
330
146
100
AcDbEntity
  8
DV2_Default
  6
Continuous
 62
     7
 48
25.4
100
AcDbLine
 10
402.7765852388
 20
289.1169314553
 30
0.0
 11
403.6599126253
 21
288.9802884582
 31
0.0
  0
LINE
  5
179
330
146
100
AcDbEntity
  8
DV2_Default
  6
Continuous
 62
     7
 48
25.4
100
AcDbLine
 10
402.5557533921
 20
289.1510922046
 30
0.0
 11
402.7765852388
 21
289.1169314553
 31
0.0
  0
LINE
  5
17A
330
146
100
AcDbEntity
  8
DV2_Default
  6
Continuous
 62
     7
 48
25.4
100
AcDbLine
 10
402.7765852388
 20
289.1169314553
 30
0.0
 11
375.3120292886
 21
273.2602626843
 31
0.0
  0
LINE
  5
17B
330
146
100
AcDbEntity
  8
DV2_Default
  6
Continuous
 62
     7
 48
25.4
100
AcDbLine
 10
407.7500745286
 20
280.9956277103
 30
0.0
 11
407.7226150045
 21
280.8181158712
 31
0.0
  0
LINE
  5
17C
330
146
100
AcDbEntity
  8
DV2_Default
  6
Continuous
 62
     7
 48
25.4
100
AcDbLine
 10
407.7226150045
 20
280.8181158712
 30
0.0
 11
380.0207857321
 21
264.8244572838
 31
0.0
  0
LINE
  5
17D
330
146
100
AcDbEntity
  8
DV2_Default
  6
Continuous
 62
     7
 48
25.4
100
AcDbLine
 10
380.0720292886
 20
265.0157008403
 30
0.0
 11
407.7500745286
 21
280.9956277103
 31
0.0
  0
LINE
  5
17E
330
146
100
AcDbEntity
  8
DV2_Default
  6
Continuous
 62
     7
 48
25.4
100
AcDbLine
 10
375.3120292886
 20
273.2602626843
 30
0.0
 11
380.0720292886
 21
265.0157008403
 31
0.0
  0
LINE
  5
17F
330
146
100
AcDbEntity
  8
DV2_Default
  6
Continuous
 62
     7
 48
25.4
100
AcDbLine
 10
380.0720292886
 20
265.0157008403
 30
0.0
 11
380.0207857321
 21
264.8244572838
 31
0.0
  0
LINE
  5
180
330
146
100
AcDbEntity
  8
DV2_Default
  6
Continuous
 62
     7
 48
25.4
100
AcDbLine
 10
380.0207857321
 20
264.8244572838
 30
0.0
 11
375.1207857321
 21
273.3115062409
 31
0.0
  0
LINE
  5
181
330
146
100
AcDbEntity
  8
DV2_Default
  6
Continuous
 62
     7
 48
25.4
100
AcDbLine
 10
375.1207857321
 20
273.3115062409
 30
0.0
 11
375.3120292886
 21
273.2602626843
 31
0.0
  0
CIRCLE
  5
183
330
146
100
AcDbEntity
  8
DV2_Default
  6
HIDDEN2
 62
     7
 48
25.4
100
AcDbCircle
 10
384.23913849
 20
272.9179570222
 30
0.0
 40
4.2
  0
CIRCLE
  5
184
330
146
100
AcDbEntity
  8
DV2_Default
  6
HIDDEN2
 62
     7
 48
25.4
100
AcDbCircle
 10
399.3945830562
 20
281.6679570222
 30
0.0
 40
4.2
  0
CIRCLE
  5
185
330
146
100
AcDbEntity
  8
DV2_Default
  6
Continuous
 62
     7
 48
25.4
100
AcDbCircle
 10
400.870987686
 20
334.4864889484
 30
0.0
 40
5.6
  0
CIRCLE
  5
186
330
146
100
AcDbEntity
  8
DV2_Default
  6
Continuous
 62
     7
 48
25.4
100
AcDbCircle
 10
445.8749002426
 20
256.537425861
 30
0.0
 40
5.6
  0
CIRCLE
  5
187
330
146
100
AcDbEntity
  8
DV2_Default
  6
Continuous
 62
     7
 48
25.4
100
AcDbCircle
 10
421.7573761911
 20
256.537425861
 30
0.0
 40
5.6
  0
ARC
  5
188
330
146
100
AcDbEntity
  8
DV2_Default
  6
Continuous
 62
     7
 48
25.4
100
AcDbCircle
 10
460.3489851336
 20
286.2226793653
 30
0.0
 40
5.249999999999997
100
AcDbArc
 50
60.2587557385
 51
240.0
  0
LINE
  5
189
330
146
100
AcDbEntity
  8
DV2_Default
  6
Continuous
 62
     7
 48
25.4
100
AcDbLine
 10
505.6038126038
 20
282.8076648757
 30
0.0
 11
505.6788383777
 21
283.0876648757
 31
0.0
  0
LINE
  5
18A
330
146
100
AcDbEntity
  8
DV2_Default
  6
Continuous
 62
     7
 48
25.4
100
AcDbLine
 10
485.7289139449
 20
248.5333821509
 30
0.0
 11
485.104499263
 21
248.8938881356
 31
0.0
  0
LINE
  5
18B
330
146
100
AcDbEntity
  8
DV2_Default
  6
Continuous
 62
     7
 48
25.4
100
AcDbLine
 10
485.7289139449
 20
248.5333821509
 30
0.0
 11
485.933888171
 21
248.738356377
 31
0.0
  0
LINE
  5
18C
330
146
100
AcDbEntity
  8
DV2_Default
  6
Continuous
 62
     7
 48
25.4
100
AcDbLine
 10
490.2037242251
 20
253.0081924311
 30
0.0
 11
490.4038993642
 21
253.2083675703
 31
0.0
  0
LINE
  5
18D
330
146
100
AcDbEntity
  8
DV2_Default
  6
Continuous
 62
     7
 48
25.4
100
AcDbLine
 10
490.4038993642
 20
253.2083675703
 30
0.0
 11
490.8533912304
 21
253.6578594364
 31
0.0
  0
LINE
  5
18E
330
146
100
AcDbEntity
  8
DV2_Default
  6
Continuous
 62
     7
 48
25.4
100
AcDbLine
 10
485.933888171
 20
248.738356377
 30
0.0
 11
490.2037242251
 21
253.0081924311
 31
0.0
  0
LINE
  5
18F
330
146
100
AcDbEntity
  8
DV2_Default
  6
Continuous
 62
     7
 48
25.4
100
AcDbLine
 10
503.80314951
 20
276.0874987226
 30
0.0
 11
503.9676749519
 21
276.7015160305
 31
0.0
  0
LINE
  5
190
330
146
100
AcDbEntity
  8
DV2_Default
  6
Continuous
 62
     7
 48
25.4
100
AcDbLine
 10
503.9676749519
 20
276.7015160305
 30
0.0
 11
504.040944138
 21
276.9749603558
 31
0.0
  0
LINE
  5
191
330
146
100
AcDbEntity
  8
DV2_Default
  6
Continuous
 62
     7
 48
25.4
100
AcDbLine
 10
504.040944138
 20
276.9749603558
 30
0.0
 11
505.6038126038
 21
282.8076648757
 31
0.0
  0
LINE
  5
192
330
146
100
AcDbEntity
  8
DV2_Default
  6
Continuous
 62
     7
 48
25.4
100
AcDbLine
 10
499.9532436011
 20
269.419266084
 30
0.0
 11
494.7032703702
 21
260.3260457096
 31
0.0
  0
LINE
  5
193
330
146
100
AcDbEntity
  8
DV2_Default
  6
Continuous
 62
     7
 48
25.4
100
AcDbLine
 10
502.9482518746
 20
276.5813532171
 30
0.0
 11
503.3485509418
 21
276.3502404429
 31
0.0
  0
LINE
  5
194
330
146
100
AcDbEntity
  8
DV2_Default
  6
Continuous
 62
     7
 48
25.4
100
AcDbLine
 10
503.3485509418
 20
276.3502404429
 30
0.0
 11
503.8032142788
 21
276.0877404429
 31
0.0
  0
LINE
  5
195
330
146
100
AcDbEntity
  8
DV2_Default
  6
Continuous
 62
     7
 48
25.4
100
AcDbLine
 10
494.7032703702
 20
260.3260457096
 30
0.0
 11
490.8533912304
 21
253.6578594364
 31
0.0
  0
LINE
  5
196
330
146
100
AcDbEntity
  8
DV2_Default
  6
Continuous
 62
     7
 48
25.4
100
AcDbLine
 10
503.80314951
 20
276.0874987226
 30
0.0
 11
499.9532436011
 21
269.419266084
 31
0.0
  0
LINE
  5
197
330
146
100
AcDbEntity
  8
DV2_Default
  6
Continuous
 62
     7
 48
25.4
100
AcDbLine
 10
499.9531875097
 20
269.4192984684
 30
0.0
 11
499.9532436011
 21
269.419266084
 31
0.0
  0
LINE
  5
198
330
146
100
AcDbEntity
  8
DV2_Default
  6
Continuous
 62
     7
 48
25.4
100
AcDbLine
 10
494.7032703702
 20
260.3260457096
 30
0.0
 11
494.7032142788
 21
260.326078094
 31
0.0
  0
LINE
  5
199
330
146
100
AcDbEntity
  8
DV2_Default
  6
Continuous
 62
     7
 48
25.4
100
AcDbLine
 10
503.8032142788
 20
276.0877404429
 30
0.0
 11
503.80314951
 21
276.0874987226
 31
0.0
  0
LINE
  5
19A
330
146
100
AcDbEntity
  8
DV2_Default
  6
Continuous
 62
     7
 48
25.4
100
AcDbLine
 10
494.7032142788
 20
260.326078094
 30
0.0
 11
494.2485509418
 21
260.588578094
 31
0.0
  0
LINE
  5
19B
330
146
100
AcDbEntity
  8
DV2_Default
  6
Continuous
 62
     7
 48
25.4
100
AcDbLine
 10
499.4985241728
 20
269.6817984684
 30
0.0
 11
499.9531875097
 21
269.4192984684
 31
0.0
  0
LINE
  5
19C
330
146
100
AcDbEntity
  8
DV2_Default
  6
Continuous
 62
     7
 48
25.4
100
AcDbLine
 10
494.7032142788
 20
260.326078094
 30
0.0
 11
490.8532142788
 21
253.6576824849
 31
0.0
  0
LINE
  5
19D
330
146
100
AcDbEntity
  8
DV2_Default
  6
Continuous
 62
     7
 48
25.4
100
AcDbLine
 10
490.8532142788
 20
253.6576824849
 30
0.0
 11
490.3985509418
 21
253.9201824849
 31
0.0
  0
LINE
  5
19E
330
146
100
AcDbEntity
  8
DV2_Default
  6
Continuous
 62
     7
 48
25.4
100
AcDbLine
 10
503.8032142788
 20
276.0877404429
 30
0.0
 11
499.9531875097
 21
269.4192984684
 31
0.0
  0
LINE
  5
19F
330
146
100
AcDbEntity
  8
DV2_Default
  6
Continuous
 62
     7
 48
25.4
100
AcDbLine
 10
494.2485509418
 20
260.588578094
 30
0.0
 11
493.7938876048
 21
260.851078094
 31
0.0
  0
LINE
  5
1A0
330
146
100
AcDbEntity
  8
DV2_Default
  6
Continuous
 62
     7
 48
25.4
100
AcDbLine
 10
499.0438608358
 20
269.9442984684
 30
0.0
 11
499.4985241728
 21
269.6817984684
 31
0.0
  0
LINE
  5
1A1
330
146
100
AcDbEntity
  8
DV2_Default
  6
Continuous
 62
     7
 48
25.4
100
AcDbLine
 10
490.3985509418
 20
253.9201824849
 30
0.0
 11
489.9438876048
 21
254.1826824849
 31
0.0
  0
LINE
  5
1A2
330
146
100
AcDbEntity
  8
DV2_Default
  6
Continuous
 62
     7
 48
25.4
100
AcDbLine
 10
493.7938876048
 20
260.851078094
 30
0.0
 11
493.3392242679
 21
261.113578094
 31
0.0
  0
LINE
  5
1A3
330
146
100
AcDbEntity
  8
DV2_Default
  6
Continuous
 62
     7
 48
25.4
100
AcDbLine
 10
490.8533912304
 20
253.6578594364
 30
0.0
 11
490.8532142788
 21
253.6576824849
 31
0.0
  0
LINE
  5
1A4
330
146
100
AcDbEntity
  8
DV2_Default
  6
Continuous
 62
     7
 48
25.4
100
AcDbLine
 10
498.5891974988
 20
270.2067984684
 30
0.0
 11
499.0438608358
 21
269.9442984684
 31
0.0
  0
LINE
  5
1A5
330
146
100
AcDbEntity
  8
DV2_Default
  6
Continuous
 62
     7
 48
25.4
100
AcDbLine
 10
493.3392242679
 20
261.113578094
 30
0.0
 11
492.8845609309
 21
261.376078094
 31
0.0
  0
LINE
  5
1A6
330
146
100
AcDbEntity
  8
DV2_Default
  6
Continuous
 62
     7
 48
25.4
100
AcDbLine
 10
498.1345341618
 20
270.4692984684
 30
0.0
 11
498.5891974988
 21
270.2067984684
 31
0.0
  0
LINE
  5
1A7
330
146
100
AcDbEntity
  8
DV2_Default
  6
Continuous
 62
     7
 48
25.4
100
AcDbLine
 10
492.8845609309
 20
261.376078094
 30
0.0
 11
492.4298975939
 21
261.638578094
 31
0.0
  0
LINE
  5
1A8
330
146
100
AcDbEntity
  8
DV2_Default
  6
Continuous
 62
     7
 48
25.4
100
AcDbLine
 10
497.6798708248
 20
270.7317984684
 30
0.0
 11
498.1345341618
 21
270.4692984684
 31
0.0
  0
LINE
  5
1A9
330
146
100
AcDbEntity
  8
DV2_Default
  6
Continuous
 62
     7
 48
25.4
100
AcDbLine
 10
492.4298975939
 20
261.638578094
 30
0.0
 11
491.9752342569
 21
261.901078094
 31
0.0
  0
LINE
  5
1AA
330
146
100
AcDbEntity
  8
DV2_Default
  6
Continuous
 62
     7
 48
25.4
100
AcDbLine
 10
497.2252074878
 20
270.9942984684
 30
0.0
 11
497.6798708248
 21
270.7317984684
 31
0.0
  0
LINE
  5
1AB
330
146
100
AcDbEntity
  8
DV2_Default
  6
Continuous
 62
     7
 48
25.4
100
AcDbLine
 10
491.9752342569
 20
261.901078094
 30
0.0
 11
491.5205709199
 21
262.163578094
 31
0.0
  0
LINE
  5
1AC
330
146
100
AcDbEntity
  8
DV2_Default
  6
Continuous
 62
     7
 48
25.4
100
AcDbLine
 10
496.7705441508
 20
271.2567984684
 30
0.0
 11
497.2252074878
 21
270.9942984684
 31
0.0
  0
LINE
  5
1AD
330
146
100
AcDbEntity
  8
DV2_Default
  6
Continuous
 62
     7
 48
25.4
100
AcDbLine
 10
491.5205709199
 20
262.163578094
 30
0.0
 11
491.0659075829
 21
262.426078094
 31
0.0
  0
LINE
  5
1AE
330
146
100
AcDbEntity
  8
DV2_Default
  6
Continuous
 62
     7
 48
25.4
100
AcDbLine
 10
496.3158808138
 20
271.5192984684
 30
0.0
 11
496.7705441508
 21
271.2567984684
 31
0.0
  0
LINE
  5
1AF
330
146
100
AcDbEntity
  8
DV2_Default
  6
Continuous
 62
     7
 48
25.4
100
AcDbLine
 10
491.0659075829
 20
262.426078094
 30
0.0
 11
490.6112442459
 21
262.688578094
 31
0.0
  0
LINE
  5
1B0
330
146
100
AcDbEntity
  8
DV2_Default
  6
Continuous
 62
     7
 48
25.4
100
AcDbLine
 10
495.8612174769
 20
271.7817984684
 30
0.0
 11
496.3158808138
 21
271.5192984684
 31
0.0
  0
LINE
  5
1B1
330
146
100
AcDbEntity
  8
DV2_Default
  6
Continuous
 62
     7
 48
25.4
100
AcDbLine
 10
490.6112442459
 20
262.688578094
 30
0.0
 11
490.1565809089
 21
262.951078094
 31
0.0
  0
LINE
  5
1B2
330
146
100
AcDbEntity
  8
DV2_Default
  6
Continuous
 62
     7
 48
25.4
100
AcDbLine
 10
495.4065541399
 20
272.0442984684
 30
0.0
 11
495.8612174769
 21
271.7817984684
 31
0.0
  0
LINE
  5
1B3
330
146
100
AcDbEntity
  8
DV2_Default
  6
Continuous
 62
     7
 48
25.4
100
AcDbLine
 10
490.1565809089
 20
262.951078094
 30
0.0
 11
489.701917572
 21
263.213578094
 31
0.0
  0
LINE
  5
1B4
330
146
100
AcDbEntity
  8
DV2_Default
  6
Continuous
 62
     7
 48
25.4
100
AcDbLine
 10
494.9518908029
 20
272.3067984684
 30
0.0
 11
495.4065541399
 21
272.0442984684
 31
0.0
  0
LINE
  5
1B5
330
146
100
AcDbEntity
  8
DV2_Default
  6
Continuous
 62
     7
 48
25.4
100
AcDbLine
 10
489.701917572
 20
263.213578094
 30
0.0
 11
489.247254235
 21
263.476078094
 31
0.0
  0
LINE
  5
1B6
330
146
100
AcDbEntity
  8
DV2_Default
  6
Continuous
 62
     7
 48
25.4
100
AcDbLine
 10
494.4972274659
 20
272.5692984684
 30
0.0
 11
494.9518908029
 21
272.3067984684
 31
0.0
  0
LINE
  5
1B7
330
146
100
AcDbEntity
  8
DV2_Default
  6
Continuous
 62
     7
 48
25.4
100
AcDbLine
 10
489.247254235
 20
263.476078094
 30
0.0
 11
488.792590898
 21
263.738578094
 31
0.0
  0
LINE
  5
1B8
330
146
100
AcDbEntity
  8
DV2_Default
  6
Continuous
 62
     7
 48
25.4
100
AcDbLine
 10
494.0425641289
 20
272.8317984684
 30
0.0
 11
494.4972274659
 21
272.5692984684
 31
0.0
  0
LINE
  5
1B9
330
146
100
AcDbEntity
  8
DV2_Default
  6
Continuous
 62
     7
 48
25.4
100
AcDbLine
 10
488.792590898
 20
263.738578094
 30
0.0
 11
488.337927561
 21
264.001078094
 31
0.0
  0
LINE
  5
1BA
330
146
100
AcDbEntity
  8
DV2_Default
  6
Continuous
 62
     7
 48
25.4
100
AcDbLine
 10
493.5879007919
 20
273.0942984684
 30
0.0
 11
494.0425641289
 21
272.8317984684
 31
0.0
  0
LINE
  5
1BB
330
146
100
AcDbEntity
  8
DV2_Default
  6
Continuous
 62
     7
 48
25.4
100
AcDbLine
 10
488.337927561
 20
264.001078094
 30
0.0
 11
487.883264224
 21
264.263578094
 31
0.0
  0
LINE
  5
1BC
330
146
100
AcDbEntity
  8
DV2_Default
  6
Continuous
 62
     7
 48
25.4
100
AcDbLine
 10
493.1332374549
 20
273.3567984684
 30
0.0
 11
493.5879007919
 21
273.0942984684
 31
0.0
  0
LINE
  5
1BD
330
146
100
AcDbEntity
  8
DV2_Default
  6
Continuous
 62
     7
 48
25.4
100
AcDbLine
 10
487.883264224
 20
264.263578094
 30
0.0
 11
487.428600887
 21
264.526078094
 31
0.0
  0
LINE
  5
1BE
330
146
100
AcDbEntity
  8
DV2_Default
  6
Continuous
 62
     7
 48
25.4
100
AcDbLine
 10
492.678574118
 20
273.6192984684
 30
0.0
 11
493.1332374549
 21
273.3567984684
 31
0.0
  0
LINE
  5
1BF
330
146
100
AcDbEntity
  8
DV2_Default
  6
Continuous
 62
     7
 48
25.4
100
AcDbLine
 10
487.428600887
 20
264.526078094
 30
0.0
 11
486.97393755
 21
264.788578094
 31
0.0
  0
LINE
  5
1C0
330
146
100
AcDbEntity
  8
DV2_Default
  6
Continuous
 62
     7
 48
25.4
100
AcDbLine
 10
492.223910781
 20
273.8817984684
 30
0.0
 11
492.678574118
 21
273.6192984684
 31
0.0
  0
LINE
  5
1C1
330
146
100
AcDbEntity
  8
DV2_Default
  6
Continuous
 62
     7
 48
25.4
100
AcDbLine
 10
486.97393755
 20
264.788578094
 30
0.0
 11
486.519274213
 21
265.051078094
 31
0.0
  0
LINE
  5
1C2
330
146
100
AcDbEntity
  8
DV2_Default
  6
Continuous
 62
     7
 48
25.4
100
AcDbLine
 10
491.769247444
 20
274.1442984684
 30
0.0
 11
492.223910781
 21
273.8817984684
 31
0.0
  0
LINE
  5
1C3
330
146
100
AcDbEntity
  8
DV2_Default
  6
Continuous
 62
     7
 48
25.4
100
AcDbLine
 10
486.519274213
 20
265.051078094
 30
0.0
 11
486.0646108761
 21
265.313578094
 31
0.0
  0
LINE
  5
1C4
330
146
100
AcDbEntity
  8
DV2_Default
  6
Continuous
 62
     7
 48
25.4
100
AcDbLine
 10
491.314584107
 20
274.4067984684
 30
0.0
 11
491.769247444
 21
274.1442984684
 31
0.0
  0
LINE
  5
1C5
330
146
100
AcDbEntity
  8
DV2_Default
  6
Continuous
 62
     7
 48
25.4
100
AcDbLine
 10
486.0646108761
 20
265.313578094
 30
0.0
 11
485.6099475391
 21
265.576078094
 31
0.0
  0
LINE
  5
1C6
330
146
100
AcDbEntity
  8
DV2_Default
  6
Continuous
 62
     7
 48
25.4
100
AcDbLine
 10
490.85992077
 20
274.6692984684
 30
0.0
 11
491.314584107
 21
274.4067984684
 31
0.0
  0
LINE
  5
1C7
330
146
100
AcDbEntity
  8
DV2_Default
  6
Continuous
 62
     7
 48
25.4
100
AcDbLine
 10
485.6099475391
 20
265.576078094
 30
0.0
 11
485.1552842021
 21
265.838578094
 31
0.0
  0
LINE
  5
1C8
330
146
100
AcDbEntity
  8
DV2_Default
  6
Continuous
 62
     7
 48
25.4
100
AcDbLine
 10
490.405257433
 20
274.9317984684
 30
0.0
 11
490.85992077
 21
274.6692984684
 31
0.0
  0
LINE
  5
1C9
330
146
100
AcDbEntity
  8
DV2_Default
  6
Continuous
 62
     7
 48
25.4
100
AcDbLine
 10
485.1552842021
 20
265.838578094
 30
0.0
 11
484.7006208651
 21
266.101078094
 31
0.0
  0
LINE
  5
1CA
330
146
100
AcDbEntity
  8
DV2_Default
  6
Continuous
 62
     7
 48
25.4
100
AcDbLine
 10
489.950594096
 20
275.1942984684
 30
0.0
 11
490.405257433
 21
274.9317984684
 31
0.0
  0
LINE
  5
1CB
330
146
100
AcDbEntity
  8
DV2_Default
  6
Continuous
 62
     7
 48
25.4
100
AcDbLine
 10
484.7006208651
 20
266.101078094
 30
0.0
 11
484.2459575281
 21
266.363578094
 31
0.0
  0
LINE
  5
1CC
330
146
100
AcDbEntity
  8
DV2_Default
  6
Continuous
 62
     7
 48
25.4
100
AcDbLine
 10
489.495930759
 20
275.4567984684
 30
0.0
 11
489.950594096
 21
275.1942984684
 31
0.0
  0
LINE
  5
1CD
330
146
100
AcDbEntity
  8
DV2_Default
  6
Continuous
 62
     7
 48
25.4
100
AcDbLine
 10
484.2459575281
 20
266.363578094
 30
0.0
 11
483.7912941911
 21
266.626078094
 31
0.0
  0
LINE
  5
1CE
330
146
100
AcDbEntity
  8
DV2_Default
  6
Continuous
 62
     7
 48
25.4
100
AcDbLine
 10
489.0412674221
 20
275.7192984684
 30
0.0
 11
489.495930759
 21
275.4567984684
 31
0.0
  0
LINE
  5
1CF
330
146
100
AcDbEntity
  8
DV2_Default
  6
Continuous
 62
     7
 48
25.4
100
AcDbLine
 10
483.7912941911
 20
266.626078094
 30
0.0
 11
483.3366308541
 21
266.888578094
 31
0.0
  0
LINE
  5
1D0
330
146
100
AcDbEntity
  8
DV2_Default
  6
Continuous
 62
     7
 48
25.4
100
AcDbLine
 10
488.5866040851
 20
275.9817984684
 30
0.0
 11
489.0412674221
 21
275.7192984684
 31
0.0
  0
LINE
  5
1D1
330
146
100
AcDbEntity
  8
DV2_Default
  6
Continuous
 62
     7
 48
25.4
100
AcDbLine
 10
483.3366308541
 20
266.888578094
 30
0.0
 11
482.8819675172
 21
267.151078094
 31
0.0
  0
LINE
  5
1D2
330
146
100
AcDbEntity
  8
DV2_Default
  6
Continuous
 62
     7
 48
25.4
100
AcDbLine
 10
488.1319407481
 20
276.2442984684
 30
0.0
 11
488.5866040851
 21
275.9817984684
 31
0.0
  0
LINE
  5
1D3
330
146
100
AcDbEntity
  8
DV2_Default
  6
Continuous
 62
     7
 48
25.4
100
AcDbLine
 10
482.8819675172
 20
267.151078094
 30
0.0
 11
482.4273041802
 21
267.413578094
 31
0.0
  0
LINE
  5
1D4
330
146
100
AcDbEntity
  8
DV2_Default
  6
Continuous
 62
     7
 48
25.4
100
AcDbLine
 10
487.6772774111
 20
276.5067984684
 30
0.0
 11
488.1319407481
 21
276.2442984684
 31
0.0
  0
LINE
  5
1D5
330
146
100
AcDbEntity
  8
DV2_Default
  6
Continuous
 62
     7
 48
25.4
100
AcDbLine
 10
482.4273041802
 20
267.413578094
 30
0.0
 11
481.9726408432
 21
267.676078094
 31
0.0
  0
LINE
  5
1D6
330
146
100
AcDbEntity
  8
DV2_Default
  6
Continuous
 62
     7
 48
25.4
100
AcDbLine
 10
487.2226140741
 20
276.7692984684
 30
0.0
 11
487.6772774111
 21
276.5067984684
 31
0.0
  0
LINE
  5
1D7
330
146
100
AcDbEntity
  8
DV2_Default
  6
Continuous
 62
     7
 48
25.4
100
AcDbLine
 10
481.9726408432
 20
267.676078094
 30
0.0
 11
481.5179775062
 21
267.938578094
 31
0.0
  0
LINE
  5
1D8
330
146
100
AcDbEntity
  8
DV2_Default
  6
Continuous
 62
     7
 48
25.4
100
AcDbLine
 10
486.7679507371
 20
277.0317984684
 30
0.0
 11
487.2226140741
 21
276.7692984684
 31
0.0
  0
LINE
  5
1D9
330
146
100
AcDbEntity
  8
DV2_Default
  6
Continuous
 62
     7
 48
25.4
100
AcDbLine
 10
481.5179775062
 20
267.938578094
 30
0.0
 11
481.0633141692
 21
268.201078094
 31
0.0
  0
LINE
  5
1DA
330
146
100
AcDbEntity
  8
DV2_Default
  6
Continuous
 62
     7
 48
25.4
100
AcDbLine
 10
486.3132874001
 20
277.2942984684
 30
0.0
 11
486.7679507371
 21
277.0317984684
 31
0.0
  0
LINE
  5
1DB
330
146
100
AcDbEntity
  8
DV2_Default
  6
Continuous
 62
     7
 48
25.4
100
AcDbLine
 10
481.0633141692
 20
268.201078094
 30
0.0
 11
480.6086508322
 21
268.463578094
 31
0.0
  0
LINE
  5
1DC
330
146
100
AcDbEntity
  8
DV2_Default
  6
Continuous
 62
     7
 48
25.4
100
AcDbLine
 10
485.8586240632
 20
277.5567984684
 30
0.0
 11
486.3132874001
 21
277.2942984684
 31
0.0
  0
LINE
  5
1DD
330
146
100
AcDbEntity
  8
DV2_Default
  6
Continuous
 62
     7
 48
25.4
100
AcDbLine
 10
480.6086508322
 20
268.463578094
 30
0.0
 11
480.1539874952
 21
268.726078094
 31
0.0
  0
LINE
  5
1DE
330
146
100
AcDbEntity
  8
DV2_Default
  6
Continuous
 62
     7
 48
25.4
100
AcDbLine
 10
485.4039607262
 20
277.8192984684
 30
0.0
 11
485.8586240632
 21
277.5567984684
 31
0.0
  0
LINE
  5
1DF
330
146
100
AcDbEntity
  8
DV2_Default
  6
Continuous
 62
     7
 48
25.4
100
AcDbLine
 10
480.1539874952
 20
268.726078094
 30
0.0
 11
479.6993241582
 21
268.988578094
 31
0.0
  0
LINE
  5
1E0
330
146
100
AcDbEntity
  8
DV2_Default
  6
Continuous
 62
     7
 48
25.4
100
AcDbLine
 10
484.9492973892
 20
278.0817984684
 30
0.0
 11
485.4039607262
 21
277.8192984684
 31
0.0
  0
LINE
  5
1E1
330
146
100
AcDbEntity
  8
DV2_Default
  6
Continuous
 62
     7
 48
25.4
100
AcDbLine
 10
479.6993241582
 20
268.988578094
 30
0.0
 11
479.2446608213
 21
269.251078094
 31
0.0
  0
LINE
  5
1E2
330
146
100
AcDbEntity
  8
DV2_Default
  6
Continuous
 62
     7
 48
25.4
100
AcDbLine
 10
484.4946340522
 20
278.3442984684
 30
0.0
 11
484.9492973892
 21
278.0817984684
 31
0.0
  0
LINE
  5
1E3
330
146
100
AcDbEntity
  8
DV2_Default
  6
Continuous
 62
     7
 48
25.4
100
AcDbLine
 10
479.2446608213
 20
269.251078094
 30
0.0
 11
478.7899974843
 21
269.513578094
 31
0.0
  0
LINE
  5
1E4
330
146
100
AcDbEntity
  8
DV2_Default
  6
Continuous
 62
     7
 48
25.4
100
AcDbLine
 10
484.0399707152
 20
278.6067984684
 30
0.0
 11
484.4946340522
 21
278.3442984684
 31
0.0
  0
LINE
  5
1E5
330
146
100
AcDbEntity
  8
DV2_Default
  6
Continuous
 62
     7
 48
25.4
100
AcDbLine
 10
478.7899974843
 20
269.513578094
 30
0.0
 11
478.3353341473
 21
269.776078094
 31
0.0
  0
LINE
  5
1E6
330
146
100
AcDbEntity
  8
DV2_Default
  6
Continuous
 62
     7
 48
25.4
100
AcDbLine
 10
483.5853073782
 20
278.8692984684
 30
0.0
 11
484.0399707152
 21
278.6067984684
 31
0.0
  0
LINE
  5
1E7
330
146
100
AcDbEntity
  8
DV2_Default
  6
Continuous
 62
     7
 48
25.4
100
AcDbLine
 10
478.3353341473
 20
269.776078094
 30
0.0
 11
477.8806708103
 21
270.038578094
 31
0.0
  0
LINE
  5
1E8
330
146
100
AcDbEntity
  8
DV2_Default
  6
Continuous
 62
     7
 48
25.4
100
AcDbLine
 10
483.1306440412
 20
279.1317984684
 30
0.0
 11
483.5853073782
 21
278.8692984684
 31
0.0
  0
LINE
  5
1E9
330
146
100
AcDbEntity
  8
DV2_Default
  6
Continuous
 62
     7
 48
25.4
100
AcDbLine
 10
477.8806708103
 20
270.038578094
 30
0.0
 11
477.4260074733
 21
270.301078094
 31
0.0
  0
LINE
  5
1EA
330
146
100
AcDbEntity
  8
DV2_Default
  6
Continuous
 62
     7
 48
25.4
100
AcDbLine
 10
482.6759807042
 20
279.3942984684
 30
0.0
 11
483.1306440412
 21
279.1317984684
 31
0.0
  0
LINE
  5
1EB
330
146
100
AcDbEntity
  8
DV2_Default
  6
Continuous
 62
     7
 48
25.4
100
AcDbLine
 10
477.4260074733
 20
270.301078094
 30
0.0
 11
476.9713441363
 21
270.563578094
 31
0.0
  0
LINE
  5
1EC
330
146
100
AcDbEntity
  8
DV2_Default
  6
Continuous
 62
     7
 48
25.4
100
AcDbLine
 10
482.2213173673
 20
279.6567984684
 30
0.0
 11
482.6759807042
 21
279.3942984684
 31
0.0
  0
LINE
  5
1ED
330
146
100
AcDbEntity
  8
DV2_Default
  6
Continuous
 62
     7
 48
25.4
100
AcDbLine
 10
476.9713441363
 20
270.563578094
 30
0.0
 11
476.5166807993
 21
270.826078094
 31
0.0
  0
LINE
  5
1EE
330
146
100
AcDbEntity
  8
DV2_Default
  6
Continuous
 62
     7
 48
25.4
100
AcDbLine
 10
481.7666540303
 20
279.9192984684
 30
0.0
 11
482.2213173673
 21
279.6567984684
 31
0.0
  0
LINE
  5
1EF
330
146
100
AcDbEntity
  8
DV2_Default
  6
Continuous
 62
     7
 48
25.4
100
AcDbLine
 10
476.5166807993
 20
270.826078094
 30
0.0
 11
476.0620174624
 21
271.088578094
 31
0.0
  0
LINE
  5
1F0
330
146
100
AcDbEntity
  8
DV2_Default
  6
Continuous
 62
     7
 48
25.4
100
AcDbLine
 10
481.3119906933
 20
280.1817984684
 30
0.0
 11
481.7666540303
 21
279.9192984684
 31
0.0
  0
LINE
  5
1F1
330
146
100
AcDbEntity
  8
DV2_Default
  6
Continuous
 62
     7
 48
25.4
100
AcDbLine
 10
476.0620174624
 20
271.088578094
 30
0.0
 11
475.6073541254
 21
271.351078094
 31
0.0
  0
LINE
  5
1F2
330
146
100
AcDbEntity
  8
DV2_Default
  6
Continuous
 62
     7
 48
25.4
100
AcDbLine
 10
480.8573273563
 20
280.4442984684
 30
0.0
 11
481.3119906933
 21
280.1817984684
 31
0.0
  0
LINE
  5
1F3
330
146
100
AcDbEntity
  8
DV2_Default
  6
Continuous
 62
     7
 48
25.4
100
AcDbLine
 10
475.6073541254
 20
271.351078094
 30
0.0
 11
475.1526907884
 21
271.613578094
 31
0.0
  0
LINE
  5
1F4
330
146
100
AcDbEntity
  8
DV2_Default
  6
Continuous
 62
     7
 48
25.4
100
AcDbLine
 10
480.4026640193
 20
280.7067984684
 30
0.0
 11
480.8573273563
 21
280.4442984684
 31
0.0
  0
LINE
  5
1F5
330
146
100
AcDbEntity
  8
DV2_Default
  6
Continuous
 62
     7
 48
25.4
100
AcDbLine
 10
475.1526907884
 20
271.613578094
 30
0.0
 11
474.6980274514
 21
271.876078094
 31
0.0
  0
LINE
  5
1F6
330
146
100
AcDbEntity
  8
DV2_Default
  6
Continuous
 62
     7
 48
25.4
100
AcDbLine
 10
479.9480006823
 20
280.9692984684
 30
0.0
 11
480.4026640193
 21
280.7067984684
 31
0.0
  0
LINE
  5
1F7
330
146
100
AcDbEntity
  8
DV2_Default
  6
Continuous
 62
     7
 48
25.4
100
AcDbLine
 10
474.6980274514
 20
271.876078094
 30
0.0
 11
474.2433641144
 21
272.138578094
 31
0.0
  0
LINE
  5
1F8
330
146
100
AcDbEntity
  8
DV2_Default
  6
Continuous
 62
     7
 48
25.4
100
AcDbLine
 10
479.4933373453
 20
281.2317984684
 30
0.0
 11
479.9480006823
 21
280.9692984684
 31
0.0
  0
LINE
  5
1F9
330
146
100
AcDbEntity
  8
DV2_Default
  6
Continuous
 62
     7
 48
25.4
100
AcDbLine
 10
474.2433641144
 20
272.138578094
 30
0.0
 11
473.7887007774
 21
272.401078094
 31
0.0
  0
LINE
  5
1FA
330
146
100
AcDbEntity
  8
DV2_Default
  6
Continuous
 62
     7
 48
25.4
100
AcDbLine
 10
479.0386740083
 20
281.4942984684
 30
0.0
 11
479.4933373453
 21
281.2317984684
 31
0.0
  0
LINE
  5
1FB
330
146
100
AcDbEntity
  8
DV2_Default
  6
Continuous
 62
     7
 48
25.4
100
AcDbLine
 10
473.7887007774
 20
272.401078094
 30
0.0
 11
473.3340374404
 21
272.663578094
 31
0.0
  0
LINE
  5
1FC
330
146
100
AcDbEntity
  8
DV2_Default
  6
Continuous
 62
     7
 48
25.4
100
AcDbLine
 10
478.5840106714
 20
281.7567984684
 30
0.0
 11
479.0386740083
 21
281.4942984684
 31
0.0
  0
LINE
  5
1FD
330
146
100
AcDbEntity
  8
DV2_Default
  6
Continuous
 62
     7
 48
25.4
100
AcDbLine
 10
473.3340374404
 20
272.663578094
 30
0.0
 11
472.8793741034
 21
272.926078094
 31
0.0
  0
LINE
  5
1FE
330
146
100
AcDbEntity
  8
DV2_Default
  6
Continuous
 62
     7
 48
25.4
100
AcDbLine
 10
478.1293473344
 20
282.0192984684
 30
0.0
 11
478.5840106714
 21
281.7567984684
 31
0.0
  0
LINE
  5
1FF
330
146
100
AcDbEntity
  8
DV2_Default
  6
Continuous
 62
     7
 48
25.4
100
AcDbLine
 10
472.8793741034
 20
272.926078094
 30
0.0
 11
472.4247107665
 21
273.188578094
 31
0.0
  0
LINE
  5
200
330
146
100
AcDbEntity
  8
DV2_Default
  6
Continuous
 62
     7
 48
25.4
100
AcDbLine
 10
477.6746839974
 20
282.2817984684
 30
0.0
 11
478.1293473344
 21
282.0192984684
 31
0.0
  0
LINE
  5
201
330
146
100
AcDbEntity
  8
DV2_Default
  6
Continuous
 62
     7
 48
25.4
100
AcDbLine
 10
472.4247107665
 20
273.188578094
 30
0.0
 11
471.9700474295
 21
273.451078094
 31
0.0
  0
LINE
  5
202
330
146
100
AcDbEntity
  8
DV2_Default
  6
Continuous
 62
     7
 48
25.4
100
AcDbLine
 10
477.2200206604
 20
282.5442984684
 30
0.0
 11
477.6746839974
 21
282.2817984684
 31
0.0
  0
LINE
  5
203
330
146
100
AcDbEntity
  8
DV2_Default
  6
Continuous
 62
     7
 48
25.4
100
AcDbLine
 10
471.9700474295
 20
273.451078094
 30
0.0
 11
471.5153840925
 21
273.713578094
 31
0.0
  0
LINE
  5
204
330
146
100
AcDbEntity
  8
DV2_Default
  6
Continuous
 62
     7
 48
25.4
100
AcDbLine
 10
476.7653573234
 20
282.8067984684
 30
0.0
 11
477.2200206604
 21
282.5442984684
 31
0.0
  0
LINE
  5
205
330
146
100
AcDbEntity
  8
DV2_Default
  6
Continuous
 62
     7
 48
25.4
100
AcDbLine
 10
471.5153840925
 20
273.713578094
 30
0.0
 11
471.0607207555
 21
273.976078094
 31
0.0
  0
LINE
  5
206
330
146
100
AcDbEntity
  8
DV2_Default
  6
Continuous
 62
     7
 48
25.4
100
AcDbLine
 10
476.3106939864
 20
283.0692984684
 30
0.0
 11
476.7653573234
 21
282.8067984684
 31
0.0
  0
LINE
  5
207
330
146
100
AcDbEntity
  8
DV2_Default
  6
Continuous
 62
     7
 48
25.4
100
AcDbLine
 10
471.0607207555
 20
273.976078094
 30
0.0
 11
470.6060574185
 21
274.238578094
 31
0.0
  0
LINE
  5
208
330
146
100
AcDbEntity
  8
DV2_Default
  6
Continuous
 62
     7
 48
25.4
100
AcDbLine
 10
475.8560306494
 20
283.3317984684
 30
0.0
 11
476.3106939864
 21
283.0692984684
 31
0.0
  0
LINE
  5
209
330
146
100
AcDbEntity
  8
DV2_Default
  6
Continuous
 62
     7
 48
25.4
100
AcDbLine
 10
470.6060574185
 20
274.238578094
 30
0.0
 11
470.1513940815
 21
274.501078094
 31
0.0
  0
LINE
  5
20A
330
146
100
AcDbEntity
  8
DV2_Default
  6
Continuous
 62
     7
 48
25.4
100
AcDbLine
 10
475.4013673125
 20
283.5942984684
 30
0.0
 11
475.8560306494
 21
283.3317984684
 31
0.0
  0
LINE
  5
20B
330
146
100
AcDbEntity
  8
DV2_Default
  6
Continuous
 62
     7
 48
25.4
100
AcDbLine
 10
470.1513940815
 20
274.501078094
 30
0.0
 11
469.6967307445
 21
274.763578094
 31
0.0
  0
LINE
  5
20C
330
146
100
AcDbEntity
  8
DV2_Default
  6
Continuous
 62
     7
 48
25.4
100
AcDbLine
 10
474.9467039755
 20
283.8567984684
 30
0.0
 11
475.4013673125
 21
283.5942984684
 31
0.0
  0
LINE
  5
20D
330
146
100
AcDbEntity
  8
DV2_Default
  6
Continuous
 62
     7
 48
25.4
100
AcDbLine
 10
469.6967307445
 20
274.763578094
 30
0.0
 11
469.2420674076
 21
275.026078094
 31
0.0
  0
LINE
  5
20E
330
146
100
AcDbEntity
  8
DV2_Default
  6
Continuous
 62
     7
 48
25.4
100
AcDbLine
 10
474.4920406385
 20
284.1192984684
 30
0.0
 11
474.9467039755
 21
283.8567984684
 31
0.0
  0
LINE
  5
20F
330
146
100
AcDbEntity
  8
DV2_Default
  6
Continuous
 62
     7
 48
25.4
100
AcDbLine
 10
469.2420674076
 20
275.026078094
 30
0.0
 11
468.7874040706
 21
275.288578094
 31
0.0
  0
LINE
  5
210
330
146
100
AcDbEntity
  8
DV2_Default
  6
Continuous
 62
     7
 48
25.4
100
AcDbLine
 10
474.0373773015
 20
284.3817984684
 30
0.0
 11
474.4920406385
 21
284.1192984684
 31
0.0
  0
LINE
  5
211
330
146
100
AcDbEntity
  8
DV2_Default
  6
Continuous
 62
     7
 48
25.4
100
AcDbLine
 10
468.7874040706
 20
275.288578094
 30
0.0
 11
468.3327407336
 21
275.551078094
 31
0.0
  0
LINE
  5
212
330
146
100
AcDbEntity
  8
DV2_Default
  6
Continuous
 62
     7
 48
25.4
100
AcDbLine
 10
473.5827139645
 20
284.6442984684
 30
0.0
 11
474.0373773015
 21
284.3817984684
 31
0.0
  0
LINE
  5
213
330
146
100
AcDbEntity
  8
DV2_Default
  6
Continuous
 62
     7
 48
25.4
100
AcDbLine
 10
468.3327407336
 20
275.551078094
 30
0.0
 11
467.8780773966
 21
275.813578094
 31
0.0
  0
LINE
  5
214
330
146
100
AcDbEntity
  8
DV2_Default
  6
Continuous
 62
     7
 48
25.4
100
AcDbLine
 10
473.1280506275
 20
284.9067984684
 30
0.0
 11
473.5827139645
 21
284.6442984684
 31
0.0
  0
LINE
  5
215
330
146
100
AcDbEntity
  8
DV2_Default
  6
Continuous
 62
     7
 48
25.4
100
AcDbLine
 10
467.8780773966
 20
275.813578094
 30
0.0
 11
467.4234140596
 21
276.076078094
 31
0.0
  0
LINE
  5
216
330
146
100
AcDbEntity
  8
DV2_Default
  6
Continuous
 62
     7
 48
25.4
100
AcDbLine
 10
472.6733872905
 20
285.1692984684
 30
0.0
 11
473.1280506275
 21
284.9067984684
 31
0.0
  0
LINE
  5
217
330
146
100
AcDbEntity
  8
DV2_Default
  6
Continuous
 62
     7
 48
25.4
100
AcDbLine
 10
467.4234140596
 20
276.076078094
 30
0.0
 11
466.9687507226
 21
276.338578094
 31
0.0
  0
LINE
  5
218
330
146
100
AcDbEntity
  8
DV2_Default
  6
Continuous
 62
     7
 48
25.4
100
AcDbLine
 10
472.2187239535
 20
285.4317984684
 30
0.0
 11
472.6733872905
 21
285.1692984684
 31
0.0
  0
LINE
  5
219
330
146
100
AcDbEntity
  8
DV2_Default
  6
Continuous
 62
     7
 48
25.4
100
AcDbLine
 10
466.9687507226
 20
276.338578094
 30
0.0
 11
466.5140873856
 21
276.601078094
 31
0.0
  0
LINE
  5
21A
330
146
100
AcDbEntity
  8
DV2_Default
  6
Continuous
 62
     7
 48
25.4
100
AcDbLine
 10
471.7640606166
 20
285.6942984684
 30
0.0
 11
472.2187239535
 21
285.4317984684
 31
0.0
  0
LINE
  5
21B
330
146
100
AcDbEntity
  8
DV2_Default
  6
Continuous
 62
     7
 48
25.4
100
AcDbLine
 10
466.5140873856
 20
276.601078094
 30
0.0
 11
466.0594240486
 21
276.863578094
 31
0.0
  0
LINE
  5
21C
330
146
100
AcDbEntity
  8
DV2_Default
  6
Continuous
 62
     7
 48
25.4
100
AcDbLine
 10
471.3093972796
 20
285.9567984684
 30
0.0
 11
471.7640606166
 21
285.6942984684
 31
0.0
  0
LINE
  5
21D
330
146
100
AcDbEntity
  8
DV2_Default
  6
Continuous
 62
     7
 48
25.4
100
AcDbLine
 10
466.0594240486
 20
276.863578094
 30
0.0
 11
465.6047607117
 21
277.126078094
 31
0.0
  0
LINE
  5
21E
330
146
100
AcDbEntity
  8
DV2_Default
  6
Continuous
 62
     7
 48
25.4
100
AcDbLine
 10
470.8547339426
 20
286.2192984684
 30
0.0
 11
471.3093972796
 21
285.9567984684
 31
0.0
  0
LINE
  5
21F
330
146
100
AcDbEntity
  8
DV2_Default
  6
Continuous
 62
     7
 48
25.4
100
AcDbLine
 10
465.6047607117
 20
277.126078094
 30
0.0
 11
465.1500973747
 21
277.388578094
 31
0.0
  0
LINE
  5
220
330
146
100
AcDbEntity
  8
DV2_Default
  6
Continuous
 62
     7
 48
25.4
100
AcDbLine
 10
470.4000706056
 20
286.4817984684
 30
0.0
 11
470.8547339426
 21
286.2192984684
 31
0.0
  0
LINE
  5
221
330
146
100
AcDbEntity
  8
DV2_Default
  6
Continuous
 62
     7
 48
25.4
100
AcDbLine
 10
465.1500973747
 20
277.388578094
 30
0.0
 11
464.6954340377
 21
277.651078094
 31
0.0
  0
LINE
  5
222
330
146
100
AcDbEntity
  8
DV2_Default
  6
Continuous
 62
     7
 48
25.4
100
AcDbLine
 10
469.9454072686
 20
286.7442984684
 30
0.0
 11
470.4000706056
 21
286.4817984684
 31
0.0
  0
LINE
  5
223
330
146
100
AcDbEntity
  8
DV2_Default
  6
Continuous
 62
     7
 48
25.4
100
AcDbLine
 10
464.6954340377
 20
277.651078094
 30
0.0
 11
464.2407707007
 21
277.913578094
 31
0.0
  0
LINE
  5
224
330
146
100
AcDbEntity
  8
DV2_Default
  6
Continuous
 62
     7
 48
25.4
100
AcDbLine
 10
469.4907439316
 20
287.0067984684
 30
0.0
 11
469.9454072686
 21
286.7442984684
 31
0.0
  0
LINE
  5
225
330
146
100
AcDbEntity
  8
DV2_Default
  6
Continuous
 62
     7
 48
25.4
100
AcDbLine
 10
464.2407707007
 20
277.913578094
 30
0.0
 11
463.7861073637
 21
278.176078094
 31
0.0
  0
LINE
  5
226
330
146
100
AcDbEntity
  8
DV2_Default
  6
Continuous
 62
     7
 48
25.4
100
AcDbLine
 10
469.0360805946
 20
287.2692984684
 30
0.0
 11
469.4907439316
 21
287.0067984684
 31
0.0
  0
LINE
  5
227
330
146
100
AcDbEntity
  8
DV2_Default
  6
Continuous
 62
     7
 48
25.4
100
AcDbLine
 10
463.7861073637
 20
278.176078094
 30
0.0
 11
463.3314440267
 21
278.438578094
 31
0.0
  0
LINE
  5
228
330
146
100
AcDbEntity
  8
DV2_Default
  6
Continuous
 62
     7
 48
25.4
100
AcDbLine
 10
468.5814172577
 20
287.5317984684
 30
0.0
 11
469.0360805946
 21
287.2692984684
 31
0.0
  0
LINE
  5
229
330
146
100
AcDbEntity
  8
DV2_Default
  6
Continuous
 62
     7
 48
25.4
100
AcDbLine
 10
463.3314440267
 20
278.438578094
 30
0.0
 11
462.8767806897
 21
278.701078094
 31
0.0
  0
LINE
  5
22A
330
146
100
AcDbEntity
  8
DV2_Default
  6
Continuous
 62
     7
 48
25.4
100
AcDbLine
 10
468.1267539207
 20
287.7942984684
 30
0.0
 11
468.5814172577
 21
287.5317984684
 31
0.0
  0
LINE
  5
22B
330
146
100
AcDbEntity
  8
DV2_Default
  6
Continuous
 62
     7
 48
25.4
100
AcDbLine
 10
462.8767806897
 20
278.701078094
 30
0.0
 11
462.4221173527
 21
278.963578094
 31
0.0
  0
LINE
  5
22C
330
146
100
AcDbEntity
  8
DV2_Default
  6
Continuous
 62
     7
 48
25.4
100
AcDbLine
 10
467.6720905837
 20
288.0567984684
 30
0.0
 11
468.1267539207
 21
287.7942984684
 31
0.0
  0
LINE
  5
22D
330
146
100
AcDbEntity
  8
DV2_Default
  6
Continuous
 62
     7
 48
25.4
100
AcDbLine
 10
462.4221173527
 20
278.963578094
 30
0.0
 11
461.9674540158
 21
279.226078094
 31
0.0
  0
LINE
  5
22E
330
146
100
AcDbEntity
  8
DV2_Default
  6
Continuous
 62
     7
 48
25.4
100
AcDbLine
 10
467.2174272467
 20
288.3192984684
 30
0.0
 11
467.6720905837
 21
288.0567984684
 31
0.0
  0
LINE
  5
22F
330
146
100
AcDbEntity
  8
DV2_Default
  6
Continuous
 62
     7
 48
25.4
100
AcDbLine
 10
461.9674540158
 20
279.226078094
 30
0.0
 11
461.5127906788
 21
279.488578094
 31
0.0
  0
LINE
  5
230
330
146
100
AcDbEntity
  8
DV2_Default
  6
Continuous
 62
     7
 48
25.4
100
AcDbLine
 10
466.7627639097
 20
288.5817984684
 30
0.0
 11
467.2174272467
 21
288.3192984684
 31
0.0
  0
LINE
  5
231
330
146
100
AcDbEntity
  8
DV2_Default
  6
Continuous
 62
     7
 48
25.4
100
AcDbLine
 10
461.5127906788
 20
279.488578094
 30
0.0
 11
461.0581273418
 21
279.751078094
 31
0.0
  0
LINE
  5
232
330
146
100
AcDbEntity
  8
DV2_Default
  6
Continuous
 62
     7
 48
25.4
100
AcDbLine
 10
466.3081005727
 20
288.8442984684
 30
0.0
 11
466.7627639097
 21
288.5817984684
 31
0.0
  0
LINE
  5
233
330
146
100
AcDbEntity
  8
DV2_Default
  6
Continuous
 62
     7
 48
25.4
100
AcDbLine
 10
461.0581273418
 20
279.751078094
 30
0.0
 11
460.6034640048
 21
280.013578094
 31
0.0
  0
LINE
  5
234
330
146
100
AcDbEntity
  8
DV2_Default
  6
Continuous
 62
     7
 48
25.4
100
AcDbLine
 10
465.8534372357
 20
289.1067984684
 30
0.0
 11
466.3081005727
 21
288.8442984684
 31
0.0
  0
LINE
  5
235
330
146
100
AcDbEntity
  8
DV2_Default
  6
Continuous
 62
     7
 48
25.4
100
AcDbLine
 10
460.6034640048
 20
280.013578094
 30
0.0
 11
460.1488006678
 21
280.276078094
 31
0.0
  0
LINE
  5
236
330
146
100
AcDbEntity
  8
DV2_Default
  6
Continuous
 62
     7
 48
25.4
100
AcDbLine
 10
465.3987738987
 20
289.3692984684
 30
0.0
 11
465.8534372357
 21
289.1067984684
 31
0.0
  0
LINE
  5
237
330
146
100
AcDbEntity
  8
DV2_Default
  6
Continuous
 62
     7
 48
25.4
100
AcDbLine
 10
460.1488006678
 20
280.276078094
 30
0.0
 11
459.6941373308
 21
280.538578094
 31
0.0
  0
LINE
  5
238
330
146
100
AcDbEntity
  8
DV2_Default
  6
Continuous
 62
     7
 48
25.4
100
AcDbLine
 10
464.9441105618
 20
289.6317984684
 30
0.0
 11
465.3987738987
 21
289.3692984684
 31
0.0
  0
LINE
  5
239
330
146
100
AcDbEntity
  8
DV2_Default
  6
Continuous
 62
     7
 48
25.4
100
AcDbLine
 10
459.6941373308
 20
280.538578094
 30
0.0
 11
459.2394739938
 21
280.801078094
 31
0.0
  0
LINE
  5
23A
330
146
100
AcDbEntity
  8
DV2_Default
  6
Continuous
 62
     7
 48
25.4
100
AcDbLine
 10
464.4894472248
 20
289.8942984684
 30
0.0
 11
464.9441105618
 21
289.6317984684
 31
0.0
  0
LINE
  5
23B
330
146
100
AcDbEntity
  8
DV2_Default
  6
Continuous
 62
     7
 48
25.4
100
AcDbLine
 10
459.2394739938
 20
280.801078094
 30
0.0
 11
458.7848106569
 21
281.063578094
 31
0.0
  0
LINE
  5
23C
330
146
100
AcDbEntity
  8
DV2_Default
  6
Continuous
 62
     7
 48
25.4
100
AcDbLine
 10
464.0347838878
 20
290.1567984684
 30
0.0
 11
464.4894472248
 21
289.8942984684
 31
0.0
  0
LINE
  5
23D
330
146
100
AcDbEntity
  8
DV2_Default
  6
Continuous
 62
     7
 48
25.4
100
AcDbLine
 10
458.7848106569
 20
281.063578094
 30
0.0
 11
458.3301473199
 21
281.326078094
 31
0.0
  0
LINE
  5
23E
330
146
100
AcDbEntity
  8
DV2_Default
  6
Continuous
 62
     7
 48
25.4
100
AcDbLine
 10
463.5801205508
 20
290.4192984684
 30
0.0
 11
464.0347838878
 21
290.1567984684
 31
0.0
  0
LINE
  5
23F
330
146
100
AcDbEntity
  8
DV2_Default
  6
Continuous
 62
     7
 48
25.4
100
AcDbLine
 10
458.3301473199
 20
281.326078094
 30
0.0
 11
457.8754839829
 21
281.588578094
 31
0.0
  0
LINE
  5
240
330
146
100
AcDbEntity
  8
DV2_Default
  6
Continuous
 62
     7
 48
25.4
100
AcDbLine
 10
463.1254572138
 20
290.6817984684
 30
0.0
 11
463.5801205508
 21
290.4192984684
 31
0.0
  0
LINE
  5
241
330
146
100
AcDbEntity
  8
DV2_Default
  6
Continuous
 62
     7
 48
25.4
100
AcDbLine
 10
457.8754839829
 20
281.588578094
 30
0.0
 11
457.4208206459
 21
281.851078094
 31
0.0
  0
LINE
  5
242
330
146
100
AcDbEntity
  8
DV2_Default
  6
Continuous
 62
     7
 48
25.4
100
AcDbLine
 10
462.6707938768
 20
290.9442984684
 30
0.0
 11
463.1254572138
 21
290.6817984684
 31
0.0
  0
LINE
  5
243
330
146
100
AcDbEntity
  8
DV2_Default
  6
Continuous
 62
     7
 48
25.4
100
AcDbLine
 10
454.9905930271
 20
283.94167199
 30
0.0
 11
450.8428962204
 21
276.7576503863
 31
0.0
  0
LINE
  5
244
330
146
100
AcDbEntity
  8
DV2_Default
  6
Continuous
 62
     7
 48
25.4
100
AcDbLine
 10
463.7928584368
 20
299.1876429012
 30
0.0
 11
459.6451726445
 21
292.0036403752
 31
0.0
  0
LINE
  5
245
330
146
100
AcDbEntity
  8
DV2_Default
  6
Continuous
 62
     7
 48
25.4
100
AcDbLine
 10
505.0543820577
 20
283.4481949001
 30
0.0
 11
505.6788383777
 21
283.0876648757
 31
0.0
  0
CIRCLE
  5
246
330
146
100
AcDbEntity
  8
DV2_Default
  6
Continuous
 62
     7
 48
25.4
100
AcDbCircle
 10
433.8164126496
 20
341.0547214191
 30
0.0
 40
6.397999999999999
  0
CIRCLE
  5
247
330
146
100
AcDbEntity
  8
DV2_Default
  6
Continuous
 62
     7
 48
25.4
100
AcDbCircle
 10
433.8164126496
 20
358.5547214191
 30
0.0
 40
6.397999999999999
  0
CIRCLE
  5
248
330
146
100
AcDbEntity
  8
DV2_Default
  6
Continuous
 62
     7
 48
25.4
100
AcDbCircle
 10
478.8200507734
 20
313.6001004433
 30
0.0
 40
5.6
  0
CIRCLE
  5
249
330
146
100
AcDbEntity
  8
DV2_Default
  6
Continuous
 62
     7
 48
25.4
100
AcDbCircle
 10
483.3920938596
 20
272.9187343393
 30
0.0
 40
3.5371
  0
CIRCLE
  5
24A
330
146
100
AcDbEntity
  8
DV2_Default
  6
Continuous
 62
     7
 48
25.4
100
AcDbCircle
 10
468.2366492934
 20
281.6687343393
 30
0.0
 40
3.5371
  0
LINE
  5
24B
330
146
100
AcDbEntity
  8
DV2_Default
  6
Continuous
 62
     7
 48
25.4
100
AcDbLine
 10
459.7713197244
 20
281.7064523836
 30
0.0
 11
463.9713197244
 21
288.9810657754
 31
0.0
  0
LINE
  5
24C
330
146
100
AcDbEntity
  8
DV2_Default
  6
Continuous
 62
     7
 48
25.4
100
AcDbLine
 10
463.9713197244
 20
288.9810657754
 30
0.0
 11
464.641157821
 21
289.2409668715
 31
0.0
  0
LINE
  5
24D
330
146
100
AcDbEntity
  8
DV2_Default
  6
Continuous
 62
     7
 48
25.4
100
AcDbLine
 10
465.1435363935
 20
289.4358926935
 30
0.0
 11
465.2272021165
 21
289.468355483
 31
0.0
  0
LINE
  5
24E
330
146
100
AcDbEntity
  8
DV2_Default
  6
Continuous
 62
     7
 48
25.4
100
AcDbLine
 10
492.6504466176
 20
273.5547706711
 30
0.0
 11
492.6854198485
 21
273.615346084
 31
0.0
  0
LINE
  5
24F
330
146
100
AcDbEntity
  8
DV2_Default
  6
Continuous
 62
     7
 48
25.4
100
AcDbLine
 10
464.8086173452
 20
289.3059421455
 30
0.0
 11
465.1435363935
 21
289.4358926935
 31
0.0
  0
LINE
  5
250
330
146
100
AcDbEntity
  8
DV2_Default
  6
Continuous
 62
     7
 48
25.4
100
AcDbLine
 10
492.6504466176
 20
273.5547706711
 30
0.0
 11
492.5104466176
 21
273.312283558
 31
0.0
  0
LINE
  5
251
330
146
100
AcDbEntity
  8
DV2_Default
  6
Continuous
 62
     7
 48
25.4
100
AcDbLine
 10
460.3371426508
 20
280.2481678371
 30
0.0
 11
460.1754789575
 21
280.6648205647
 31
0.0
  0
LINE
  5
252
330
146
100
AcDbEntity
  8
DV2_Default
  6
Continuous
 62
     7
 48
25.4
100
AcDbLine
 10
487.6104466176
 20
264.825234601
 30
0.0
 11
487.4704466176
 21
264.5827474879
 31
0.0
  0
LINE
  5
253
330
146
100
AcDbEntity
  8
DV2_Default
  6
Continuous
 62
     7
 48
25.4
100
AcDbLine
 10
460.3775585741
 20
280.1440046552
 30
0.0
 11
460.3371426508
 21
280.2481678371
 31
0.0
  0
LINE
  5
254
330
146
100
AcDbEntity
  8
DV2_Default
  6
Continuous
 62
     7
 48
25.4
100
AcDbLine
 10
487.4354466176
 20
264.5221257096
 30
0.0
 11
487.4704466176
 21
264.5827474879
 31
0.0
  0
LINE
  5
255
330
146
100
AcDbEntity
  8
DV2_Default
  6
Continuous
 62
     7
 48
25.4
100
AcDbLine
 10
487.6104466176
 20
264.825234601
 30
0.0
 11
460.1754789575
 21
280.6648205647
 31
0.0
  0
LINE
  5
256
330
146
100
AcDbEntity
  8
DV2_Default
  6
Continuous
 62
     7
 48
25.4
100
AcDbLine
 10
460.0946471109
 20
280.8731469285
 30
0.0
 11
459.7713197244
 21
281.7064523836
 31
0.0
  0
LINE
  5
257
330
146
100
AcDbEntity
  8
DV2_Default
  6
Continuous
 62
     7
 48
25.4
100
AcDbLine
 10
460.1754789575
 20
280.6648205647
 30
0.0
 11
460.0946471109
 21
280.8731469285
 31
0.0
  0
LINE
  5
258
330
146
100
AcDbEntity
  8
DV2_Default
  6
Continuous
 62
     7
 48
25.4
100
AcDbLine
 10
460.0946471109
 20
280.8731469285
 30
0.0
 11
487.5592030611
 21
265.0164781575
 31
0.0
  0
LINE
  5
259
330
146
100
AcDbEntity
  8
DV2_Default
  6
Continuous
 62
     7
 48
25.4
100
AcDbLine
 10
464.641157821
 20
289.2409668715
 30
0.0
 11
464.8086173452
 21
289.3059421455
 31
0.0
  0
LINE
  5
25A
330
146
100
AcDbEntity
  8
DV2_Default
  6
Continuous
 62
     7
 48
25.4
100
AcDbLine
 10
464.8086173452
 20
289.3059421455
 30
0.0
 11
492.5104466176
 21
273.312283558
 31
0.0
  0
LINE
  5
25B
330
146
100
AcDbEntity
  8
DV2_Default
  6
Continuous
 62
     7
 48
25.4
100
AcDbLine
 10
492.3192030611
 20
273.2610400015
 30
0.0
 11
464.641157821
 21
289.2409668715
 31
0.0
  0
LINE
  5
25C
330
146
100
AcDbEntity
  8
DV2_Default
  6
Continuous
 62
     7
 48
25.4
100
AcDbLine
 10
487.5592030611
 20
265.0164781575
 30
0.0
 11
492.3192030611
 21
273.2610400015
 31
0.0
  0
LINE
  5
25D
330
146
100
AcDbEntity
  8
DV2_Default
  6
Continuous
 62
     7
 48
25.4
100
AcDbLine
 10
492.3192030611
 20
273.2610400015
 30
0.0
 11
492.5104466176
 21
273.312283558
 31
0.0
  0
LINE
  5
25E
330
146
100
AcDbEntity
  8
DV2_Default
  6
Continuous
 62
     7
 48
25.4
100
AcDbLine
 10
492.5104466176
 20
273.312283558
 30
0.0
 11
487.6104466176
 21
264.825234601
 31
0.0
  0
LINE
  5
25F
330
146
100
AcDbEntity
  8
DV2_Default
  6
Continuous
 62
     7
 48
25.4
100
AcDbLine
 10
487.6104466176
 20
264.825234601
 30
0.0
 11
487.5592030611
 21
265.0164781575
 31
0.0
  0
CIRCLE
  5
260
330
146
100
AcDbEntity
  8
DV2_Default
  6
HIDDEN2
 62
     7
 48
25.4
100
AcDbCircle
 10
483.3920938596
 20
272.9187343393
 30
0.0
 40
4.2
  0
CIRCLE
  5
261
330
146
100
AcDbEntity
  8
DV2_Default
  6
HIDDEN2
 62
     7
 48
25.4
100
AcDbCircle
 10
468.2366492934
 20
281.6687343393
 30
0.0
 40
4.2
  0
LINE
  5
262
330
146
100
AcDbEntity
  8
DV2_Default
  6
Continuous
 62
     7
 48
25.4
100
AcDbLine
 10
435.3316826735
 20
277.9790689562
 30
0.0
 11
435.3316826735
 21
276.2290689562
 31
0.0
  0
LINE
  5
263
330
146
100
AcDbEntity
  8
DV2_Default
  6
Continuous
 62
     7
 48
25.4
100
AcDbLine
 10
435.3316826735
 20
276.2290689562
 30
0.0
 11
433.8161382168
 21
275.3540689562
 31
0.0
  0
LINE
  5
264
330
146
100
AcDbEntity
  8
DV2_Default
  6
Continuous
 62
     7
 48
25.4
100
AcDbLine
 10
433.8161382168
 20
275.3540689562
 30
0.0
 11
432.3005937602
 21
276.2290689562
 31
0.0
  0
LINE
  5
265
330
146
100
AcDbEntity
  8
DV2_Default
  6
Continuous
 62
     7
 48
25.4
100
AcDbLine
 10
432.3005937602
 20
276.2290689562
 30
0.0
 11
432.3005937602
 21
277.9790689562
 31
0.0
  0
LINE
  5
266
330
146
100
AcDbEntity
  8
DV2_Default
  6
Continuous
 62
     7
 48
25.4
100
AcDbLine
 10
432.3005937602
 20
277.9790689562
 30
0.0
 11
433.8161382168
 21
278.8540689562
 31
0.0
  0
LINE
  5
267
330
146
100
AcDbEntity
  8
DV2_Default
  6
Continuous
 62
     7
 48
25.4
100
AcDbLine
 10
433.8161382168
 20
278.8540689562
 30
0.0
 11
435.3316826735
 21
277.9790689562
 31
0.0
  0
ARC
  5
268
330
146
100
AcDbEntity
  8
DV2_Default
  6
Continuous
 62
     7
 48
25.4
100
AcDbCircle
 10
433.8161382168
 20
301.5413384176
 30
0.0
 40
28.7
100
AcDbArc
 50
130.6362235268
 51
169.336045039
  0
ARC
  5
269
330
146
100
AcDbEntity
  8
DV2_Default
  6
Continuous
 62
     7
 48
25.4
100
AcDbCircle
 10
433.8161382168
 20
301.5413384176
 30
0.0
 40
28.70000000000105
100
AcDbArc
 50
49.3637764732
 51
50.1128283858
  0
ARC
  5
26A
330
146
100
AcDbEntity
  8
DV2_Default
  6
Continuous
 62
     7
 48
25.4
100
AcDbCircle
 10
433.8161382168
 20
301.5413384176
 30
0.0
 40
28.70000000000036
100
AcDbArc
 50
129.8871716142
 51
130.6362235268
  0
LINE
  5
26B
330
146
100
AcDbEntity
  8
DV2_Default
  6
Continuous
 62
     7
 48
25.4
100
AcDbLine
 10
452.5071312754
 20
323.3206124754
 30
0.0
 11
446.0664126496
 21
323.3206124754
 31
0.0
  0
LINE
  5
26C
330
146
100
AcDbEntity
  8
DV2_Default
  6
Continuous
 62
     7
 48
25.4
100
AcDbLine
 10
421.5664126496
 20
323.3206124754
 30
0.0
 11
415.1251451583
 21
323.3206124754
 31
0.0
  0
LINE
  5
26D
330
146
100
AcDbEntity
  8
DV2_Default
  6
Continuous
 62
     7
 48
25.4
100
AcDbLine
 10
417.7771232845
 20
325.3413384176
 30
0.0
 11
421.5664126496
 21
325.3413384176
 31
0.0
  0
LINE
  5
26E
330
146
100
AcDbEntity
  8
DV2_Default
  6
Continuous
 62
     7
 48
25.4
100
AcDbLine
 10
446.0664126496
 20
325.3413384176
 30
0.0
 11
449.8551531492
 21
325.3413384176
 31
0.0
  0
ARC
  5
26F
330
146
100
AcDbEntity
  8
DV2_Default
  6
Continuous
 62
     7
 48
25.4
100
AcDbCircle
 10
433.8161382168
 20
301.5413384176
 30
0.0
 40
28.7
100
AcDbArc
 50
10.608476444
 51
49.3637764732
  0
ARC
  5
270
330
146
100
AcDbEntity
  8
DV2_Default
  6
Continuous
 62
     7
 48
25.4
100
AcDbCircle
 10
433.8161382168
 20
301.5413384176
 30
0.0
 40
28.70000000000051
100
AcDbArc
 50
289.391523556
 51
290.1410074668
  0
ARC
  5
271
330
146
100
AcDbEntity
  8
DV2_Default
  6
Continuous
 62
     7
 48
25.4
100
AcDbCircle
 10
433.8161382168
 20
301.5413384176
 30
0.0
 40
28.69999999999756
100
AcDbArc
 50
9.8589925332
 51
10.608476444
  0
LINE
  5
272
330
146
100
AcDbEntity
  8
DV2_Default
  6
Continuous
 62
     7
 48
25.4
100
AcDbLine
 10
443.345157739
 20
274.4694380974
 30
0.0
 11
462.0256013839
 21
306.8249155983
 31
0.0
  0
LINE
  5
273
330
146
100
AcDbEntity
  8
DV2_Default
  6
Continuous
 62
     7
 48
25.4
100
AcDbLine
 10
462.4481690543
 20
303.5153723888
 30
0.0
 11
446.4225900686
 21
275.7582553647
 31
0.0
  0
ARC
  5
274
330
146
100
AcDbEntity
  8
DV2_Default
  6
Continuous
 62
     7
 48
25.4
100
AcDbCircle
 10
433.8161382168
 20
301.5413384176
 30
0.0
 40
28.69999999999999
100
AcDbArc
 50
250.663954961
 51
289.391523556
  0
ARC
  5
275
330
146
100
AcDbEntity
  8
DV2_Default
  6
Continuous
 62
     7
 48
25.4
100
AcDbCircle
 10
433.8161382168
 20
301.5413384176
 30
0.0
 40
28.69999999999966
100
AcDbArc
 50
169.336045039
 51
170.0846658779
  0
ARC
  5
276
330
146
100
AcDbEntity
  8
DV2_Default
  6
Continuous
 62
     7
 48
25.4
100
AcDbCircle
 10
433.8161382168
 20
301.5413384176
 30
0.0
 40
28.70000000000033
100
AcDbArc
 50
249.9153341221
 51
250.663954961
  0
LINE
  5
277
330
146
100
AcDbEntity
  8
DV2_Default
  6
Continuous
 62
     7
 48
25.4
100
AcDbLine
 10
405.61180427
 20
306.8522278547
 30
0.0
 11
424.3133364127
 21
274.4602240042
 31
0.0
  0
LINE
  5
278
330
146
100
AcDbEntity
  8
DV2_Default
  6
Continuous
 62
     7
 48
25.4
100
AcDbLine
 10
421.2387876072
 20
275.7440468612
 30
0.0
 11
405.1863530754
 21
303.5476790555
 31
0.0
  0
ARC
  5
279
330
146
100
AcDbEntity
  8
DV2_Default
  6
Continuous
 62
     7
 48
25.4
100
AcDbCircle
 10
433.8161382168
 20
301.5413384176
 30
0.0
 40
18.2
100
AcDbArc
 50
0.0
 51
47.6938421107
  0
ARC
  5
27A
330
146
100
AcDbEntity
  8
DV2_Default
  6
Continuous
 62
     7
 48
25.4
100
AcDbCircle
 10
433.8161382168
 20
301.5413384176
 30
0.0
 40
18.2
100
AcDbArc
 50
132.3038215468
 51
360.0
  0
CIRCLE
  5
27B
330
146
100
AcDbEntity
  8
DV2_Default
  6
Continuous
 62
     7
 48
25.4
100
AcDbCircle
 10
433.8161382168
 20
277.1070110401
 30
0.0
 40
3.78
  0
CIRCLE
  5
27C
330
146
100
AcDbEntity
  8
DV2_Default
  6
Continuous
 62
     7
 48
25.4
100
AcDbCircle
 10
433.8161382168
 20
277.1070110401
 30
0.0
 40
3.5
  0
CIRCLE
  5
27D
330
146
100
AcDbEntity
  8
DV2_Default
  6
Continuous
 62
     7
 48
25.4
100
AcDbCircle
 10
388.8122256603
 20
313.6001004433
 30
0.0
 40
5.6
  0
LINE
  5
27E
330
146
100
AcDbEntity
  8
DV2_Default
  6
Continuous
 62
     7
 48
25.4
100
AcDbLine
 10
414.1496382168
 20
373.0290583253
 30
0.0
 11
413.8696382168
 21
372.9540325515
 31
0.0
  0
LINE
  5
27F
330
146
100
AcDbEntity
  8
DV2_Default
  6
Continuous
 62
     7
 48
25.4
100
AcDbLine
 10
453.7694870824
 20
372.9540325515
 30
0.0
 11
453.7694870824
 21
372.2811000022
 31
0.0
  0
LINE
  5
280
330
146
100
AcDbEntity
  8
DV2_Default
  6
Continuous
 62
     7
 48
25.4
100
AcDbLine
 10
453.7694870824
 20
372.9540325515
 30
0.0
 11
453.4894870824
 21
373.0290583253
 31
0.0
  0
LINE
  5
281
330
146
100
AcDbEntity
  8
DV2_Default
  6
Continuous
 62
     7
 48
25.4
100
AcDbLine
 10
447.6567825625
 20
374.5919267911
 30
0.0
 11
447.3833382373
 21
374.6651959773
 31
0.0
  0
LINE
  5
282
330
146
100
AcDbEntity
  8
DV2_Default
  6
Continuous
 62
     7
 48
25.4
100
AcDbLine
 10
447.3833382373
 20
374.6651959773
 30
0.0
 11
446.7693209293
 21
374.8297214191
 31
0.0
  0
LINE
  5
283
330
146
100
AcDbEntity
  8
DV2_Default
  6
Continuous
 62
     7
 48
25.4
100
AcDbLine
 10
453.4894870824
 20
373.0290583253
 30
0.0
 11
447.6567825625
 21
374.5919267911
 31
0.0
  0
LINE
  5
284
330
146
100
AcDbEntity
  8
DV2_Default
  6
Continuous
 62
     7
 48
25.4
100
AcDbLine
 10
420.8698043699
 20
374.8297214191
 30
0.0
 11
420.255787062
 21
374.6651959773
 31
0.0
  0
LINE
  5
285
330
146
100
AcDbEntity
  8
DV2_Default
  6
Continuous
 62
     7
 48
25.4
100
AcDbLine
 10
420.255787062
 20
374.6651959773
 30
0.0
 11
419.9823427367
 21
374.5919267911
 31
0.0
  0
LINE
  5
286
330
146
100
AcDbEntity
  8
DV2_Default
  6
Continuous
 62
     7
 48
25.4
100
AcDbLine
 10
419.9823427367
 20
374.5919267911
 30
0.0
 11
414.1496382168
 21
373.0290583253
 31
0.0
  0
LINE
  5
287
330
146
100
AcDbEntity
  8
DV2_Default
  6
Continuous
 62
     7
 48
25.4
100
AcDbLine
 10
446.0664126496
 20
374.8297214191
 30
0.0
 11
446.7693209293
 21
374.8297214191
 31
0.0
  0
LINE
  5
288
330
146
100
AcDbEntity
  8
DV2_Default
  6
Continuous
 62
     7
 48
25.4
100
AcDbLine
 10
446.0664126496
 20
374.8296566503
 30
0.0
 11
446.7695626496
 21
374.8296566503
 31
0.0
  0
LINE
  5
289
330
146
100
AcDbEntity
  8
DV2_Default
  6
Continuous
 62
     7
 48
25.4
100
AcDbLine
 10
446.7695626496
 20
374.8296566503
 30
0.0
 11
446.7695626496
 21
374.3046566503
 31
0.0
  0
LINE
  5
28A
330
146
100
AcDbEntity
  8
DV2_Default
  6
Continuous
 62
     7
 48
25.4
100
AcDbLine
 10
446.7695626496
 20
374.3046566503
 30
0.0
 11
446.7695626496
 21
373.8908981637
 31
0.0
  0
LINE
  5
28B
330
146
100
AcDbEntity
  8
DV2_Default
  6
Continuous
 62
     7
 48
25.4
100
AcDbLine
 10
446.7693209293
 20
374.8297214191
 30
0.0
 11
446.7695626496
 21
374.8296566503
 31
0.0
  0
LINE
  5
28C
330
146
100
AcDbEntity
  8
DV2_Default
  6
Continuous
 62
     7
 48
25.4
100
AcDbLine
 10
413.8696382168
 20
372.2830278728
 30
0.0
 11
413.8696382168
 21
372.9540325515
 31
0.0
  0
CIRCLE
  5
28D
330
146
100
AcDbEntity
  8
DV2_Default
  6
Continuous
 62
     7
 48
25.4
100
AcDbCircle
 10
466.7612887476
 20
334.4864889484
 30
0.0
 40
5.6
  0
LINE
  5
28E
330
146
100
AcDbEntity
  8
DV2_Default
  6
Continuous
 62
     7
 48
25.4
100
AcDbLine
 10
381.6973441787
 20
248.7375790599
 30
0.0
 11
381.9023184048
 21
248.5326048337
 31
0.0
  0
LINE
  5
28F
330
146
100
AcDbEntity
  8
DV2_Default
  6
Continuous
 62
     7
 48
25.4
100
AcDbLine
 10
361.952393972
 20
283.0868875585
 30
0.0
 11
362.5779283051
 21
283.4480399741
 31
0.0
  0
LINE
  5
290
330
146
100
AcDbEntity
  8
DV2_Default
  6
Continuous
 62
     7
 48
25.4
100
AcDbLine
 10
361.952393972
 20
283.0868875585
 30
0.0
 11
362.0274197459
 21
282.8068875585
 31
0.0
  0
LINE
  5
291
330
146
100
AcDbEntity
  8
DV2_Default
  6
Continuous
 62
     7
 48
25.4
100
AcDbLine
 10
363.5902882117
 20
276.9741830386
 30
0.0
 11
363.6635573978
 21
276.7007387133
 31
0.0
  0
LINE
  5
292
330
146
100
AcDbEntity
  8
DV2_Default
  6
Continuous
 62
     7
 48
25.4
100
AcDbLine
 10
363.6635573978
 20
276.7007387133
 30
0.0
 11
363.8280828396
 21
276.0867214054
 31
0.0
  0
LINE
  5
293
330
146
100
AcDbEntity
  8
DV2_Default
  6
Continuous
 62
     7
 48
25.4
100
AcDbLine
 10
362.0274197459
 20
282.8068875585
 30
0.0
 11
363.5902882117
 21
276.9741830386
 31
0.0
  0
LINE
  5
294
330
146
100
AcDbEntity
  8
DV2_Default
  6
Continuous
 62
     7
 48
25.4
100
AcDbLine
 10
376.7778411193
 20
253.6570821192
 30
0.0
 11
377.2273329854
 21
253.2075902531
 31
0.0
  0
LINE
  5
295
330
146
100
AcDbEntity
  8
DV2_Default
  6
Continuous
 62
     7
 48
25.4
100
AcDbLine
 10
377.2273329854
 20
253.2075902531
 30
0.0
 11
377.4275081246
 21
253.007415114
 31
0.0
  0
LINE
  5
296
330
146
100
AcDbEntity
  8
DV2_Default
  6
Continuous
 62
     7
 48
25.4
100
AcDbLine
 10
377.4275081246
 20
253.007415114
 30
0.0
 11
381.6973441787
 21
248.7375790599
 31
0.0
  0
LINE
  5
297
330
146
100
AcDbEntity
  8
DV2_Default
  6
Continuous
 62
     7
 48
25.4
100
AcDbLine
 10
372.9279352104
 20
260.3253147578
 30
0.0
 11
367.6779619794
 21
269.4185351322
 31
0.0
  0
LINE
  5
298
330
146
100
AcDbEntity
  8
DV2_Default
  6
Continuous
 62
     7
 48
25.4
100
AcDbLine
 10
377.6341001263
 20
254.1511643728
 30
0.0
 11
377.2326814078
 21
253.9194051677
 31
0.0
  0
LINE
  5
299
330
146
100
AcDbEntity
  8
DV2_Default
  6
Continuous
 62
     7
 48
25.4
100
AcDbLine
 10
377.2326814078
 20
253.9194051677
 30
0.0
 11
376.7780180708
 21
253.6569051677
 31
0.0
  0
LINE
  5
29A
330
146
100
AcDbEntity
  8
DV2_Default
  6
Continuous
 62
     7
 48
25.4
100
AcDbLine
 10
367.6779619794
 20
269.4185351322
 30
0.0
 11
363.8280828396
 21
276.0867214054
 31
0.0
  0
LINE
  5
29B
330
146
100
AcDbEntity
  8
DV2_Default
  6
Continuous
 62
     7
 48
25.4
100
AcDbLine
 10
376.7778411193
 20
253.6570821192
 30
0.0
 11
372.9279352104
 21
260.3253147578
 31
0.0
  0
LINE
  5
29C
330
146
100
AcDbEntity
  8
DV2_Default
  6
Continuous
 62
     7
 48
25.4
100
AcDbLine
 10
372.9279913018
 20
260.3253471422
 30
0.0
 11
372.9279352104
 21
260.3253147578
 31
0.0
  0
LINE
  5
29D
330
146
100
AcDbEntity
  8
DV2_Default
  6
Continuous
 62
     7
 48
25.4
100
AcDbLine
 10
367.6779619794
 20
269.4185351322
 30
0.0
 11
367.6780180708
 21
269.4185675166
 31
0.0
  0
LINE
  5
29E
330
146
100
AcDbEntity
  8
DV2_Default
  6
Continuous
 62
     7
 48
25.4
100
AcDbLine
 10
376.7780180708
 20
253.6569051677
 30
0.0
 11
376.7778411193
 21
253.6570821192
 31
0.0
  0
LINE
  5
29F
330
146
100
AcDbEntity
  8
DV2_Default
  6
Continuous
 62
     7
 48
25.4
100
AcDbLine
 10
367.6780180708
 20
269.4185675166
 30
0.0
 11
368.1326814078
 21
269.6810675166
 31
0.0
  0
LINE
  5
2A0
330
146
100
AcDbEntity
  8
DV2_Default
  6
Continuous
 62
     7
 48
25.4
100
AcDbLine
 10
373.3826546388
 20
260.5878471422
 30
0.0
 11
372.9279913018
 21
260.3253471422
 31
0.0
  0
LINE
  5
2A1
330
146
100
AcDbEntity
  8
DV2_Default
  6
Continuous
 62
     7
 48
25.4
100
AcDbLine
 10
367.6780180708
 20
269.4185675166
 30
0.0
 11
363.8280180708
 21
276.0869631257
 31
0.0
  0
LINE
  5
2A2
330
146
100
AcDbEntity
  8
DV2_Default
  6
Continuous
 62
     7
 48
25.4
100
AcDbLine
 10
376.7780180708
 20
253.6569051677
 30
0.0
 11
372.9279913018
 21
260.3253471422
 31
0.0
  0
LINE
  5
2A3
330
146
100
AcDbEntity
  8
DV2_Default
  6
Continuous
 62
     7
 48
25.4
100
AcDbLine
 10
368.1326814078
 20
269.6810675166
 30
0.0
 11
368.5873447448
 21
269.9435675166
 31
0.0
  0
LINE
  5
2A4
330
146
100
AcDbEntity
  8
DV2_Default
  6
Continuous
 62
     7
 48
25.4
100
AcDbLine
 10
373.8373179757
 20
260.8503471422
 30
0.0
 11
373.3826546388
 21
260.5878471422
 31
0.0
  0
LINE
  5
2A5
330
146
100
AcDbEntity
  8
DV2_Default
  6
Continuous
 62
     7
 48
25.4
100
AcDbLine
 10
368.5873447448
 20
269.9435675166
 30
0.0
 11
369.0420080818
 21
270.2060675166
 31
0.0
  0
LINE
  5
2A6
330
146
100
AcDbEntity
  8
DV2_Default
  6
Continuous
 62
     7
 48
25.4
100
AcDbLine
 10
363.8280828396
 20
276.0867214054
 30
0.0
 11
363.8280180708
 21
276.0869631257
 31
0.0
  0
LINE
  5
2A7
330
146
100
AcDbEntity
  8
DV2_Default
  6
Continuous
 62
     7
 48
25.4
100
AcDbLine
 10
374.2919813127
 20
261.1128471422
 30
0.0
 11
373.8373179757
 21
260.8503471422
 31
0.0
  0
LINE
  5
2A8
330
146
100
AcDbEntity
  8
DV2_Default
  6
Continuous
 62
     7
 48
25.4
100
AcDbLine
 10
369.0420080818
 20
270.2060675166
 30
0.0
 11
369.4966714188
 21
270.4685675166
 31
0.0
  0
LINE
  5
2A9
330
146
100
AcDbEntity
  8
DV2_Default
  6
Continuous
 62
     7
 48
25.4
100
AcDbLine
 10
374.7466446497
 20
261.3753471422
 30
0.0
 11
374.2919813127
 21
261.1128471422
 31
0.0
  0
LINE
  5
2AA
330
146
100
AcDbEntity
  8
DV2_Default
  6
Continuous
 62
     7
 48
25.4
100
AcDbLine
 10
369.4966714188
 20
270.4685675166
 30
0.0
 11
369.9513347558
 21
270.7310675166
 31
0.0
  0
LINE
  5
2AB
330
146
100
AcDbEntity
  8
DV2_Default
  6
Continuous
 62
     7
 48
25.4
100
AcDbLine
 10
375.2013079867
 20
261.6378471422
 30
0.0
 11
374.7466446497
 21
261.3753471422
 31
0.0
  0
LINE
  5
2AC
330
146
100
AcDbEntity
  8
DV2_Default
  6
Continuous
 62
     7
 48
25.4
100
AcDbLine
 10
369.9513347558
 20
270.7310675166
 30
0.0
 11
370.4059980928
 21
270.9935675166
 31
0.0
  0
LINE
  5
2AD
330
146
100
AcDbEntity
  8
DV2_Default
  6
Continuous
 62
     7
 48
25.4
100
AcDbLine
 10
375.6559713237
 20
261.9003471422
 30
0.0
 11
375.2013079867
 21
261.6378471422
 31
0.0
  0
LINE
  5
2AE
330
146
100
AcDbEntity
  8
DV2_Default
  6
Continuous
 62
     7
 48
25.4
100
AcDbLine
 10
370.4059980928
 20
270.9935675166
 30
0.0
 11
370.8606614297
 21
271.2560675166
 31
0.0
  0
LINE
  5
2AF
330
146
100
AcDbEntity
  8
DV2_Default
  6
Continuous
 62
     7
 48
25.4
100
AcDbLine
 10
376.1106346607
 20
262.1628471422
 30
0.0
 11
375.6559713237
 21
261.9003471422
 31
0.0
  0
LINE
  5
2B0
330
146
100
AcDbEntity
  8
DV2_Default
  6
Continuous
 62
     7
 48
25.4
100
AcDbLine
 10
370.8606614297
 20
271.2560675166
 30
0.0
 11
371.3153247667
 21
271.5185675166
 31
0.0
  0
LINE
  5
2B1
330
146
100
AcDbEntity
  8
DV2_Default
  6
Continuous
 62
     7
 48
25.4
100
AcDbLine
 10
376.5652979977
 20
262.4253471422
 30
0.0
 11
376.1106346607
 21
262.1628471422
 31
0.0
  0
LINE
  5
2B2
330
146
100
AcDbEntity
  8
DV2_Default
  6
Continuous
 62
     7
 48
25.4
100
AcDbLine
 10
371.3153247667
 20
271.5185675166
 30
0.0
 11
371.7699881037
 21
271.7810675166
 31
0.0
  0
LINE
  5
2B3
330
146
100
AcDbEntity
  8
DV2_Default
  6
Continuous
 62
     7
 48
25.4
100
AcDbLine
 10
377.0199613346
 20
262.6878471422
 30
0.0
 11
376.5652979977
 21
262.4253471422
 31
0.0
  0
LINE
  5
2B4
330
146
100
AcDbEntity
  8
DV2_Default
  6
Continuous
 62
     7
 48
25.4
100
AcDbLine
 10
371.7699881037
 20
271.7810675166
 30
0.0
 11
372.2246514407
 21
272.0435675166
 31
0.0
  0
LINE
  5
2B5
330
146
100
AcDbEntity
  8
DV2_Default
  6
Continuous
 62
     7
 48
25.4
100
AcDbLine
 10
377.4746246716
 20
262.9503471422
 30
0.0
 11
377.0199613346
 21
262.6878471422
 31
0.0
  0
LINE
  5
2B6
330
146
100
AcDbEntity
  8
DV2_Default
  6
Continuous
 62
     7
 48
25.4
100
AcDbLine
 10
372.2246514407
 20
272.0435675166
 30
0.0
 11
372.6793147777
 21
272.3060675166
 31
0.0
  0
LINE
  5
2B7
330
146
100
AcDbEntity
  8
DV2_Default
  6
Continuous
 62
     7
 48
25.4
100
AcDbLine
 10
377.9292880086
 20
263.2128471422
 30
0.0
 11
377.4746246716
 21
262.9503471422
 31
0.0
  0
LINE
  5
2B8
330
146
100
AcDbEntity
  8
DV2_Default
  6
Continuous
 62
     7
 48
25.4
100
AcDbLine
 10
372.6793147777
 20
272.3060675166
 30
0.0
 11
373.1339781147
 21
272.5685675166
 31
0.0
  0
LINE
  5
2B9
330
146
100
AcDbEntity
  8
DV2_Default
  6
Continuous
 62
     7
 48
25.4
100
AcDbLine
 10
378.3839513456
 20
263.4753471422
 30
0.0
 11
377.9292880086
 21
263.2128471422
 31
0.0
  0
LINE
  5
2BA
330
146
100
AcDbEntity
  8
DV2_Default
  6
Continuous
 62
     7
 48
25.4
100
AcDbLine
 10
373.1339781147
 20
272.5685675166
 30
0.0
 11
373.5886414517
 21
272.8310675166
 31
0.0
  0
LINE
  5
2BB
330
146
100
AcDbEntity
  8
DV2_Default
  6
Continuous
 62
     7
 48
25.4
100
AcDbLine
 10
378.8386146826
 20
263.7378471422
 30
0.0
 11
378.3839513456
 21
263.4753471422
 31
0.0
  0
LINE
  5
2BC
330
146
100
AcDbEntity
  8
DV2_Default
  6
Continuous
 62
     7
 48
25.4
100
AcDbLine
 10
373.5886414517
 20
272.8310675166
 30
0.0
 11
374.0433047887
 21
273.0935675166
 31
0.0
  0
LINE
  5
2BD
330
146
100
AcDbEntity
  8
DV2_Default
  6
Continuous
 62
     7
 48
25.4
100
AcDbLine
 10
379.2932780196
 20
264.0003471422
 30
0.0
 11
378.8386146826
 21
263.7378471422
 31
0.0
  0
LINE
  5
2BE
330
146
100
AcDbEntity
  8
DV2_Default
  6
Continuous
 62
     7
 48
25.4
100
AcDbLine
 10
374.0433047887
 20
273.0935675166
 30
0.0
 11
374.4979681256
 21
273.3560675166
 31
0.0
  0
LINE
  5
2BF
330
146
100
AcDbEntity
  8
DV2_Default
  6
Continuous
 62
     7
 48
25.4
100
AcDbLine
 10
379.7479413566
 20
264.2628471422
 30
0.0
 11
379.2932780196
 21
264.0003471422
 31
0.0
  0
LINE
  5
2C0
330
146
100
AcDbEntity
  8
DV2_Default
  6
Continuous
 62
     7
 48
25.4
100
AcDbLine
 10
374.4979681256
 20
273.3560675166
 30
0.0
 11
374.9526314626
 21
273.6185675166
 31
0.0
  0
LINE
  5
2C1
330
146
100
AcDbEntity
  8
DV2_Default
  6
Continuous
 62
     7
 48
25.4
100
AcDbLine
 10
380.2026046936
 20
264.5253471422
 30
0.0
 11
379.7479413566
 21
264.2628471422
 31
0.0
  0
LINE
  5
2C2
330
146
100
AcDbEntity
  8
DV2_Default
  6
Continuous
 62
     7
 48
25.4
100
AcDbLine
 10
374.9526314626
 20
273.6185675166
 30
0.0
 11
375.4072947996
 21
273.8810675166
 31
0.0
  0
LINE
  5
2C3
330
146
100
AcDbEntity
  8
DV2_Default
  6
Continuous
 62
     7
 48
25.4
100
AcDbLine
 10
380.6572680305
 20
264.7878471422
 30
0.0
 11
380.2026046936
 21
264.5253471422
 31
0.0
  0
LINE
  5
2C4
330
146
100
AcDbEntity
  8
DV2_Default
  6
Continuous
 62
     7
 48
25.4
100
AcDbLine
 10
375.4072947996
 20
273.8810675166
 30
0.0
 11
375.8619581366
 21
274.1435675166
 31
0.0
  0
LINE
  5
2C5
330
146
100
AcDbEntity
  8
DV2_Default
  6
Continuous
 62
     7
 48
25.4
100
AcDbLine
 10
381.1119313675
 20
265.0503471422
 30
0.0
 11
380.6572680305
 21
264.7878471422
 31
0.0
  0
LINE
  5
2C6
330
146
100
AcDbEntity
  8
DV2_Default
  6
Continuous
 62
     7
 48
25.4
100
AcDbLine
 10
375.8619581366
 20
274.1435675166
 30
0.0
 11
376.3166214736
 21
274.4060675166
 31
0.0
  0
LINE
  5
2C7
330
146
100
AcDbEntity
  8
DV2_Default
  6
Continuous
 62
     7
 48
25.4
100
AcDbLine
 10
381.5665947045
 20
265.3128471422
 30
0.0
 11
381.1119313675
 21
265.0503471422
 31
0.0
  0
LINE
  5
2C8
330
146
100
AcDbEntity
  8
DV2_Default
  6
Continuous
 62
     7
 48
25.4
100
AcDbLine
 10
376.3166214736
 20
274.4060675166
 30
0.0
 11
376.7712848106
 21
274.6685675166
 31
0.0
  0
LINE
  5
2C9
330
146
100
AcDbEntity
  8
DV2_Default
  6
Continuous
 62
     7
 48
25.4
100
AcDbLine
 10
382.0212580415
 20
265.5753471422
 30
0.0
 11
381.5665947045
 21
265.3128471422
 31
0.0
  0
LINE
  5
2CA
330
146
100
AcDbEntity
  8
DV2_Default
  6
Continuous
 62
     7
 48
25.4
100
AcDbLine
 10
376.7712848106
 20
274.6685675166
 30
0.0
 11
377.2259481476
 21
274.9310675166
 31
0.0
  0
LINE
  5
2CB
330
146
100
AcDbEntity
  8
DV2_Default
  6
Continuous
 62
     7
 48
25.4
100
AcDbLine
 10
382.4759213785
 20
265.8378471422
 30
0.0
 11
382.0212580415
 21
265.5753471422
 31
0.0
  0
LINE
  5
2CC
330
146
100
AcDbEntity
  8
DV2_Default
  6
Continuous
 62
     7
 48
25.4
100
AcDbLine
 10
377.2259481476
 20
274.9310675166
 30
0.0
 11
377.6806114845
 21
275.1935675166
 31
0.0
  0
LINE
  5
2CD
330
146
100
AcDbEntity
  8
DV2_Default
  6
Continuous
 62
     7
 48
25.4
100
AcDbLine
 10
382.9305847155
 20
266.1003471422
 30
0.0
 11
382.4759213785
 21
265.8378471422
 31
0.0
  0
LINE
  5
2CE
330
146
100
AcDbEntity
  8
DV2_Default
  6
Continuous
 62
     7
 48
25.4
100
AcDbLine
 10
377.6806114845
 20
275.1935675166
 30
0.0
 11
378.1352748215
 21
275.4560675166
 31
0.0
  0
LINE
  5
2CF
330
146
100
AcDbEntity
  8
DV2_Default
  6
Continuous
 62
     7
 48
25.4
100
AcDbLine
 10
383.3852480525
 20
266.3628471422
 30
0.0
 11
382.9305847155
 21
266.1003471422
 31
0.0
  0
LINE
  5
2D0
330
146
100
AcDbEntity
  8
DV2_Default
  6
Continuous
 62
     7
 48
25.4
100
AcDbLine
 10
378.1352748215
 20
275.4560675166
 30
0.0
 11
378.5899381585
 21
275.7185675166
 31
0.0
  0
LINE
  5
2D1
330
146
100
AcDbEntity
  8
DV2_Default
  6
Continuous
 62
     7
 48
25.4
100
AcDbLine
 10
383.8399113895
 20
266.6253471422
 30
0.0
 11
383.3852480525
 21
266.3628471422
 31
0.0
  0
LINE
  5
2D2
330
146
100
AcDbEntity
  8
DV2_Default
  6
Continuous
 62
     7
 48
25.4
100
AcDbLine
 10
378.5899381585
 20
275.7185675166
 30
0.0
 11
379.0446014955
 21
275.9810675166
 31
0.0
  0
LINE
  5
2D3
330
146
100
AcDbEntity
  8
DV2_Default
  6
Continuous
 62
     7
 48
25.4
100
AcDbLine
 10
384.2945747264
 20
266.8878471422
 30
0.0
 11
383.8399113895
 21
266.6253471422
 31
0.0
  0
LINE
  5
2D4
330
146
100
AcDbEntity
  8
DV2_Default
  6
Continuous
 62
     7
 48
25.4
100
AcDbLine
 10
379.0446014955
 20
275.9810675166
 30
0.0
 11
379.4992648325
 21
276.2435675166
 31
0.0
  0
LINE
  5
2D5
330
146
100
AcDbEntity
  8
DV2_Default
  6
Continuous
 62
     7
 48
25.4
100
AcDbLine
 10
384.7492380634
 20
267.1503471422
 30
0.0
 11
384.2945747264
 21
266.8878471422
 31
0.0
  0
LINE
  5
2D6
330
146
100
AcDbEntity
  8
DV2_Default
  6
Continuous
 62
     7
 48
25.4
100
AcDbLine
 10
379.4992648325
 20
276.2435675166
 30
0.0
 11
379.9539281695
 21
276.5060675166
 31
0.0
  0
LINE
  5
2D7
330
146
100
AcDbEntity
  8
DV2_Default
  6
Continuous
 62
     7
 48
25.4
100
AcDbLine
 10
385.2039014004
 20
267.4128471422
 30
0.0
 11
384.7492380634
 21
267.1503471422
 31
0.0
  0
LINE
  5
2D8
330
146
100
AcDbEntity
  8
DV2_Default
  6
Continuous
 62
     7
 48
25.4
100
AcDbLine
 10
379.9539281695
 20
276.5060675166
 30
0.0
 11
380.4085915065
 21
276.7685675166
 31
0.0
  0
LINE
  5
2D9
330
146
100
AcDbEntity
  8
DV2_Default
  6
Continuous
 62
     7
 48
25.4
100
AcDbLine
 10
385.6585647374
 20
267.6753471422
 30
0.0
 11
385.2039014004
 21
267.4128471422
 31
0.0
  0
LINE
  5
2DA
330
146
100
AcDbEntity
  8
DV2_Default
  6
Continuous
 62
     7
 48
25.4
100
AcDbLine
 10
380.4085915065
 20
276.7685675166
 30
0.0
 11
380.8632548435
 21
277.0310675166
 31
0.0
  0
LINE
  5
2DB
330
146
100
AcDbEntity
  8
DV2_Default
  6
Continuous
 62
     7
 48
25.4
100
AcDbLine
 10
386.1132280744
 20
267.9378471422
 30
0.0
 11
385.6585647374
 21
267.6753471422
 31
0.0
  0
LINE
  5
2DC
330
146
100
AcDbEntity
  8
DV2_Default
  6
Continuous
 62
     7
 48
25.4
100
AcDbLine
 10
380.8632548435
 20
277.0310675166
 30
0.0
 11
381.3179181804
 21
277.2935675166
 31
0.0
  0
LINE
  5
2DD
330
146
100
AcDbEntity
  8
DV2_Default
  6
Continuous
 62
     7
 48
25.4
100
AcDbLine
 10
386.5678914114
 20
268.2003471422
 30
0.0
 11
386.1132280744
 21
267.9378471422
 31
0.0
  0
LINE
  5
2DE
330
146
100
AcDbEntity
  8
DV2_Default
  6
Continuous
 62
     7
 48
25.4
100
AcDbLine
 10
381.3179181804
 20
277.2935675166
 30
0.0
 11
381.7725815174
 21
277.5560675166
 31
0.0
  0
LINE
  5
2DF
330
146
100
AcDbEntity
  8
DV2_Default
  6
Continuous
 62
     7
 48
25.4
100
AcDbLine
 10
387.0225547484
 20
268.4628471422
 30
0.0
 11
386.5678914114
 21
268.2003471422
 31
0.0
  0
LINE
  5
2E0
330
146
100
AcDbEntity
  8
DV2_Default
  6
Continuous
 62
     7
 48
25.4
100
AcDbLine
 10
381.7725815174
 20
277.5560675166
 30
0.0
 11
382.2272448544
 21
277.8185675166
 31
0.0
  0
LINE
  5
2E1
330
146
100
AcDbEntity
  8
DV2_Default
  6
Continuous
 62
     7
 48
25.4
100
AcDbLine
 10
387.4772180853
 20
268.7253471422
 30
0.0
 11
387.0225547484
 21
268.4628471422
 31
0.0
  0
LINE
  5
2E2
330
146
100
AcDbEntity
  8
DV2_Default
  6
Continuous
 62
     7
 48
25.4
100
AcDbLine
 10
382.2272448544
 20
277.8185675166
 30
0.0
 11
382.6819081914
 21
278.0810675166
 31
0.0
  0
LINE
  5
2E3
330
146
100
AcDbEntity
  8
DV2_Default
  6
Continuous
 62
     7
 48
25.4
100
AcDbLine
 10
387.9318814223
 20
268.9878471422
 30
0.0
 11
387.4772180853
 21
268.7253471422
 31
0.0
  0
LINE
  5
2E4
330
146
100
AcDbEntity
  8
DV2_Default
  6
Continuous
 62
     7
 48
25.4
100
AcDbLine
 10
382.6819081914
 20
278.0810675166
 30
0.0
 11
383.1365715284
 21
278.3435675166
 31
0.0
  0
LINE
  5
2E5
330
146
100
AcDbEntity
  8
DV2_Default
  6
Continuous
 62
     7
 48
25.4
100
AcDbLine
 10
388.3865447593
 20
269.2503471422
 30
0.0
 11
387.9318814223
 21
268.9878471422
 31
0.0
  0
LINE
  5
2E6
330
146
100
AcDbEntity
  8
DV2_Default
  6
Continuous
 62
     7
 48
25.4
100
AcDbLine
 10
383.1365715284
 20
278.3435675166
 30
0.0
 11
383.5912348654
 21
278.6060675166
 31
0.0
  0
LINE
  5
2E7
330
146
100
AcDbEntity
  8
DV2_Default
  6
Continuous
 62
     7
 48
25.4
100
AcDbLine
 10
388.8412080963
 20
269.5128471422
 30
0.0
 11
388.3865447593
 21
269.2503471422
 31
0.0
  0
LINE
  5
2E8
330
146
100
AcDbEntity
  8
DV2_Default
  6
Continuous
 62
     7
 48
25.4
100
AcDbLine
 10
383.5912348654
 20
278.6060675166
 30
0.0
 11
384.0458982024
 21
278.8685675166
 31
0.0
  0
LINE
  5
2E9
330
146
100
AcDbEntity
  8
DV2_Default
  6
Continuous
 62
     7
 48
25.4
100
AcDbLine
 10
389.2958714333
 20
269.7753471422
 30
0.0
 11
388.8412080963
 21
269.5128471422
 31
0.0
  0
LINE
  5
2EA
330
146
100
AcDbEntity
  8
DV2_Default
  6
Continuous
 62
     7
 48
25.4
100
AcDbLine
 10
384.0458982024
 20
278.8685675166
 30
0.0
 11
384.5005615394
 21
279.1310675166
 31
0.0
  0
LINE
  5
2EB
330
146
100
AcDbEntity
  8
DV2_Default
  6
Continuous
 62
     7
 48
25.4
100
AcDbLine
 10
389.7505347703
 20
270.0378471422
 30
0.0
 11
389.2958714333
 21
269.7753471422
 31
0.0
  0
LINE
  5
2EC
330
146
100
AcDbEntity
  8
DV2_Default
  6
Continuous
 62
     7
 48
25.4
100
AcDbLine
 10
384.5005615394
 20
279.1310675166
 30
0.0
 11
384.9552248763
 21
279.3935675166
 31
0.0
  0
LINE
  5
2ED
330
146
100
AcDbEntity
  8
DV2_Default
  6
Continuous
 62
     7
 48
25.4
100
AcDbLine
 10
390.2051981073
 20
270.3003471422
 30
0.0
 11
389.7505347703
 21
270.0378471422
 31
0.0
  0
LINE
  5
2EE
330
146
100
AcDbEntity
  8
DV2_Default
  6
Continuous
 62
     7
 48
25.4
100
AcDbLine
 10
384.9552248763
 20
279.3935675166
 30
0.0
 11
385.4098882133
 21
279.6560675166
 31
0.0
  0
LINE
  5
2EF
330
146
100
AcDbEntity
  8
DV2_Default
  6
Continuous
 62
     7
 48
25.4
100
AcDbLine
 10
390.6598614443
 20
270.5628471422
 30
0.0
 11
390.2051981073
 21
270.3003471422
 31
0.0
  0
LINE
  5
2F0
330
146
100
AcDbEntity
  8
DV2_Default
  6
Continuous
 62
     7
 48
25.4
100
AcDbLine
 10
385.4098882133
 20
279.6560675166
 30
0.0
 11
385.8645515503
 21
279.9185675166
 31
0.0
  0
LINE
  5
2F1
330
146
100
AcDbEntity
  8
DV2_Default
  6
Continuous
 62
     7
 48
25.4
100
AcDbLine
 10
391.1145247812
 20
270.8253471422
 30
0.0
 11
390.6598614443
 21
270.5628471422
 31
0.0
  0
LINE
  5
2F2
330
146
100
AcDbEntity
  8
DV2_Default
  6
Continuous
 62
     7
 48
25.4
100
AcDbLine
 10
385.8645515503
 20
279.9185675166
 30
0.0
 11
386.3192148873
 21
280.1810675166
 31
0.0
  0
LINE
  5
2F3
330
146
100
AcDbEntity
  8
DV2_Default
  6
Continuous
 62
     7
 48
25.4
100
AcDbLine
 10
391.5691881182
 20
271.0878471422
 30
0.0
 11
391.1145247812
 21
270.8253471422
 31
0.0
  0
LINE
  5
2F4
330
146
100
AcDbEntity
  8
DV2_Default
  6
Continuous
 62
     7
 48
25.4
100
AcDbLine
 10
386.3192148873
 20
280.1810675166
 30
0.0
 11
386.7738782243
 21
280.4435675166
 31
0.0
  0
LINE
  5
2F5
330
146
100
AcDbEntity
  8
DV2_Default
  6
Continuous
 62
     7
 48
25.4
100
AcDbLine
 10
392.0238514552
 20
271.3503471422
 30
0.0
 11
391.5691881182
 21
271.0878471422
 31
0.0
  0
LINE
  5
2F6
330
146
100
AcDbEntity
  8
DV2_Default
  6
Continuous
 62
     7
 48
25.4
100
AcDbLine
 10
386.7738782243
 20
280.4435675166
 30
0.0
 11
387.2285415613
 21
280.7060675166
 31
0.0
  0
LINE
  5
2F7
330
146
100
AcDbEntity
  8
DV2_Default
  6
Continuous
 62
     7
 48
25.4
100
AcDbLine
 10
392.4785147922
 20
271.6128471422
 30
0.0
 11
392.0238514552
 21
271.3503471422
 31
0.0
  0
LINE
  5
2F8
330
146
100
AcDbEntity
  8
DV2_Default
  6
Continuous
 62
     7
 48
25.4
100
AcDbLine
 10
387.2285415613
 20
280.7060675166
 30
0.0
 11
387.6832048983
 21
280.9685675166
 31
0.0
  0
LINE
  5
2F9
330
146
100
AcDbEntity
  8
DV2_Default
  6
Continuous
 62
     7
 48
25.4
100
AcDbLine
 10
392.9331781292
 20
271.8753471422
 30
0.0
 11
392.4785147922
 21
271.6128471422
 31
0.0
  0
LINE
  5
2FA
330
146
100
AcDbEntity
  8
DV2_Default
  6
Continuous
 62
     7
 48
25.4
100
AcDbLine
 10
387.6832048983
 20
280.9685675166
 30
0.0
 11
388.1378682352
 21
281.2310675166
 31
0.0
  0
LINE
  5
2FB
330
146
100
AcDbEntity
  8
DV2_Default
  6
Continuous
 62
     7
 48
25.4
100
AcDbLine
 10
393.3878414662
 20
272.1378471422
 30
0.0
 11
392.9331781292
 21
271.8753471422
 31
0.0
  0
LINE
  5
2FC
330
146
100
AcDbEntity
  8
DV2_Default
  6
Continuous
 62
     7
 48
25.4
100
AcDbLine
 10
388.1378682352
 20
281.2310675166
 30
0.0
 11
388.5925315722
 21
281.4935675166
 31
0.0
  0
LINE
  5
2FD
330
146
100
AcDbEntity
  8
DV2_Default
  6
Continuous
 62
     7
 48
25.4
100
AcDbLine
 10
393.8425048032
 20
272.4003471422
 30
0.0
 11
393.3878414662
 21
272.1378471422
 31
0.0
  0
LINE
  5
2FE
330
146
100
AcDbEntity
  8
DV2_Default
  6
Continuous
 62
     7
 48
25.4
100
AcDbLine
 10
388.5925315722
 20
281.4935675166
 30
0.0
 11
389.0471949092
 21
281.7560675166
 31
0.0
  0
LINE
  5
2FF
330
146
100
AcDbEntity
  8
DV2_Default
  6
Continuous
 62
     7
 48
25.4
100
AcDbLine
 10
394.2971681401
 20
272.6628471422
 30
0.0
 11
393.8425048032
 21
272.4003471422
 31
0.0
  0
LINE
  5
300
330
146
100
AcDbEntity
  8
DV2_Default
  6
Continuous
 62
     7
 48
25.4
100
AcDbLine
 10
389.0471949092
 20
281.7560675166
 30
0.0
 11
389.5018582462
 21
282.0185675166
 31
0.0
  0
LINE
  5
301
330
146
100
AcDbEntity
  8
DV2_Default
  6
Continuous
 62
     7
 48
25.4
100
AcDbLine
 10
394.7518314771
 20
272.9253471422
 30
0.0
 11
394.2971681401
 21
272.6628471422
 31
0.0
  0
LINE
  5
302
330
146
100
AcDbEntity
  8
DV2_Default
  6
Continuous
 62
     7
 48
25.4
100
AcDbLine
 10
389.5018582462
 20
282.0185675166
 30
0.0
 11
389.9565215832
 21
282.2810675166
 31
0.0
  0
LINE
  5
303
330
146
100
AcDbEntity
  8
DV2_Default
  6
Continuous
 62
     7
 48
25.4
100
AcDbLine
 10
395.2064948141
 20
273.1878471422
 30
0.0
 11
394.7518314771
 21
272.9253471422
 31
0.0
  0
LINE
  5
304
330
146
100
AcDbEntity
  8
DV2_Default
  6
Continuous
 62
     7
 48
25.4
100
AcDbLine
 10
389.9565215832
 20
282.2810675166
 30
0.0
 11
390.4111849202
 21
282.5435675166
 31
0.0
  0
LINE
  5
305
330
146
100
AcDbEntity
  8
DV2_Default
  6
Continuous
 62
     7
 48
25.4
100
AcDbLine
 10
395.6611581511
 20
273.4503471422
 30
0.0
 11
395.2064948141
 21
273.1878471422
 31
0.0
  0
LINE
  5
306
330
146
100
AcDbEntity
  8
DV2_Default
  6
Continuous
 62
     7
 48
25.4
100
AcDbLine
 10
390.4111849202
 20
282.5435675166
 30
0.0
 11
390.8658482572
 21
282.8060675166
 31
0.0
  0
LINE
  5
307
330
146
100
AcDbEntity
  8
DV2_Default
  6
Continuous
 62
     7
 48
25.4
100
AcDbLine
 10
396.1158214881
 20
273.7128471422
 30
0.0
 11
395.6611581511
 21
273.4503471422
 31
0.0
  0
LINE
  5
308
330
146
100
AcDbEntity
  8
DV2_Default
  6
Continuous
 62
     7
 48
25.4
100
AcDbLine
 10
390.8658482572
 20
282.8060675166
 30
0.0
 11
391.3205115942
 21
283.0685675166
 31
0.0
  0
LINE
  5
309
330
146
100
AcDbEntity
  8
DV2_Default
  6
Continuous
 62
     7
 48
25.4
100
AcDbLine
 10
396.5704848251
 20
273.9753471422
 30
0.0
 11
396.1158214881
 21
273.7128471422
 31
0.0
  0
LINE
  5
30A
330
146
100
AcDbEntity
  8
DV2_Default
  6
Continuous
 62
     7
 48
25.4
100
AcDbLine
 10
391.3205115942
 20
283.0685675166
 30
0.0
 11
391.7751749311
 21
283.3310675166
 31
0.0
  0
LINE
  5
30B
330
146
100
AcDbEntity
  8
DV2_Default
  6
Continuous
 62
     7
 48
25.4
100
AcDbLine
 10
397.0251481621
 20
274.2378471422
 30
0.0
 11
396.5704848251
 21
273.9753471422
 31
0.0
  0
LINE
  5
30C
330
146
100
AcDbEntity
  8
DV2_Default
  6
Continuous
 62
     7
 48
25.4
100
AcDbLine
 10
391.7751749311
 20
283.3310675166
 30
0.0
 11
392.2298382681
 21
283.5935675166
 31
0.0
  0
LINE
  5
30D
330
146
100
AcDbEntity
  8
DV2_Default
  6
Continuous
 62
     7
 48
25.4
100
AcDbLine
 10
397.4798114991
 20
274.5003471422
 30
0.0
 11
397.0251481621
 21
274.2378471422
 31
0.0
  0
LINE
  5
30E
330
146
100
AcDbEntity
  8
DV2_Default
  6
Continuous
 62
     7
 48
25.4
100
AcDbLine
 10
392.2298382681
 20
283.5935675166
 30
0.0
 11
392.6845016051
 21
283.8560675166
 31
0.0
  0
LINE
  5
30F
330
146
100
AcDbEntity
  8
DV2_Default
  6
Continuous
 62
     7
 48
25.4
100
AcDbLine
 10
397.934474836
 20
274.7628471422
 30
0.0
 11
397.4798114991
 21
274.5003471422
 31
0.0
  0
LINE
  5
310
330
146
100
AcDbEntity
  8
DV2_Default
  6
Continuous
 62
     7
 48
25.4
100
AcDbLine
 10
392.6845016051
 20
283.8560675166
 30
0.0
 11
393.1391649421
 21
284.1185675166
 31
0.0
  0
LINE
  5
311
330
146
100
AcDbEntity
  8
DV2_Default
  6
Continuous
 62
     7
 48
25.4
100
AcDbLine
 10
398.389138173
 20
275.0253471422
 30
0.0
 11
397.934474836
 21
274.7628471422
 31
0.0
  0
LINE
  5
312
330
146
100
AcDbEntity
  8
DV2_Default
  6
Continuous
 62
     7
 48
25.4
100
AcDbLine
 10
393.1391649421
 20
284.1185675166
 30
0.0
 11
393.5938282791
 21
284.3810675166
 31
0.0
  0
LINE
  5
313
330
146
100
AcDbEntity
  8
DV2_Default
  6
Continuous
 62
     7
 48
25.4
100
AcDbLine
 10
398.84380151
 20
275.2878471422
 30
0.0
 11
398.389138173
 21
275.0253471422
 31
0.0
  0
LINE
  5
314
330
146
100
AcDbEntity
  8
DV2_Default
  6
Continuous
 62
     7
 48
25.4
100
AcDbLine
 10
393.5938282791
 20
284.3810675166
 30
0.0
 11
394.0484916161
 21
284.6435675166
 31
0.0
  0
LINE
  5
315
330
146
100
AcDbEntity
  8
DV2_Default
  6
Continuous
 62
     7
 48
25.4
100
AcDbLine
 10
399.298464847
 20
275.5503471422
 30
0.0
 11
398.84380151
 21
275.2878471422
 31
0.0
  0
LINE
  5
316
330
146
100
AcDbEntity
  8
DV2_Default
  6
Continuous
 62
     7
 48
25.4
100
AcDbLine
 10
394.0484916161
 20
284.6435675166
 30
0.0
 11
394.5031549531
 21
284.9060675166
 31
0.0
  0
LINE
  5
317
330
146
100
AcDbEntity
  8
DV2_Default
  6
Continuous
 62
     7
 48
25.4
100
AcDbLine
 10
399.753128184
 20
275.8128471422
 30
0.0
 11
399.298464847
 21
275.5503471422
 31
0.0
  0
LINE
  5
318
330
146
100
AcDbEntity
  8
DV2_Default
  6
Continuous
 62
     7
 48
25.4
100
AcDbLine
 10
394.5031549531
 20
284.9060675166
 30
0.0
 11
394.95781829
 21
285.1685675166
 31
0.0
  0
LINE
  5
319
330
146
100
AcDbEntity
  8
DV2_Default
  6
Continuous
 62
     7
 48
25.4
100
AcDbLine
 10
400.207791521
 20
276.0753471422
 30
0.0
 11
399.753128184
 21
275.8128471422
 31
0.0
  0
LINE
  5
31A
330
146
100
AcDbEntity
  8
DV2_Default
  6
Continuous
 62
     7
 48
25.4
100
AcDbLine
 10
394.95781829
 20
285.1685675166
 30
0.0
 11
395.412481627
 21
285.4310675166
 31
0.0
  0
LINE
  5
31B
330
146
100
AcDbEntity
  8
DV2_Default
  6
Continuous
 62
     7
 48
25.4
100
AcDbLine
 10
400.662454858
 20
276.3378471422
 30
0.0
 11
400.207791521
 21
276.0753471422
 31
0.0
  0
LINE
  5
31C
330
146
100
AcDbEntity
  8
DV2_Default
  6
Continuous
 62
     7
 48
25.4
100
AcDbLine
 10
395.412481627
 20
285.4310675166
 30
0.0
 11
395.867144964
 21
285.6935675166
 31
0.0
  0
LINE
  5
31D
330
146
100
AcDbEntity
  8
DV2_Default
  6
Continuous
 62
     7
 48
25.4
100
AcDbLine
 10
401.117118195
 20
276.6003471422
 30
0.0
 11
400.662454858
 21
276.3378471422
 31
0.0
  0
LINE
  5
31E
330
146
100
AcDbEntity
  8
DV2_Default
  6
Continuous
 62
     7
 48
25.4
100
AcDbLine
 10
395.867144964
 20
285.6935675166
 30
0.0
 11
396.321808301
 21
285.9560675166
 31
0.0
  0
LINE
  5
31F
330
146
100
AcDbEntity
  8
DV2_Default
  6
Continuous
 62
     7
 48
25.4
100
AcDbLine
 10
401.5717815319
 20
276.8628471422
 30
0.0
 11
401.117118195
 21
276.6003471422
 31
0.0
  0
LINE
  5
320
330
146
100
AcDbEntity
  8
DV2_Default
  6
Continuous
 62
     7
 48
25.4
100
AcDbLine
 10
396.321808301
 20
285.9560675166
 30
0.0
 11
396.776471638
 21
286.2185675166
 31
0.0
  0
LINE
  5
321
330
146
100
AcDbEntity
  8
DV2_Default
  6
Continuous
 62
     7
 48
25.4
100
AcDbLine
 10
402.0264448689
 20
277.1253471422
 30
0.0
 11
401.5717815319
 21
276.8628471422
 31
0.0
  0
LINE
  5
322
330
146
100
AcDbEntity
  8
DV2_Default
  6
Continuous
 62
     7
 48
25.4
100
AcDbLine
 10
396.776471638
 20
286.2185675166
 30
0.0
 11
397.231134975
 21
286.4810675166
 31
0.0
  0
LINE
  5
323
330
146
100
AcDbEntity
  8
DV2_Default
  6
Continuous
 62
     7
 48
25.4
100
AcDbLine
 10
402.4811082059
 20
277.3878471422
 30
0.0
 11
402.0264448689
 21
277.1253471422
 31
0.0
  0
LINE
  5
324
330
146
100
AcDbEntity
  8
DV2_Default
  6
Continuous
 62
     7
 48
25.4
100
AcDbLine
 10
397.231134975
 20
286.4810675166
 30
0.0
 11
397.685798312
 21
286.7435675166
 31
0.0
  0
LINE
  5
325
330
146
100
AcDbEntity
  8
DV2_Default
  6
Continuous
 62
     7
 48
25.4
100
AcDbLine
 10
402.9357715429
 20
277.6503471422
 30
0.0
 11
402.4811082059
 21
277.3878471422
 31
0.0
  0
LINE
  5
326
330
146
100
AcDbEntity
  8
DV2_Default
  6
Continuous
 62
     7
 48
25.4
100
AcDbLine
 10
397.685798312
 20
286.7435675166
 30
0.0
 11
398.140461649
 21
287.0060675166
 31
0.0
  0
LINE
  5
327
330
146
100
AcDbEntity
  8
DV2_Default
  6
Continuous
 62
     7
 48
25.4
100
AcDbLine
 10
403.3904348799
 20
277.9128471422
 30
0.0
 11
402.9357715429
 21
277.6503471422
 31
0.0
  0
LINE
  5
328
330
146
100
AcDbEntity
  8
DV2_Default
  6
Continuous
 62
     7
 48
25.4
100
AcDbLine
 10
398.140461649
 20
287.0060675166
 30
0.0
 11
398.5951249859
 21
287.2685675166
 31
0.0
  0
LINE
  5
329
330
146
100
AcDbEntity
  8
DV2_Default
  6
Continuous
 62
     7
 48
25.4
100
AcDbLine
 10
403.8450982169
 20
278.1753471422
 30
0.0
 11
403.3904348799
 21
277.9128471422
 31
0.0
  0
LINE
  5
32A
330
146
100
AcDbEntity
  8
DV2_Default
  6
Continuous
 62
     7
 48
25.4
100
AcDbLine
 10
398.5951249859
 20
287.2685675166
 30
0.0
 11
399.0497883229
 21
287.5310675166
 31
0.0
  0
LINE
  5
32B
330
146
100
AcDbEntity
  8
DV2_Default
  6
Continuous
 62
     7
 48
25.4
100
AcDbLine
 10
404.2997615539
 20
278.4378471422
 30
0.0
 11
403.8450982169
 21
278.1753471422
 31
0.0
  0
LINE
  5
32C
330
146
100
AcDbEntity
  8
DV2_Default
  6
Continuous
 62
     7
 48
25.4
100
AcDbLine
 10
399.0497883229
 20
287.5310675166
 30
0.0
 11
399.5044516599
 21
287.7935675166
 31
0.0
  0
LINE
  5
32D
330
146
100
AcDbEntity
  8
DV2_Default
  6
Continuous
 62
     7
 48
25.4
100
AcDbLine
 10
404.7544248908
 20
278.7003471422
 30
0.0
 11
404.2997615539
 21
278.4378471422
 31
0.0
  0
LINE
  5
32E
330
146
100
AcDbEntity
  8
DV2_Default
  6
Continuous
 62
     7
 48
25.4
100
AcDbLine
 10
399.5044516599
 20
287.7935675166
 30
0.0
 11
399.9591149969
 21
288.0560675166
 31
0.0
  0
LINE
  5
32F
330
146
100
AcDbEntity
  8
DV2_Default
  6
Continuous
 62
     7
 48
25.4
100
AcDbLine
 10
405.2090882278
 20
278.9628471422
 30
0.0
 11
404.7544248908
 21
278.7003471422
 31
0.0
  0
LINE
  5
330
330
146
100
AcDbEntity
  8
DV2_Default
  6
Continuous
 62
     7
 48
25.4
100
AcDbLine
 10
399.9591149969
 20
288.0560675166
 30
0.0
 11
400.4137783339
 21
288.3185675166
 31
0.0
  0
LINE
  5
331
330
146
100
AcDbEntity
  8
DV2_Default
  6
Continuous
 62
     7
 48
25.4
100
AcDbLine
 10
405.6637515648
 20
279.2253471422
 30
0.0
 11
405.2090882278
 21
278.9628471422
 31
0.0
  0
LINE
  5
332
330
146
100
AcDbEntity
  8
DV2_Default
  6
Continuous
 62
     7
 48
25.4
100
AcDbLine
 10
400.4137783339
 20
288.3185675166
 30
0.0
 11
400.8684416709
 21
288.5810675166
 31
0.0
  0
LINE
  5
333
330
146
100
AcDbEntity
  8
DV2_Default
  6
Continuous
 62
     7
 48
25.4
100
AcDbLine
 10
406.1184149018
 20
279.4878471422
 30
0.0
 11
405.6637515648
 21
279.2253471422
 31
0.0
  0
LINE
  5
334
330
146
100
AcDbEntity
  8
DV2_Default
  6
Continuous
 62
     7
 48
25.4
100
AcDbLine
 10
400.8684416709
 20
288.5810675166
 30
0.0
 11
401.3231050079
 21
288.8435675166
 31
0.0
  0
LINE
  5
335
330
146
100
AcDbEntity
  8
DV2_Default
  6
Continuous
 62
     7
 48
25.4
100
AcDbLine
 10
406.5730782388
 20
279.7503471422
 30
0.0
 11
406.1184149018
 21
279.4878471422
 31
0.0
  0
LINE
  5
336
330
146
100
AcDbEntity
  8
DV2_Default
  6
Continuous
 62
     7
 48
25.4
100
AcDbLine
 10
401.3231050079
 20
288.8435675166
 30
0.0
 11
401.7777683449
 21
289.1060675166
 31
0.0
  0
LINE
  5
337
330
146
100
AcDbEntity
  8
DV2_Default
  6
Continuous
 62
     7
 48
25.4
100
AcDbLine
 10
407.0277415758
 20
280.0128471422
 30
0.0
 11
406.5730782388
 21
279.7503471422
 31
0.0
  0
LINE
  5
338
330
146
100
AcDbEntity
  8
DV2_Default
  6
Continuous
 62
     7
 48
25.4
100
AcDbLine
 10
401.7777683449
 20
289.1060675166
 30
0.0
 11
402.2324316818
 21
289.3685675166
 31
0.0
  0
LINE
  5
339
330
146
100
AcDbEntity
  8
DV2_Default
  6
Continuous
 62
     7
 48
25.4
100
AcDbLine
 10
407.4824049128
 20
280.2753471422
 30
0.0
 11
407.0277415758
 21
280.0128471422
 31
0.0
  0
LINE
  5
33A
330
146
100
AcDbEntity
  8
DV2_Default
  6
Continuous
 62
     7
 48
25.4
100
AcDbLine
 10
402.2324316818
 20
289.3685675166
 30
0.0
 11
402.6870950188
 21
289.6310675166
 31
0.0
  0
LINE
  5
33B
330
146
100
AcDbEntity
  8
DV2_Default
  6
Continuous
 62
     7
 48
25.4
100
AcDbLine
 10
407.9370682498
 20
280.5378471422
 30
0.0
 11
407.4824049128
 21
280.2753471422
 31
0.0
  0
LINE
  5
33C
330
146
100
AcDbEntity
  8
DV2_Default
  6
Continuous
 62
     7
 48
25.4
100
AcDbLine
 10
402.6870950188
 20
289.6310675166
 30
0.0
 11
403.1417583558
 21
289.8935675166
 31
0.0
  0
LINE
  5
33D
330
146
100
AcDbEntity
  8
DV2_Default
  6
Continuous
 62
     7
 48
25.4
100
AcDbLine
 10
408.3917315867
 20
280.8003471422
 30
0.0
 11
407.9370682498
 21
280.5378471422
 31
0.0
  0
LINE
  5
33E
330
146
100
AcDbEntity
  8
DV2_Default
  6
Continuous
 62
     7
 48
25.4
100
AcDbLine
 10
403.1417583558
 20
289.8935675166
 30
0.0
 11
403.5964216928
 21
290.1560675166
 31
0.0
  0
LINE
  5
33F
330
146
100
AcDbEntity
  8
DV2_Default
  6
Continuous
 62
     7
 48
25.4
100
AcDbLine
 10
408.8463949237
 20
281.0628471422
 30
0.0
 11
408.3917315867
 21
280.8003471422
 31
0.0
  0
LINE
  5
340
330
146
100
AcDbEntity
  8
DV2_Default
  6
Continuous
 62
     7
 48
25.4
100
AcDbLine
 10
403.5964216928
 20
290.1560675166
 30
0.0
 11
404.0510850298
 21
290.4185675166
 31
0.0
  0
LINE
  5
341
330
146
100
AcDbEntity
  8
DV2_Default
  6
Continuous
 62
     7
 48
25.4
100
AcDbLine
 10
409.3010582607
 20
281.3253471422
 30
0.0
 11
408.8463949237
 21
281.0628471422
 31
0.0
  0
LINE
  5
342
330
146
100
AcDbEntity
  8
DV2_Default
  6
Continuous
 62
     7
 48
25.4
100
AcDbLine
 10
404.0510850298
 20
290.4185675166
 30
0.0
 11
404.5057483668
 21
290.6810675166
 31
0.0
  0
LINE
  5
343
330
146
100
AcDbEntity
  8
DV2_Default
  6
Continuous
 62
     7
 48
25.4
100
AcDbLine
 10
409.7557215977
 20
281.5878471422
 30
0.0
 11
409.3010582607
 21
281.3253471422
 31
0.0
  0
LINE
  5
344
330
146
100
AcDbEntity
  8
DV2_Default
  6
Continuous
 62
     7
 48
25.4
100
AcDbLine
 10
404.5057483668
 20
290.6810675166
 30
0.0
 11
404.9604117038
 21
290.9435675166
 31
0.0
  0
LINE
  5
345
330
146
100
AcDbEntity
  8
DV2_Default
  6
Continuous
 62
     7
 48
25.4
100
AcDbLine
 10
382.527894376
 20
248.8937812891
 30
0.0
 11
381.9023184048
 21
248.5326048337
 31
0.0
  0
ARC
  5
346
330
146
100
AcDbEntity
  8
DV2_Default
  6
Continuous
 62
     7
 48
25.4
100
AcDbCircle
 10
433.8161382168
 20
301.5933587221
 30
0.0
 40
10.5
100
AcDbArc
 50
126.3717124486
 51
360.0
  0
ARC
  5
347
330
146
100
AcDbEntity
  8
DV2_Default
  6
Continuous
 62
     7
 48
25.4
100
AcDbCircle
 10
433.8161382168
 20
301.5933587221
 30
0.0
 40
10.5
100
AcDbArc
 50
0.0
 51
53.6213513236
  0
LINE
  5
348
330
146
100
AcDbEntity
  8
DV2_Default
  6
Continuous
 62
     7
 48
25.4
100
AcDbLine
 10
420.8698043699
 20
374.8297214191
 30
0.0
 11
421.5664126496
 21
374.8297214191
 31
0.0
  0
LINE
  5
349
330
146
100
AcDbEntity
  8
DV2_Default
  6
Continuous
 62
     7
 48
25.4
100
AcDbLine
 10
420.8661382168
 20
327.1535913446
 30
0.0
 11
420.8661382168
 21
325.3413384176
 31
0.0
  0
LINE
  5
34A
330
146
100
AcDbEntity
  8
DV2_Default
  6
Continuous
 62
     7
 48
25.4
100
AcDbLine
 10
420.8661382168
 20
327.1535913446
 30
0.0
 11
420.8698043699
 21
374.8297214191
 31
0.0
  0
LINE
  5
34B
330
146
100
AcDbEntity
  8
DV2_Default
  6
Continuous
 62
     7
 48
25.4
100
AcDbLine
 10
377.6340506289
 20
254.151223053
 30
0.0
 11
419.6987542573
 21
278.4114628687
 31
0.0
  0
LINE
  5
34C
330
146
100
AcDbEntity
  8
DV2_Default
  6
Continuous
 62
     7
 48
25.4
100
AcDbLine
 10
363.8280828396
 20
276.0867214054
 30
0.0
 11
406.7377424395
 21
300.8605938546
 31
0.0
  0
LINE
  5
34D
330
146
100
AcDbEntity
  8
DV2_Default
  6
Continuous
 62
     7
 48
25.4
100
AcDbLine
 10
502.8938498212
 20
276.6126749998
 30
0.0
 11
460.9103795615
 21
300.8518428558
 31
0.0
  0
LINE
  5
34E
330
146
100
AcDbEntity
  8
DV2_Default
  6
Continuous
 62
     7
 48
25.4
100
AcDbLine
 10
489.9438876048
 20
254.1826824849
 30
0.0
 11
447.9604173451
 21
278.4218503409
 31
0.0
  0
ARC
  5
34F
330
146
100
AcDbEntity
  8
DV2_Default
  6
Continuous
 62
     7
 48
25.4
100
AcDbCircle
 10
459.7444992161
 20
286.5716485622
 30
0.0
 40
5.432899853990087
100
AcDbArc
 50
45.0896995288
 51
254.9103004712
  0
LINE
  5
350
330
146
100
AcDbEntity
  8
DV2_Default
  6
CENTER2
 62
     7
 48
25.4
100
AcDbLine
 10
424.7164126496
 20
358.5547214191
 30
0.0
 11
442.6644126496
 21
358.5547214191
 31
0.0
  0
LINE
  5
351
330
146
100
AcDbEntity
  8
DV2_Default
  6
CENTER2
 62
     7
 48
25.4
100
AcDbLine
 10
423.9998277974
 20
341.0837177801
 30
0.0
 11
442.6644087321
 21
341.0503401184
 31
0.0
  0
LINE
  5
352
330
146
100
AcDbEntity
  8
DV2_Default
  6
CENTER2
 62
     7
 48
25.4
100
AcDbLine
 10
433.8161382168
 20
301.5933587221
 30
0.0
 11
433.8161382168
 21
222.2436129049
 31
0.0
  0
LINE
  5
353
330
146
100
AcDbEntity
  8
DV2_Default
  6
CENTER2
 62
     7
 48
25.4
100
AcDbLine
 10
433.8161382168
 20
301.5933587221
 30
0.0
 11
433.8161382168
 21
380.4184945281
 31
0.0
  0
ARC
  5
354
330
146
100
AcDbEntity
  8
DV2_Default
  6
Continuous
 62
     7
 48
25.4
100
AcDbCircle
 10
433.8161382168
 20
301.5933587221
 30
0.0
 40
10.5
100
AcDbArc
 50
126.3717124486
 51
360.0
  0
ARC
  5
355
330
146
100
AcDbEntity
  8
DV2_Default
  6
Continuous
 62
     7
 48
25.4
100
AcDbCircle
 10
433.8161382168
 20
301.5933587221
 30
0.0
 40
10.5
100
AcDbArc
 50
126.3717124486
 51
360.0
  0
ARC
  5
356
330
146
100
AcDbEntity
  8
DV2_Default
  6
CENTER2
 62
     7
 48
25.4
100
AcDbCircle
 10
433.8161382168
 20
301.5933587221
 30
0.0
 40
46.69000000000001
100
AcDbArc
 50
36.3456954694
 51
53.5637631846
  0
ARC
  5
357
330
146
100
AcDbEntity
  8
DV2_Default
  6
CENTER2
 62
     7
 48
25.4
100
AcDbCircle
 10
433.8161382168
 20
301.5933587221
 30
0.0
 40
46.69000000000001
100
AcDbArc
 50
246.4141502627
 51
263.6189283373
  0
ARC
  5
358
330
146
100
AcDbEntity
  8
DV2_Default
  6
CENTER2
 62
     7
 48
25.4
100
AcDbCircle
 10
433.8161382168
 20
301.5933587221
 30
0.0
 40
46.69000000000001
100
AcDbArc
 50
276.3810716627
 51
293.5858497373
  0
ARC
  5
359
330
146
100
AcDbEntity
  8
DV2_Default
  6
CENTER2
 62
     7
 48
25.4
100
AcDbCircle
 10
433.8161382168
 20
301.5933587221
 30
0.0
 40
46.69000000000001
100
AcDbArc
 50
126.4362368154
 51
143.6543045306
  0
ARC
  5
35A
330
146
100
AcDbEntity
  8
DV2_Default
  6
CENTER2
 62
     7
 48
25.4
100
AcDbCircle
 10
433.8161382168
 20
301.5933587221
 30
0.0
 40
46.69000000000001
100
AcDbArc
 50
156.4544288925
 51
173.6691909407
  0
ARC
  5
35B
330
146
100
AcDbEntity
  8
DV2_Default
  6
CENTER2
 62
     7
 48
25.4
100
AcDbCircle
 10
433.8161382168
 20
301.5933587221
 30
0.0
 40
46.69000000000001
100
AcDbArc
 50
6.3308090593
 51
23.5455711075
  0
ARC
  5
35C
330
146
100
AcDbEntity
  8
DV2_Default
  6
CENTER2
 62
     7
 48
25.4
100
AcDbCircle
 10
433.8161382168
 20
301.5933587221
 30
0.0
 40
24.4863476819985
100
AcDbArc
 50
59.9808131125
 51
61.1094772626
  0
ARC
  5
35D
330
146
100
AcDbEntity
  8
DV2_Default
  6
CENTER2
 62
     7
 48
25.4
100
AcDbCircle
 10
433.8161382168
 20
301.5933587221
 30
0.0
 40
24.4863476819985
100
AcDbArc
 50
261.1463449906
 51
278.8536550094
  0
LINE
  5
35E
330
146
100
AcDbEntity
  8
DV2_Default
  6
CENTER2
 62
     7
 48
25.4
100
AcDbLine
 10
423.5561010794
 20
263.3023788376
 30
0.0
 11
419.9326411505
 21
249.7794422837
 31
0.0
  0
LINE
  5
35F
330
146
100
AcDbEntity
  8
DV2_Default
  6
CENTER2
 62
     7
 48
25.4
100
AcDbLine
 10
444.0761753543
 20
263.3023788376
 30
0.0
 11
447.6996352832
 21
249.7794422837
 31
0.0
  0
LINE
  5
360
330
146
100
AcDbEntity
  8
DV2_Default
  6
CENTER2
 62
     7
 48
25.4
100
AcDbLine
 10
395.5865373178
 20
311.83694941
 30
0.0
 11
382.063924155
 21
315.4603226865
 31
0.0
  0
LINE
  5
361
330
146
100
AcDbEntity
  8
DV2_Default
  6
CENTER2
 62
     7
 48
25.4
100
AcDbLine
 10
405.8466769665
 20
329.5628199725
 30
0.0
 11
395.9473187101
 21
339.4621782288
 31
0.0
  0
LINE
  5
362
330
146
100
AcDbEntity
  8
DV2_Default
  6
CENTER2
 62
     7
 48
25.4
100
AcDbLine
 10
461.7855994672
 20
329.5628199725
 30
0.0
 11
471.6849577235
 21
339.4621782288
 31
0.0
  0
LINE
  5
363
330
146
100
AcDbEntity
  8
DV2_Default
  6
CENTER2
 62
     7
 48
25.4
100
AcDbLine
 10
472.0457391159
 20
311.83694941
 30
0.0
 11
485.5683522787
 21
315.4603226865
 31
0.0
  0
LINE
  5
364
330
146
100
AcDbEntity
  8
DV2_Default
  6
Continuous
 62
     7
 48
25.4
100
AcDbLine
 10
453.5089408182
 20
314.7130036051
 30
0.0
 11
455.0244852748
 21
315.5880036051
 31
0.0
  0
LINE
  5
365
330
146
100
AcDbEntity
  8
DV2_Default
  6
Continuous
 62
     7
 48
25.4
100
AcDbLine
 10
455.0244852748
 20
315.5880036051
 30
0.0
 11
456.5400297314
 21
314.7130036051
 31
0.0
  0
LINE
  5
366
330
146
100
AcDbEntity
  8
DV2_Default
  6
Continuous
 62
     7
 48
25.4
100
AcDbLine
 10
456.5400297314
 20
314.7130036051
 30
0.0
 11
456.5400297314
 21
312.9630036051
 31
0.0
  0
LINE
  5
367
330
146
100
AcDbEntity
  8
DV2_Default
  6
Continuous
 62
     7
 48
25.4
100
AcDbLine
 10
456.5400297314
 20
312.9630036051
 30
0.0
 11
455.0244852748
 21
312.0880036051
 31
0.0
  0
LINE
  5
368
330
146
100
AcDbEntity
  8
DV2_Default
  6
Continuous
 62
     7
 48
25.4
100
AcDbLine
 10
455.0244852748
 20
312.0880036051
 30
0.0
 11
453.5089408182
 21
312.9630036051
 31
0.0
  0
LINE
  5
369
330
146
100
AcDbEntity
  8
DV2_Default
  6
Continuous
 62
     7
 48
25.4
100
AcDbLine
 10
453.5089408182
 20
312.9630036051
 30
0.0
 11
453.5089408182
 21
314.7130036051
 31
0.0
  0
CIRCLE
  5
36A
330
146
100
AcDbEntity
  8
DV2_Default
  6
Continuous
 62
     7
 48
25.4
100
AcDbCircle
 10
455.0219373553
 20
313.8365325631
 30
0.0
 40
3.78
  0
CIRCLE
  5
36B
330
146
100
AcDbEntity
  8
DV2_Default
  6
Continuous
 62
     7
 48
25.4
100
AcDbCircle
 10
455.0219373553
 20
313.8365325631
 30
0.0
 40
3.5
  0
ARC
  5
36C
330
146
100
AcDbEntity
  8
DV2_Default
  6
CENTER2
 62
     7
 48
25.4
100
AcDbCircle
 10
433.8161382168
 20
301.5933587221
 30
0.0
 40
24.4863476819985
100
AcDbArc
 50
21.1463449906
 51
38.8536550094
  0
LINE
  5
36D
330
146
100
AcDbEntity
  8
DV2_Default
  6
Continuous
 62
     7
 48
25.4
100
AcDbLine
 10
412.6077911589
 20
312.0880036051
 30
0.0
 11
411.0922467022
 21
312.9630036051
 31
0.0
  0
LINE
  5
36E
330
146
100
AcDbEntity
  8
DV2_Default
  6
Continuous
 62
     7
 48
25.4
100
AcDbLine
 10
411.0922467022
 20
312.9630036051
 30
0.0
 11
411.0922467022
 21
314.7130036051
 31
0.0
  0
LINE
  5
36F
330
146
100
AcDbEntity
  8
DV2_Default
  6
Continuous
 62
     7
 48
25.4
100
AcDbLine
 10
411.0922467022
 20
314.7130036051
 30
0.0
 11
412.6077911589
 21
315.5880036051
 31
0.0
  0
LINE
  5
370
330
146
100
AcDbEntity
  8
DV2_Default
  6
Continuous
 62
     7
 48
25.4
100
AcDbLine
 10
412.6077911589
 20
315.5880036051
 30
0.0
 11
414.1233356155
 21
314.7130036051
 31
0.0
  0
LINE
  5
371
330
146
100
AcDbEntity
  8
DV2_Default
  6
Continuous
 62
     7
 48
25.4
100
AcDbLine
 10
414.1233356155
 20
314.7130036051
 30
0.0
 11
414.1233356155
 21
312.9630036051
 31
0.0
  0
LINE
  5
372
330
146
100
AcDbEntity
  8
DV2_Default
  6
Continuous
 62
     7
 48
25.4
100
AcDbLine
 10
414.1233356155
 20
312.9630036051
 30
0.0
 11
412.6077911589
 21
312.0880036051
 31
0.0
  0
CIRCLE
  5
373
330
146
100
AcDbEntity
  8
DV2_Default
  6
Continuous
 62
     7
 48
25.4
100
AcDbCircle
 10
412.6103390783
 20
313.8365325631
 30
0.0
 40
3.78
  0
CIRCLE
  5
374
330
146
100
AcDbEntity
  8
DV2_Default
  6
Continuous
 62
     7
 48
25.4
100
AcDbCircle
 10
412.6103390783
 20
313.8365325631
 30
0.0
 40
3.5
  0
ARC
  5
375
330
146
100
AcDbEntity
  8
DV2_Default
  6
CENTER2
 62
     7
 48
25.4
100
AcDbCircle
 10
433.8161382168
 20
301.5933587221
 30
0.0
 40
24.4863476819985
100
AcDbArc
 50
141.1463449906
 51
158.8536550094
  0
LINE
  5
376
330
146
100
AcDbEntity
  8
DV2_Default
  6
CENTER2
 62
     7
 48
25.4
100
AcDbLine
 10
415.8839151046
 20
311.9465325631
 30
0.0
 11
408.9837652023
 21
315.9303359667
 31
0.0
  0
LINE
  5
377
330
146
100
AcDbEntity
  8
DV2_Default
  6
CENTER2
 62
     7
 48
25.4
100
AcDbLine
 10
451.748361329
 20
311.9465325631
 30
0.0
 11
458.6485112313
 21
315.9303359667
 31
0.0
  0
ARC
  5
378
330
146
100
AcDbEntity
  8
DV2_Default
  6
Continuous
 62
     7
 48
25.4
100
AcDbCircle
 10
407.2832913001
 20
286.2226793653
 30
0.0
 40
5.249999999999997
100
AcDbArc
 50
300.0
 51
119.7412442615
  0
LINE
  5
379
330
146
100
AcDbEntity
  8
DV2_Default
  6
Continuous
 62
     7
 48
25.4
100
AcDbLine
 10
403.84616907
 20
278.176078094
 30
0.0
 11
404.3008324069
 21
278.438578094
 31
0.0
  0
LINE
  5
37A
330
146
100
AcDbEntity
  8
DV2_Default
  6
Continuous
 62
     7
 48
25.4
100
AcDbLine
 10
404.3008324069
 20
278.438578094
 30
0.0
 11
404.7554957439
 21
278.701078094
 31
0.0
  0
LINE
  5
37B
330
146
100
AcDbEntity
  8
DV2_Default
  6
Continuous
 62
     7
 48
25.4
100
AcDbLine
 10
404.7554957439
 20
278.701078094
 30
0.0
 11
405.2101590809
 21
278.963578094
 31
0.0
  0
LINE
  5
37C
330
146
100
AcDbEntity
  8
DV2_Default
  6
Continuous
 62
     7
 48
25.4
100
AcDbLine
 10
405.2101590809
 20
278.963578094
 30
0.0
 11
405.6648224179
 21
279.226078094
 31
0.0
  0
LINE
  5
37D
330
146
100
AcDbEntity
  8
DV2_Default
  6
Continuous
 62
     7
 48
25.4
100
AcDbLine
 10
405.6648224179
 20
279.226078094
 30
0.0
 11
406.1194857549
 21
279.488578094
 31
0.0
  0
LINE
  5
37E
330
146
100
AcDbEntity
  8
DV2_Default
  6
Continuous
 62
     7
 48
25.4
100
AcDbLine
 10
406.1194857549
 20
279.488578094
 30
0.0
 11
406.5741490919
 21
279.751078094
 31
0.0
  0
LINE
  5
37F
330
146
100
AcDbEntity
  8
DV2_Default
  6
Continuous
 62
     7
 48
25.4
100
AcDbLine
 10
406.5741490919
 20
279.751078094
 30
0.0
 11
407.0288124289
 21
280.013578094
 31
0.0
  0
LINE
  5
380
330
146
100
AcDbEntity
  8
DV2_Default
  6
Continuous
 62
     7
 48
25.4
100
AcDbLine
 10
407.0288124289
 20
280.013578094
 30
0.0
 11
407.4834757659
 21
280.276078094
 31
0.0
  0
LINE
  5
381
330
146
100
AcDbEntity
  8
DV2_Default
  6
Continuous
 62
     7
 48
25.4
100
AcDbLine
 10
407.4834757659
 20
280.276078094
 30
0.0
 11
407.9381391028
 21
280.538578094
 31
0.0
  0
LINE
  5
382
330
146
100
AcDbEntity
  8
DV2_Default
  6
Continuous
 62
     7
 48
25.4
100
AcDbLine
 10
407.9381391028
 20
280.538578094
 30
0.0
 11
408.3928024398
 21
280.801078094
 31
0.0
  0
LINE
  5
383
330
146
100
AcDbEntity
  8
DV2_Default
  6
Continuous
 62
     7
 48
25.4
100
AcDbLine
 10
408.3928024398
 20
280.801078094
 30
0.0
 11
408.8474657768
 21
281.063578094
 31
0.0
  0
LINE
  5
384
330
146
100
AcDbEntity
  8
DV2_Default
  6
Continuous
 62
     7
 48
25.4
100
AcDbLine
 10
408.8474657768
 20
281.063578094
 30
0.0
 11
409.3021291138
 21
281.326078094
 31
0.0
  0
LINE
  5
385
330
146
100
AcDbEntity
  8
DV2_Default
  6
Continuous
 62
     7
 48
25.4
100
AcDbLine
 10
404.0521558829
 20
290.4192984684
 30
0.0
 11
403.5974925459
 21
290.1567984684
 31
0.0
  0
LINE
  5
386
330
146
100
AcDbEntity
  8
DV2_Default
  6
Continuous
 62
     7
 48
25.4
100
AcDbLine
 10
409.3021291138
 20
281.326078094
 30
0.0
 11
409.7567924508
 21
281.588578094
 31
0.0
  0
LINE
  5
387
330
146
100
AcDbEntity
  8
DV2_Default
  6
Continuous
 62
     7
 48
25.4
100
AcDbLine
 10
404.5068192199
 20
290.6817984684
 30
0.0
 11
404.0521558829
 21
290.4192984684
 31
0.0
  0
LINE
  5
388
330
146
100
AcDbEntity
  8
DV2_Default
  6
Continuous
 62
     7
 48
25.4
100
AcDbLine
 10
409.7567924508
 20
281.588578094
 30
0.0
 11
410.2114557878
 21
281.851078094
 31
0.0
  0
LINE
  5
389
330
146
100
AcDbEntity
  8
DV2_Default
  6
Continuous
 62
     7
 48
25.4
100
AcDbLine
 10
404.9614825568
 20
290.9442984684
 30
0.0
 11
404.5068192199
 21
290.6817984684
 31
0.0
  0
LINE
  5
38A
330
146
100
AcDbEntity
  8
DV2_Default
  6
Continuous
 62
     7
 48
25.4
100
AcDbLine
 10
412.6416834065
 20
283.94167199
 30
0.0
 11
416.7893802133
 21
276.7576503863
 31
0.0
  0
LINE
  5
38B
330
146
100
AcDbEntity
  8
DV2_Default
  6
Continuous
 62
     7
 48
25.4
100
AcDbLine
 10
403.8394179969
 20
299.1876429012
 30
0.0
 11
407.9871037892
 21
292.0036403752
 31
0.0
  0
LINE
  5
38C
330
146
100
AcDbEntity
  8
DV2_Default
  6
Continuous
 62
     7
 48
25.4
100
AcDbLine
 10
407.8609567093
 20
281.7064523836
 30
0.0
 11
403.6609567093
 21
288.9810657754
 31
0.0
  0
LINE
  5
38D
330
146
100
AcDbEntity
  8
DV2_Default
  6
Continuous
 62
     7
 48
25.4
100
AcDbLine
 10
407.2951337829
 20
280.2481678371
 30
0.0
 11
407.4567974762
 21
280.6648205647
 31
0.0
  0
LINE
  5
38E
330
146
100
AcDbEntity
  8
DV2_Default
  6
Continuous
 62
     7
 48
25.4
100
AcDbLine
 10
407.2547178596
 20
280.1440046552
 30
0.0
 11
407.2951337829
 21
280.2481678371
 31
0.0
  0
LINE
  5
38F
330
146
100
AcDbEntity
  8
DV2_Default
  6
Continuous
 62
     7
 48
25.4
100
AcDbLine
 10
407.5376293228
 20
280.8731469285
 30
0.0
 11
407.8609567093
 21
281.7064523836
 31
0.0
  0
LINE
  5
390
330
146
100
AcDbEntity
  8
DV2_Default
  6
Continuous
 62
     7
 48
25.4
100
AcDbLine
 10
407.4567974762
 20
280.6648205647
 30
0.0
 11
407.5376293228
 21
280.8731469285
 31
0.0
  0
ARC
  5
391
330
146
100
AcDbEntity
  8
DV2_Default
  6
Continuous
 62
     7
 48
25.4
100
AcDbCircle
 10
407.8877772176
 20
286.5716485622
 30
0.0
 40
5.432899853990087
100
AcDbArc
 50
285.0896995288
 51
134.9103004712
  0
LINE
  5
392
330
146
100
AcDbEntity
  8
DV2_Default
  6
CENTER2
 62
     7
 48
25.4
100
AcDbLine
 10
352.1012696513
 20
301.6187821269
 30
0.0
 11
514.9555499615
 21
301.6187821269
 31
0.0
  0
LINE
  5
393
330
146
100
AcDbEntity
  8
DV2_Default
  6
CENTER2
 62
     7
 48
25.4
100
AcDbLine
 10
433.8161382168
 20
301.5933587221
 30
0.0
 11
364.1485887663
 21
261.3707802931
 31
0.0
  0
LINE
  5
394
330
146
100
AcDbEntity
  8
DV2_Default
  6
CENTER2
 62
     7
 48
25.4
100
AcDbLine
 10
433.8161382168
 20
301.5933587221
 30
0.0
 11
502.1892621395
 21
262.1181172201
 31
0.0
  0
LINE
  5
395
330
146
100
AcDbEntity
  8
DV2_Default
  6
Continuous
 62
     7
 48
25.4
100
AcDbLine
 10
431.7165905975
 20
362.1920152718
 30
0.0
 11
429.6166029818
 21
358.5547333346
 31
0.0
  0
LINE
  5
396
330
146
100
AcDbEntity
  8
DV2_Default
  6
Continuous
 62
     7
 48
25.4
100
AcDbLine
 10
429.6166029818
 20
358.5547333346
 30
0.0
 11
431.7166029818
 21
354.9174266387
 31
0.0
  0
LINE
  5
397
330
146
100
AcDbEntity
  8
DV2_Default
  6
Continuous
 62
     7
 48
25.4
100
AcDbLine
 10
431.7165905975
 20
362.1920152718
 30
0.0
 11
433.8165905975
 21
362.1920152718
 31
0.0
  0
LINE
  5
398
330
146
100
AcDbEntity
  8
DV2_Default
  6
Continuous
 62
     7
 48
25.4
100
AcDbLine
 10
431.7166029818
 20
354.9174266387
 30
0.0
 11
433.8166029818
 21
354.9174266387
 31
0.0
  0
LINE
  5
399
330
146
100
AcDbEntity
  8
DV2_Default
  6
Continuous
 62
     7
 48
25.4
100
AcDbLine
 10
435.9156858362
 20
362.1920152718
 30
0.0
 11
438.0156734519
 21
358.5547333346
 31
0.0
  0
LINE
  5
39A
330
146
100
AcDbEntity
  8
DV2_Default
  6
Continuous
 62
     7
 48
25.4
100
AcDbLine
 10
438.0156734519
 20
358.5547333346
 30
0.0
 11
435.9156734519
 21
354.9174266387
 31
0.0
  0
LINE
  5
39B
330
146
100
AcDbEntity
  8
DV2_Default
  6
Continuous
 62
     7
 48
25.4
100
AcDbLine
 10
435.9156858362
 20
362.1920152718
 30
0.0
 11
433.8156858362
 21
362.1920152718
 31
0.0
  0
LINE
  5
39C
330
146
100
AcDbEntity
  8
DV2_Default
  6
Continuous
 62
     7
 48
25.4
100
AcDbLine
 10
435.9156734519
 20
354.9174266387
 30
0.0
 11
433.8156734519
 21
354.9174266387
 31
0.0
  0
LINE
  5
39D
330
146
100
AcDbEntity
  8
DV2_Default
  6
Continuous
 62
     7
 48
25.4
100
AcDbLine
 10
431.7165905975
 20
337.3963664264
 30
0.0
 11
429.6166029818
 21
341.0336483636
 31
0.0
  0
LINE
  5
39E
330
146
100
AcDbEntity
  8
DV2_Default
  6
Continuous
 62
     7
 48
25.4
100
AcDbLine
 10
429.6166029818
 20
341.0336483636
 30
0.0
 11
431.7166029818
 21
344.6709550595
 31
0.0
  0
LINE
  5
39F
330
146
100
AcDbEntity
  8
DV2_Default
  6
Continuous
 62
     7
 48
25.4
100
AcDbLine
 10
431.7165905975
 20
337.3963664264
 30
0.0
 11
433.8165905975
 21
337.3963664264
 31
0.0
  0
LINE
  5
3A0
330
146
100
AcDbEntity
  8
DV2_Default
  6
Continuous
 62
     7
 48
25.4
100
AcDbLine
 10
431.7166029818
 20
344.6709550595
 30
0.0
 11
433.8166029818
 21
344.6709550595
 31
0.0
  0
LINE
  5
3A1
330
146
100
AcDbEntity
  8
DV2_Default
  6
Continuous
 62
     7
 48
25.4
100
AcDbLine
 10
435.9156858362
 20
337.3963664264
 30
0.0
 11
438.0156734519
 21
341.0336483636
 31
0.0
  0
LINE
  5
3A2
330
146
100
AcDbEntity
  8
DV2_Default
  6
Continuous
 62
     7
 48
25.4
100
AcDbLine
 10
438.0156734519
 20
341.0336483636
 30
0.0
 11
435.9156734519
 21
344.6709550595
 31
0.0
  0
LINE
  5
3A3
330
146
100
AcDbEntity
  8
DV2_Default
  6
Continuous
 62
     7
 48
25.4
100
AcDbLine
 10
435.9156858362
 20
337.3963664264
 30
0.0
 11
433.8156858362
 21
337.3963664264
 31
0.0
  0
LINE
  5
3A4
330
146
100
AcDbEntity
  8
DV2_Default
  6
Continuous
 62
     7
 48
25.4
100
AcDbLine
 10
435.9156734519
 20
344.6709550595
 30
0.0
 11
433.8156734519
 21
344.6709550595
 31
0.0
  0
ENDBLK
  5
3A6
330
146
100
AcDbEntity
  8
0
100
AcDbBlockEnd
  0
BLOCK
  5
443
330
3A7
100
AcDbEntity
  8
0
100
AcDbBlockBegin
  2
SE2
 70
     0
 71
     0
 10
0.0
 20
0.0
 30
0.0
  3
SE2
  1

  0
LINE
  5
3AA
330
3A7
100
AcDbEntity
  8
DV3_Default
  6
Continuous
 62
     7
 48
25.4
100
AcDbLine
 10
198.1801713379
 20
147.7626158171
 30
0.0
 11
198.1801713379
 21
157.9126158171
 31
0.0
  0
LINE
  5
3AB
330
3A7
100
AcDbEntity
  8
DV3_Default
  6
Continuous
 62
     7
 48
25.4
100
AcDbLine
 10
200.2801713379
 20
160.0126158171
 30
0.0
 11
203.7801713379
 21
160.0126158171
 31
0.0
  0
LINE
  5
3AC
330
3A7
100
AcDbEntity
  8
DV3_Default
  6
Continuous
 62
     7
 48
25.4
100
AcDbLine
 10
198.1801713379
 20
147.7626158171
 30
0.0
 11
200.2801713379
 21
145.6626158171
 31
0.0
  0
LINE
  5
3AD
330
3A7
100
AcDbEntity
  8
DV3_Default
  6
Continuous
 62
     7
 48
25.4
100
AcDbLine
 10
200.2801713379
 20
160.0126158171
 30
0.0
 11
198.1801713379
 21
157.9126158171
 31
0.0
  0
LINE
  5
3AE
330
3A7
100
AcDbEntity
  8
DV3_Default
  6
Continuous
 62
     7
 48
25.4
100
AcDbLine
 10
204.1301713379
 20
147.6576158171
 30
0.0
 11
204.1301713379
 21
146.0126158171
 31
0.0
  0
ARC
  5
3AF
330
3A7
100
AcDbEntity
  8
DV3_Default
  6
Continuous
 62
     7
 48
25.4
100
AcDbCircle
 10
204.4101713379
 20
147.6576158171
 30
0.0
 40
0.2800000000000008
100
AcDbArc
 50
90.0
 51
180.0
  0
LINE
  5
3B0
330
3A7
100
AcDbEntity
  8
DV3_Default
  6
Continuous
 62
     7
 48
25.4
100
AcDbLine
 10
204.4101713379
 20
157.7376158171
 30
0.0
 11
212.3901713379
 21
157.7376158171
 31
0.0
  0
ARC
  5
3B1
330
3A7
100
AcDbEntity
  8
DV3_Default
  6
Continuous
 62
     7
 48
25.4
100
AcDbCircle
 10
204.4101713379
 20
158.0176158171
 30
0.0
 40
0.2800000000000008
100
AcDbArc
 50
180.0
 51
270.0
  0
LINE
  5
3B2
330
3A7
100
AcDbEntity
  8
DV3_Default
  6
Continuous
 62
     7
 48
25.4
100
AcDbLine
 10
204.1301713379
 20
159.6626158171
 30
0.0
 11
204.1301713379
 21
158.0176158171
 31
0.0
  0
LINE
  5
3B3
330
3A7
100
AcDbEntity
  8
DV3_Default
  6
Continuous
 62
     7
 48
25.4
100
AcDbLine
 10
203.7801713379
 20
145.6626158171
 30
0.0
 11
200.2801713379
 21
145.6626158171
 31
0.0
  0
LINE
  5
3B4
330
3A7
100
AcDbEntity
  8
DV3_Default
  6
Continuous
 62
     7
 48
25.4
100
AcDbLine
 10
203.7801713379
 20
145.6626158171
 30
0.0
 11
204.1301713379
 21
146.0126158171
 31
0.0
  0
LINE
  5
3B5
330
3A7
100
AcDbEntity
  8
DV3_Default
  6
Continuous
 62
     7
 48
25.4
100
AcDbLine
 10
204.1301713379
 20
159.6626158171
 30
0.0
 11
203.7801713379
 21
160.0126158171
 31
0.0
  0
LINE
  5
3B6
330
3A7
100
AcDbEntity
  8
DV3_Default
  6
Continuous
 62
     7
 48
25.4
100
AcDbLine
 10
212.3901713379
 20
147.9376158171
 30
0.0
 11
204.4101713379
 21
147.9376158171
 31
0.0
  0
LINE
  5
3B7
330
3A7
100
AcDbEntity
  8
DV3_Default
  6
Continuous
 62
     7
 48
25.4
100
AcDbLine
 10
212.3901713379
 20
147.9376158171
 30
0.0
 11
212.3901713379
 21
157.7376158171
 31
0.0
  0
LINE
  5
3B8
330
3A7
100
AcDbEntity
  8
DV3_Default
  6
Continuous
 62
     7
 48
25.4
100
AcDbLine
 10
204.1301713379
 20
159.6626158171
 30
0.0
 11
200.3119107775
 21
159.6626158171
 31
0.0
  0
LINE
  5
3B9
330
3A7
100
AcDbEntity
  8
DV3_Default
  6
Continuous
 62
     7
 48
25.4
100
AcDbLine
 10
200.3041143867
 20
159.6704122078
 30
0.0
 11
198.3804492862
 21
157.7467471073
 31
0.0
  0
LINE
  5
3BA
330
3A7
100
AcDbEntity
  8
DV3_Default
  6
Continuous
 62
     7
 48
25.4
100
AcDbLine
 10
204.1301713379
 20
146.0126158171
 30
0.0
 11
200.3119107775
 21
146.0126158171
 31
0.0
  0
LINE
  5
3BB
330
3A7
100
AcDbEntity
  8
DV3_Default
  6
Continuous
 62
     7
 48
25.4
100
AcDbLine
 10
198.3804492862
 20
147.9553103809
 30
0.0
 11
198.3804492862
 21
157.7467471073
 31
0.0
  0
LINE
  5
3BC
330
3A7
100
AcDbEntity
  8
DV3_Default
  6
Continuous
 62
     7
 48
25.4
100
AcDbLine
 10
198.3804492862
 20
147.9553103809
 30
0.0
 11
200.3119107775
 21
146.0126158171
 31
0.0
  0
LINE
  5
3BD
330
3A7
100
AcDbEntity
  8
DV3_Default
  6
Continuous
 62
     7
 48
25.4
100
AcDbLine
 10
212.3901713379
 20
157.7376158171
 30
0.0
 11
210.2901713379
 21
157.7376158171
 31
0.0
  0
LINE
  5
3BE
330
3A7
100
AcDbEntity
  8
DV3_Default
  6
CENTER2
 62
     7
 48
25.4
100
AcDbLine
 10
214.8401706454
 20
152.8357737596
 30
0.0
 11
193.626891617
 21
152.8517231843
 31
0.0
  0
LINE
  5
3BF
330
3A7
100
AcDbEntity
  8
DV3_Default
  6
Continuous
 62
     7
 48
25.4
100
AcDbLine
 10
210.2901713379
 20
157.7376158171
 30
0.0
 11
210.2901713379
 21
164.3826306086
 31
0.0
  0
LINE
  5
3C0
330
3A7
100
AcDbEntity
  8
DV3_Default
  6
Continuous
 62
     7
 48
25.4
100
AcDbLine
 10
208.8901713379
 20
165.7826306086
 30
0.0
 11
200.4232002146
 21
165.7826306086
 31
0.0
  0
LINE
  5
3C1
330
3A7
100
AcDbEntity
  8
DV3_Default
  6
Continuous
 62
     7
 48
25.4
100
AcDbLine
 10
210.2901713379
 20
147.9376158171
 30
0.0
 11
210.2901713379
 21
141.2826306086
 31
0.0
  0
LINE
  5
3C2
330
3A7
100
AcDbEntity
  8
DV3_Default
  6
Continuous
 62
     7
 48
25.4
100
AcDbLine
 10
200.4232002146
 20
139.9050566533
 30
0.0
 11
208.8869966107
 21
139.9050566533
 31
0.0
  0
LINE
  5
3C3
330
3A7
100
AcDbEntity
  8
DV3_Default
  6
Continuous
 62
     7
 48
25.4
100
AcDbLine
 10
208.8901713379
 20
165.7826306086
 30
0.0
 11
210.2901713379
 21
164.3826306086
 31
0.0
  0
LINE
  5
3C4
330
3A7
100
AcDbEntity
  8
DV3_Default
  6
Continuous
 62
     7
 48
25.4
100
AcDbLine
 10
208.8869966107
 20
139.8858198
 30
0.0
 11
210.2901713379
 21
141.2826306086
 31
0.0
  0
LINE
  5
3C5
330
3A7
100
AcDbEntity
  8
DV3_Default
  6
Continuous
 62
     7
 48
25.4
100
AcDbLine
 10
208.8901713379
 20
165.7826306086
 30
0.0
 11
208.8901713379
 21
174.1826306086
 31
0.0
  0
LINE
  5
3C6
330
3A7
100
AcDbEntity
  8
DV3_Default
  6
Continuous
 62
     7
 48
25.4
100
AcDbLine
 10
408.7179722328
 20
143.7845490664
 30
0.0
 11
268.7179722328
 21
143.7845490664
 31
0.0
  0
LINE
  5
3C7
330
3A7
100
AcDbEntity
  8
DV3_Default
  6
Continuous
 62
     7
 48
25.4
100
AcDbLine
 10
408.7179722328
 20
143.7845490664
 30
0.0
 11
408.7179722328
 21
36.6845490664
 31
0.0
  0
LINE
  5
3C8
330
3A7
100
AcDbEntity
  8
DV3_Default
  6
Continuous
 62
     7
 48
25.4
100
AcDbLine
 10
408.7179722328
 20
36.6845490664
 30
0.0
 11
268.7179722328
 21
36.6845490664
 31
0.0
  0
LINE
  5
3C9
330
3A7
100
AcDbEntity
  8
DV3_Default
  6
Continuous
 62
     7
 48
25.4
100
AcDbLine
 10
268.7179722328
 20
36.6845490664
 30
0.0
 11
268.7179722328
 21
143.7845490664
 31
0.0
  0
LINE
  5
3CA
330
3A7
100
AcDbEntity
  8
DV3_Default
  6
Continuous
 62
     7
 48
25.4
100
AcDbLine
 10
296.7179722328
 20
143.7845490664
 30
0.0
 11
296.7179722328
 21
36.6845490664
 31
0.0
  0
LINE
  5
3CB
330
3A7
100
AcDbEntity
  8
DV3_Default
  6
Continuous
 62
     7
 48
25.4
100
AcDbLine
 10
324.7179722328
 20
36.6845490664
 30
0.0
 11
324.7179722328
 21
143.7845490664
 31
0.0
  0
LINE
  5
3CC
330
3A7
100
AcDbEntity
  8
DV3_Default
  6
Continuous
 62
     7
 48
25.4
100
AcDbLine
 10
352.7179722328
 20
143.7845490664
 30
0.0
 11
352.7179722328
 21
36.6845490664
 31
0.0
  0
LINE
  5
3CD
330
3A7
100
AcDbEntity
  8
DV3_Default
  6
Continuous
 62
     7
 48
25.4
100
AcDbLine
 10
380.7179722328
 20
36.6845490664
 30
0.0
 11
380.7179722328
 21
143.7845490664
 31
0.0
  0
LINE
  5
3CE
330
3A7
100
AcDbEntity
  8
DV3_Default
  6
Continuous
 62
     7
 48
25.4
100
AcDbLine
 10
268.7179722328
 20
36.6845490664
 30
0.0
 11
268.7179722328
 21
48.5845490664
 31
0.0
  0
LINE
  5
3CF
330
3A7
100
AcDbEntity
  8
DV3_Default
  6
Continuous
 62
     7
 48
25.4
100
AcDbLine
 10
268.7179722328
 20
48.5845490664
 30
0.0
 11
408.7179722328
 21
48.5845490664
 31
0.0
  0
LINE
  5
3D0
330
3A7
100
AcDbEntity
  8
DV3_Default
  6
Continuous
 62
     7
 48
25.4
100
AcDbLine
 10
408.7179722328
 20
48.5845490664
 30
0.0
 11
408.7179722328
 21
60.4845490664
 31
0.0
  0
LINE
  5
3D1
330
3A7
100
AcDbEntity
  8
DV3_Default
  6
Continuous
 62
     7
 48
25.4
100
AcDbLine
 10
408.7179722328
 20
60.4845490664
 30
0.0
 11
268.7179722328
 21
60.4845490664
 31
0.0
  0
LINE
  5
3D2
330
3A7
100
AcDbEntity
  8
DV3_Default
  6
Continuous
 62
     7
 48
25.4
100
AcDbLine
 10
268.7179722328
 20
60.4845490664
 30
0.0
 11
268.7179722328
 21
72.3845490664
 31
0.0
  0
LINE
  5
3D3
330
3A7
100
AcDbEntity
  8
DV3_Default
  6
Continuous
 62
     7
 48
25.4
100
AcDbLine
 10
268.7179722328
 20
72.3845490664
 30
0.0
 11
408.7179722328
 21
72.3845490664
 31
0.0
  0
LINE
  5
3D4
330
3A7
100
AcDbEntity
  8
DV3_Default
  6
Continuous
 62
     7
 48
25.4
100
AcDbLine
 10
408.7179722328
 20
72.3845490664
 30
0.0
 11
408.7179722328
 21
84.2845490664
 31
0.0
  0
LINE
  5
3D5
330
3A7
100
AcDbEntity
  8
DV3_Default
  6
Continuous
 62
     7
 48
25.4
100
AcDbLine
 10
408.7179722328
 20
84.2845490664
 30
0.0
 11
268.7179722328
 21
84.2845490664
 31
0.0
  0
LINE
  5
3D6
330
3A7
100
AcDbEntity
  8
DV3_Default
  6
Continuous
 62
     7
 48
25.4
100
AcDbLine
 10
268.7179722328
 20
84.2845490664
 30
0.0
 11
268.7179722328
 21
96.1845490664
 31
0.0
  0
LINE
  5
3D7
330
3A7
100
AcDbEntity
  8
DV3_Default
  6
Continuous
 62
     7
 48
25.4
100
AcDbLine
 10
268.7179722328
 20
96.1845490664
 30
0.0
 11
408.7179722328
 21
96.1845490664
 31
0.0
  0
LINE
  5
3D8
330
3A7
100
AcDbEntity
  8
DV3_Default
  6
Continuous
 62
     7
 48
25.4
100
AcDbLine
 10
408.7179722328
 20
96.1845490664
 30
0.0
 11
408.7179722328
 21
108.0845490664
 31
0.0
  0
LINE
  5
3D9
330
3A7
100
AcDbEntity
  8
DV3_Default
  6
Continuous
 62
     7
 48
25.4
100
AcDbLine
 10
408.7179722328
 20
108.0845490664
 30
0.0
 11
268.7179722328
 21
108.0845490664
 31
0.0
  0
LINE
  5
3DA
330
3A7
100
AcDbEntity
  8
DV3_Default
  6
Continuous
 62
     7
 48
25.4
100
AcDbLine
 10
268.7179722328
 20
108.0845490664
 30
0.0
 11
268.7179722328
 21
119.9845490664
 31
0.0
  0
LINE
  5
3DB
330
3A7
100
AcDbEntity
  8
DV3_Default
  6
Continuous
 62
     7
 48
25.4
100
AcDbLine
 10
268.7179722328
 20
119.9845490664
 30
0.0
 11
408.7179722328
 21
119.9845490664
 31
0.0
  0
LINE
  5
3DC
330
3A7
100
AcDbEntity
  8
DV3_Default
  6
Continuous
 62
     7
 48
25.4
100
AcDbLine
 10
408.7179722328
 20
119.9845490664
 30
0.0
 11
408.7179722328
 21
131.8845490664
 31
0.0
  0
LINE
  5
3DD
330
3A7
100
AcDbEntity
  8
DV3_Default
  6
Continuous
 62
     7
 48
25.4
100
AcDbLine
 10
408.7179722328
 20
131.8845490664
 30
0.0
 11
268.7179722328
 21
131.8845490664
 31
0.0
  0
TEXT
  5
3DE
330
3A7
100
AcDbEntity
  8
DV3_Default
  6
Continuous
 62
     7
 48
25.4
100
AcDbText
 10
267.0779477658
 20
31.0639171415
 30
0.0
 40
3.5
  1
0
  7
SEACAD_arial_ttf
 11
267.0779477658
 21
34.5639171415
 31
0.0
100
AcDbText
 73
     3
  0
TEXT
  5
3DF
330
3A7
100
AcDbEntity
  8
DV3_Default
  6
Continuous
 62
     7
 48
25.4
100
AcDbText
 10
291.057701957
 20
30.6238810992
 30
0.0
 40
3.5
  1
1000
  7
SEACAD_arial_ttf
 11
291.057701957
 21
34.1238810992
 31
0.0
100
AcDbText
 73
     3
  0
TEXT
  5
3E0
330
3A7
100
AcDbEntity
  8
DV3_Default
  6
Continuous
 62
     7
 48
25.4
100
AcDbText
 10
319.6111064901
 20
30.6358285847
 30
0.0
 40
3.5
  1
2000
  7
SEACAD_arial_ttf
 11
319.6111064901
 21
34.1358285847
 31
0.0
100
AcDbText
 73
     3
  0
TEXT
  5
3E1
330
3A7
100
AcDbEntity
  8
DV3_Default
  6
Continuous
 62
     7
 48
25.4
100
AcDbText
 10
347.8430178449
 20
30.5612550413
 30
0.0
 40
3.5
  1
3000
  7
SEACAD_arial_ttf
 11
347.8430178449
 21
34.0612550413
 31
0.0
100
AcDbText
 73
     3
  0
TEXT
  5
3E2
330
3A7
100
AcDbEntity
  8
DV3_Default
  6
Continuous
 62
     7
 48
25.4
100
AcDbText
 10
375.7976675581
 20
29.9474658686
 30
0.0
 40
3.5
  1
4000
  7
SEACAD_arial_ttf
 11
375.7976675581
 21
33.4474658686
 31
0.0
100
AcDbText
 73
     3
  0
TEXT
  5
3E3
330
3A7
100
AcDbEntity
  8
DV3_Default
  6
Continuous
 62
     7
 48
25.4
100
AcDbText
 10
403.6516858658
 20
30.6113735668
 30
0.0
 40
3.5
  1
5000
  7
SEACAD_arial_ttf
 11
403.6516858658
 21
34.1113735668
 31
0.0
100
AcDbText
 73
     3
  0
TEXT
  5
3E4
330
3A7
100
AcDbEntity
  8
DV3_Default
  6
Continuous
 62
     7
 48
25.4
100
AcDbText
 10
262.5716984761
 20
46.9015403342
 30
0.0
 40
3.5
  1
10
  7
SEACAD_arial_ttf
 11
262.5716984761
 21
50.4015403342
 31
0.0
100
AcDbText
 73
     3
  0
TEXT
  5
3E5
330
3A7
100
AcDbEntity
  8
DV3_Default
  6
Continuous
 62
     7
 48
25.4
100
AcDbText
 10
262.9399549099
 20
58.2034606946
 30
0.0
 40
3.5
  1
20
  7
SEACAD_arial_ttf
 11
262.9399549099
 21
61.7034606946
 31
0.0
100
AcDbText
 73
     3
  0
TEXT
  5
3E6
330
3A7
100
AcDbEntity
  8
DV3_Default
  6
Continuous
 62
     7
 48
25.4
100
AcDbText
 10
262.437473502
 20
69.8437102505
 30
0.0
 40
3.5
  1
30
  7
SEACAD_arial_ttf
 11
262.437473502
 21
73.3437102505
 31
0.0
100
AcDbText
 73
     3
  0
TEXT
  5
3E7
330
3A7
100
AcDbEntity
  8
DV3_Default
  6
Continuous
 62
     7
 48
25.4
100
AcDbText
 10
262.2478075904
 20
81.7051991203
 30
0.0
 40
3.5
  1
40
  7
SEACAD_arial_ttf
 11
262.2478075904
 21
85.2051991203
 31
0.0
100
AcDbText
 73
     3
  0
TEXT
  5
3E8
330
3A7
100
AcDbEntity
  8
DV3_Default
  6
Continuous
 62
     7
 48
25.4
100
AcDbText
 10
262.6480938259
 20
93.4828763292
 30
0.0
 40
3.5
  1
50
  7
SEACAD_arial_ttf
 11
262.6480938259
 21
96.9828763292
 31
0.0
100
AcDbText
 73
     3
  0
TEXT
  5
3E9
330
3A7
100
AcDbEntity
  8
DV3_Default
  6
Continuous
 62
     7
 48
25.4
100
AcDbText
 10
262.5305816267
 20
105.0633676243
 30
0.0
 40
3.5
  1
60
  7
SEACAD_arial_ttf
 11
262.5305816267
 21
108.5633676243
 31
0.0
100
AcDbText
 73
     3
  0
TEXT
  5
3EA
330
3A7
100
AcDbEntity
  8
DV3_Default
  6
Continuous
 62
     7
 48
25.4
100
AcDbText
 10
262.3280959943
 20
117.7819339719
 30
0.0
 40
3.5
  1
70
  7
SEACAD_arial_ttf
 11
262.3280959943
 21
121.2819339719
 31
0.0
100
AcDbText
 73
     3
  0
TEXT
  5
3EB
330
3A7
100
AcDbEntity
  8
DV3_Default
  6
Continuous
 62
     7
 48
25.4
100
AcDbText
 10
262.281541932
 20
129.0889814977
 30
0.0
 40
3.5
  1
80
  7
SEACAD_arial_ttf
 11
262.281541932
 21
132.5889814977
 31
0.0
100
AcDbText
 73
     3
  0
TEXT
  5
3EC
330
3A7
100
AcDbEntity
  8
DV3_Default
  6
Continuous
 62
     7
 48
25.4
100
AcDbText
 10
262.3199613028
 20
141.3316184437
 30
0.0
 40
3.5
  1
90
  7
SEACAD_arial_ttf
 11
262.3199613028
 21
144.8316184437
 31
0.0
100
AcDbText
 73
     3
  0
ARC
  5
3ED
330
3A7
100
AcDbEntity
  8
DV3_Default
  6
Continuous
 62
     7
 48
25.4
100
AcDbCircle
 10
257.0307830814
 20
-58.765991629
 30
0.0
 40
198.8249370396172
100
AcDbArc
 50
40.52463973
 51
86.6301368236
  0
ARC
  5
3EE
330
3A7
100
AcDbEntity
  8
DV3_Default
  6
Continuous
 62
     7
 48
25.4
100
AcDbCircle
 10
104.693321247
 20
819.7969499124
 30
0.0
 40
808.4862860851935
100
AcDbArc
 50
287.4657183381
 51
292.0462296847
  0
ARC
  5
3EF
330
3A7
100
AcDbEntity
  8
DV3_Default
  6
Continuous
 62
     7
 48
25.4
100
AcDbCircle
 10
265.383011237
 20
-80.4232210086
 30
0.0
 40
152.8441577560618
100
AcDbArc
 50
57.5700550899
 51
88.7497438071
  0
ARC
  5
3F0
330
3A7
100
AcDbEntity
  8
DV3_Default
  6
Continuous
 62
     7
 48
25.4
100
AcDbCircle
 10
262.0842653151
 20
-53.0426226373
 30
0.0
 40
185.0461156085761
100
AcDbArc
 50
40.84703778
 51
87.9455668915
  0
ARC
  5
3F1
330
3A7
100
AcDbEntity
  8
DV3_Default
  6
Continuous
 62
     7
 48
25.4
100
AcDbCircle
 10
259.8603984824
 20
-57.3658267172
 30
0.0
 40
182.577015577988
100
AcDbArc
 50
42.1995354928
 51
87.2192508445
  0
ARC
  5
3F2
330
3A7
100
AcDbEntity
  8
DV3_Default
  6
Continuous
 62
     7
 48
25.4
100
AcDbCircle
 10
263.7141516911
 20
-51.581350401
 30
0.0
 40
168.5030080127741
100
AcDbArc
 50
42.6017938367
 51
88.2983095948
  0
ARC
  5
3F3
330
3A7
100
AcDbEntity
  8
DV3_Default
  6
Continuous
 62
     7
 48
25.4
100
AcDbCircle
 10
267.1270448657
 20
-53.5562982172
 30
0.0
 40
161.6486763338011
100
AcDbArc
 50
44.7802247013
 51
89.4360925351
  0
ARC
  5
3F4
330
3A7
100
AcDbEntity
  8
DV3_Default
  6
Continuous
 62
     7
 48
25.4
100
AcDbCircle
 10
268.2004780754
 20
-62.8859638274
 30
0.0
 40
161.3992077264085
100
AcDbArc
 50
48.4592078519
 51
89.8162922708
  0
ARC
  5
3F5
330
3A7
100
AcDbEntity
  8
DV3_Default
  6
Continuous
 62
     7
 48
25.4
100
AcDbCircle
 10
272.1654509019
 20
-57.7015341106
 30
0.0
 40
147.3414721359394
100
AcDbArc
 50
49.9285790964
 51
91.3407223522
  0
ARC
  5
3F6
330
3A7
100
AcDbEntity
  8
DV3_Default
  6
Continuous
 62
     7
 48
25.4
100
AcDbCircle
 10
270.3208982133
 20
-60.8109922803
 30
0.0
 40
141.7614937179533
100
AcDbArc
 50
52.4568614961
 51
90.6478688131
  0
TEXT
  5
3F7
330
3A7
100
AcDbEntity
  8
DV3_Default
  6
Continuous
 62
     7
 48
25.4
100
AcDbText
 10
312.9704464673
 20
138.2901338652
 30
0.0
 40
4.2
  1
Input Force
  7
SEACAD_arial_ttf
 11
312.9704464673
 21
142.4901338652
 31
0.0
100
AcDbText
 73
     3
  0
TEXT
  5
3F8
330
3A7
100
AcDbEntity
  8
DV3_Default
  6
Continuous
 62
     7
 48
25.4
100
AcDbText
 10
313.7344019209
 20
132.8064471141
 30
0.0
 40
3.5
  1
34.8KN
  7
SEACAD_arial_ttf
 11
313.7344019209
 21
136.3064471141
 31
0.0
100
AcDbText
 73
     3
  0
TEXT
  5
3F9
330
3A7
100
AcDbEntity
  8
DV3_Default
  6
Continuous
 62
     7
 48
25.4
100
AcDbText
 10
313.479750103
 20
125.4215443959
 30
0.0
 40
3.5
  1
32KN
  7
SEACAD_arial_ttf
 11
313.479750103
 21
128.9215443959
 31
0.0
100
AcDbText
 73
     3
  0
TEXT
  5
3FA
330
3A7
100
AcDbEntity
  8
DV3_Default
  6
Continuous
 62
     7
 48
25.4
100
AcDbText
 10
313.479750103
 20
117.527338042
 30
0.0
 40
3.5
  1
30KN
  7
SEACAD_arial_ttf
 11
313.479750103
 21
121.027338042
 31
0.0
100
AcDbText
 73
     3
  0
TEXT
  5
3FB
330
3A7
100
AcDbEntity
  8
DV3_Default
  6
Continuous
 62
     7
 48
25.4
100
AcDbText
 10
313.7344019209
 20
110.6517389595
 30
0.0
 40
3.5
  1
27KN
  7
SEACAD_arial_ttf
 11
313.7344019209
 21
114.1517389595
 31
0.0
100
AcDbText
 73
     3
  0
TEXT
  5
3FC
330
3A7
100
AcDbEntity
  8
DV3_Default
  6
Continuous
 62
     7
 48
25.4
100
AcDbText
 10
313.9890537387
 20
101.7389253341
 30
0.0
 40
3.5
  1
24KN
  7
SEACAD_arial_ttf
 11
313.9890537387
 21
105.2389253341
 31
0.0
100
AcDbText
 73
     3
  0
TEXT
  5
3FD
330
3A7
100
AcDbEntity
  8
DV3_Default
  6
Continuous
 62
     7
 48
25.4
100
AcDbText
 10
313.9890537387
 20
92.3168080729
 30
0.0
 40
3.5
  1
21KN
  7
SEACAD_arial_ttf
 11
313.9890537387
 21
95.8168080729
 31
0.0
100
AcDbText
 73
     3
  0
TEXT
  5
3FE
330
3A7
100
AcDbEntity
  8
DV3_Default
  6
Continuous
 62
     7
 48
25.4
100
AcDbText
 10
313.7344019209
 20
83.9132980833
 30
0.0
 40
3.5
  1
18KN
  7
SEACAD_arial_ttf
 11
313.7344019209
 21
87.4132980833
 31
0.0
100
AcDbText
 73
     3
  0
TEXT
  5
3FF
330
3A7
100
AcDbEntity
  8
DV3_Default
  6
Continuous
 62
     7
 48
25.4
100
AcDbText
 10
313.479750103
 20
74.4911808221
 30
0.0
 40
3.5
  1
15KN
  7
SEACAD_arial_ttf
 11
313.479750103
 21
77.9911808221
 31
0.0
100
AcDbText
 73
     3
  0
TEXT
  5
400
330
3A7
100
AcDbEntity
  8
DV3_Default
  6
Continuous
 62
     7
 48
25.4
100
AcDbText
 10
313.7344019209
 20
65.3237153788
 30
0.0
 40
3.5
  1
12KN
  7
SEACAD_arial_ttf
 11
313.7344019209
 21
68.8237153788
 31
0.0
100
AcDbText
 73
     3
  0
TEXT
  5
401
330
3A7
100
AcDbEntity
  8
DV3_Default
  6
Continuous
 62
     7
 48
25.4
100
AcDbText
 10
326.2336673103
 20
17.738196888
 30
0.0
 40
4.2
  1
Speed in min-
  7
SEACAD_arial_ttf
 11
326.2336673103
 21
21.938196888
 31
0.0
100
AcDbText
 73
     3
  0
TEXT
  5
402
330
3A7
100
AcDbEntity
  8
DV3_Default
  6
Continuous
 62
     7
 48
25.4
100
AcDbText
 10
362.6641020929
 20
17.738196888
 30
0.0
 40
3.2102777778
  1
¹
  7
SEACAD_arial_ttf
 11
362.6641020929
 21
20.9484746658
 31
0.0
100
AcDbText
 73
     3
  0
TEXT
  5
403
330
3A7
100
AcDbEntity
  8
DV3_Default
  6
Continuous
 62
     7
 48
25.4
100
AcDbText
 10
221.549082678
 20
96.4788082357
 30
0.0
 40
4.2
  1
Total Gripping 
  7
SEACAD_arial_ttf
 11
221.549082678
 21
100.6788082357
 31
0.0
100
AcDbText
 73
     3
  0
TEXT
  5
404
330
3A7
100
AcDbEntity
  8
DV3_Default
  6
Continuous
 62
     7
 48
25.4
100
AcDbText
 10
221.549082678
 20
89.9048951922
 30
0.0
 40
4.2
  1
Force in KN
  7
SEACAD_arial_ttf
 11
221.549082678
 21
94.1048951922
 31
0.0
100
AcDbText
 73
     3
  0
TEXT
  5
405
330
3A7
100
AcDbEntity
  8
DV3_Default
  6
Continuous
 62
     7
 48
25.4
100
AcDbText
 10
283.3080169631
 20
163.5019352305
 30
0.0
 40
4.2
  1
Gripping Characteristic Graph For B-208A6
  7
SEACAD_arial_ttf
 11
283.3080169631
 21
167.7019352305
 31
0.0
100
AcDbText
 73
     3
  0
LWPOLYLINE
  5
406
330
3A7
100
AcDbEntity
  8
DV3_Default
  6
Continuous
 62
     7
 48
25.4
100
AcDbPolyline
 90
        2
 70
     0
 43
0.0
 10
413.6272919454
 20
42.602998314
 10
377.1578671282
 20
58.6050253457
  0
HATCH
  5
407
330
3A7
100
AcDbEntity
  8
DV3_Default
  6
Continuous
 62
     7
 48
25.4
100
AcDbHatch
 10
0.0
 20
0.0
 30
0.0
210
0.0
220
0.0
230
1.0
  2
SOLID
 70
     1
 71
     0
 91
        1
 92
        1
 93
        3
 72
     1
 10
381.2851803327214
 20
57.55846620868542
 11
377.1578671282414
 21
58.60502534571947
 72
     1
 10
377.1578671282414
 20
58.60502534571947
 11
380.7226577366844
 21
56.27644890653158
 72
     1
 10
380.7226577366844
 20
56.27644890653158
 11
381.2851803327214
 21
57.55846620868542
 97
        0
 75
     0
 76
     1
 98
        0
  0
LWPOLYLINE
  5
408
330
3A7
100
AcDbEntity
  8
DV3_Default
  6
Continuous
 62
     7
 48
25.4
370
    20
100
AcDbPolyline
 90
        4
 70
     1
 43
0.00025
 10
381.2851803327
 20
57.5584662087
 10
377.1578671282
 20
58.6050253457
 10
380.7226577367
 20
56.2764489065
 10
381.2851803327
 20
57.5584662087
  0
LINE
  5
409
330
3A7
100
AcDbEntity
  8
DV3_Default
  6
Continuous
 62
     7
 48
25.4
100
AcDbLine
 10
413.6272919454
 20
42.602998314
 30
0.0
 11
466.5838136846
 21
42.602998314
 31
0.0
  0
TEXT
  5
40A
330
3A7
100
AcDbEntity
  8
DV3_Default
  6
Continuous
 62
     7
 48
25.4
100
AcDbText
 10
413.6272919454
 20
43.652998314
 30
0.0
 40
4.2
  1
Gripping Force Limit
  7
SEACAD_arial_ttf
 11
413.6272919454
 21
47.852998314
 31
0.0
100
AcDbText
 73
     3
  0
TEXT
  5
40B
330
3A7
100
AcDbEntity
  8
DV3_Default
  6
Continuous
 62
     7
 48
25.4
100
AcDbText
 10
18.2651095342
 20
145.4533630054
 30
0.0
 40
3.5
  1
SPINDLE NOSE SIZE
  7
SEACAD_arial_ttf
 11
18.2651095342
 21
148.9533630054
 31
0.0
100
AcDbText
 73
     3
  0
TEXT
  5
40C
330
3A7
100
AcDbEntity
  8
DV3_Default
  6
Continuous
 62
     7
 48
25.4
100
AcDbText
 10
123.9502998482
 20
145.4533630054
 30
0.0
 40
3.5
  1
A2-6
  7
SEACAD_arial_ttf
 11
123.9502998482
 21
148.9533630054
 31
0.0
100
AcDbText
 73
     3
  0
TEXT
  5
40D
330
3A7
100
AcDbEntity
  8
DV3_Default
  6
Continuous
 62
     7
 48
25.4
100
AcDbText
 10
17.5351281729
 20
69.9787541511
 30
0.0
 40
3.5
  1
TOTAL GRIPPING FORCE AT MAX. SPEED
  7
SEACAD_arial_ttf
 11
17.5351281729
 21
73.4787541511
 31
0.0
100
AcDbText
 73
     3
  0
TEXT
  5
40E
330
3A7
100
AcDbEntity
  8
DV3_Default
  6
Continuous
 62
     7
 48
25.4
100
AcDbText
 10
123.3038207295
 20
19.21943725
 30
0.0
 40
3.5
  1
SB08B1/KSJ-208
  7
SEACAD_arial_ttf
 11
123.3038207295
 21
22.71943725
 31
0.0
100
AcDbText
 73
     3
  0
LINE
  5
40F
330
3A7
100
AcDbEntity
  8
DV3_Default
  6
Continuous
 62
     7
 48
25.4
100
AcDbLine
 10
16.4098934619
 20
25.4110476619
 30
0.0
 11
184.4098934619
 21
25.4110476619
 31
0.0
  0
LINE
  5
410
330
3A7
100
AcDbEntity
  8
DV3_Default
  6
Continuous
 62
     7
 48
25.4
100
AcDbLine
 10
184.4098934619
 20
151.4110476619
 30
0.0
 11
16.4098934619
 21
151.4110476619
 31
0.0
  0
LINE
  5
411
330
3A7
100
AcDbEntity
  8
DV3_Default
  6
Continuous
 62
     7
 48
25.4
100
AcDbLine
 10
16.4098934619
 20
143.0110476619
 30
0.0
 11
184.4098934619
 21
143.0110476619
 31
0.0
  0
LINE
  5
412
330
3A7
100
AcDbEntity
  8
DV3_Default
  6
Continuous
 62
     7
 48
25.4
100
AcDbLine
 10
184.4098934619
 20
134.6110476619
 30
0.0
 11
16.4098934619
 21
134.6110476619
 31
0.0
  0
LINE
  5
413
330
3A7
100
AcDbEntity
  8
DV3_Default
  6
Continuous
 62
     7
 48
25.4
100
AcDbLine
 10
16.4098934619
 20
126.2110476619
 30
0.0
 11
184.4098934619
 21
126.2110476619
 31
0.0
  0
LINE
  5
414
330
3A7
100
AcDbEntity
  8
DV3_Default
  6
Continuous
 62
     7
 48
25.4
100
AcDbLine
 10
184.4098934619
 20
117.8110476619
 30
0.0
 11
16.4098934619
 21
117.8110476619
 31
0.0
  0
LINE
  5
415
330
3A7
100
AcDbEntity
  8
DV3_Default
  6
Continuous
 62
     7
 48
25.4
100
AcDbLine
 10
16.4098934619
 20
109.4110476619
 30
0.0
 11
184.4098934619
 21
109.4110476619
 31
0.0
  0
LINE
  5
416
330
3A7
100
AcDbEntity
  8
DV3_Default
  6
Continuous
 62
     7
 48
25.4
100
AcDbLine
 10
184.4098934619
 20
101.0110476619
 30
0.0
 11
16.4098934619
 21
101.0110476619
 31
0.0
  0
LINE
  5
417
330
3A7
100
AcDbEntity
  8
DV3_Default
  6
Continuous
 62
     7
 48
25.4
100
AcDbLine
 10
16.4098934619
 20
92.6110476619
 30
0.0
 11
184.4098934619
 21
92.6110476619
 31
0.0
  0
LINE
  5
418
330
3A7
100
AcDbEntity
  8
DV3_Default
  6
Continuous
 62
     7
 48
25.4
100
AcDbLine
 10
184.4098934619
 20
84.2110476619
 30
0.0
 11
16.4098934619
 21
84.2110476619
 31
0.0
  0
LINE
  5
419
330
3A7
100
AcDbEntity
  8
DV3_Default
  6
Continuous
 62
     7
 48
25.4
100
AcDbLine
 10
16.4098934619
 20
75.8110476619
 30
0.0
 11
184.4098934619
 21
75.8110476619
 31
0.0
  0
LINE
  5
41A
330
3A7
100
AcDbEntity
  8
DV3_Default
  6
Continuous
 62
     7
 48
25.4
100
AcDbLine
 10
184.4098934619
 20
67.4110476619
 30
0.0
 11
16.4098934619
 21
67.4110476619
 31
0.0
  0
LINE
  5
41B
330
3A7
100
AcDbEntity
  8
DV3_Default
  6
Continuous
 62
     7
 48
25.4
100
AcDbLine
 10
16.4098934619
 20
59.0110476619
 30
0.0
 11
184.4098934619
 21
59.0110476619
 31
0.0
  0
LINE
  5
41C
330
3A7
100
AcDbEntity
  8
DV3_Default
  6
Continuous
 62
     7
 48
25.4
100
AcDbLine
 10
184.4098934619
 20
50.6110476619
 30
0.0
 11
16.4098934619
 21
50.6110476619
 31
0.0
  0
LINE
  5
41D
330
3A7
100
AcDbEntity
  8
DV3_Default
  6
Continuous
 62
     7
 48
25.4
100
AcDbLine
 10
16.4098934619
 20
42.2110476619
 30
0.0
 11
184.4098934619
 21
42.2110476619
 31
0.0
  0
LINE
  5
41E
330
3A7
100
AcDbEntity
  8
DV3_Default
  6
Continuous
 62
     7
 48
25.4
100
AcDbLine
 10
184.4098934619
 20
33.8110476619
 30
0.0
 11
16.4098934619
 21
33.8110476619
 31
0.0
  0
TEXT
  5
41F
330
3A7
100
AcDbEntity
  8
DV3_Default
  6
Continuous
 62
     7
 48
25.4
100
AcDbText
 10
72.1585217375
 20
165.1250692086
 30
0.0
 40
4.2
  1
Specifications
  7
SEACAD_arial_ttf
 11
72.1585217375
 21
169.3250692086
 31
0.0
100
AcDbText
 73
     3
  0
TEXT
  5
420
330
3A7
100
AcDbEntity
  8
DV3_Default
  6
Continuous
 62
     7
 48
25.4
100
AcDbText
 10
18.1817577129
 20
136.8696174943
 30
0.0
 40
3.5
  1
THROUGH HOLE
  7
SEACAD_arial_ttf
 11
18.1817577129
 21
140.3696174943
 31
0.0
100
AcDbText
 73
     3
  0
TEXT
  5
421
330
3A7
100
AcDbEntity
  8
DV3_Default
  6
Continuous
 62
     7
 48
25.4
100
AcDbText
 10
123.7760543764
 20
136.83014502
 30
0.0
 40
3.5
  1
52mm
  7
SEACAD_arial_ttf
 11
123.7760543764
 21
140.33014502
 31
0.0
100
AcDbText
 73
     3
  0
TEXT
  5
422
330
3A7
100
AcDbEntity
  8
DV3_Default
  6
Continuous
 62
     7
 48
25.4
100
AcDbText
 10
18.6921544892
 20
128.1928722983
 30
0.0
 40
3.5
  1
MAX. GRIPPING RANGE
  7
SEACAD_arial_ttf
 11
18.6921544892
 21
131.6928722983
 31
0.0
100
AcDbText
 73
     3
  0
TEXT
  5
423
330
3A7
100
AcDbEntity
  8
DV3_Default
  6
Continuous
 62
     7
 48
25.4
100
AcDbText
 10
18.6921544892
 20
119.7713254904
 30
0.0
 40
3.5
  1
MIN. GRIPPING RANGE
  7
SEACAD_arial_ttf
 11
18.6921544892
 21
123.2713254904
 31
0.0
100
AcDbText
 73
     3
  0
TEXT
  5
424
330
3A7
100
AcDbEntity
  8
DV3_Default
  6
Continuous
 62
     7
 48
25.4
100
AcDbText
 10
18.1817577129
 20
110.8393819064
 30
0.0
 40
3.5
  1
JAW STROKE
  7
SEACAD_arial_ttf
 11
18.1817577129
 21
114.3393819064
 31
0.0
100
AcDbText
 73
     3
  0
TEXT
  5
425
330
3A7
100
AcDbEntity
  8
DV3_Default
  6
Continuous
 62
     7
 48
25.4
100
AcDbText
 10
18.9473528773
 20
102.9282318748
 30
0.0
 40
3.5
  1
PLUNGER STROKE
  7
SEACAD_arial_ttf
 11
18.9473528773
 21
106.4282318748
 31
0.0
100
AcDbText
 73
     3
  0
TEXT
  5
426
330
3A7
100
AcDbEntity
  8
DV3_Default
  6
Continuous
 62
     7
 48
25.4
100
AcDbText
 10
18.9473528773
 20
94.761883455
 30
0.0
 40
3.5
  1
MAX. DRAW BAR PULL FORCE
  7
SEACAD_arial_ttf
 11
18.9473528773
 21
98.261883455
 31
0.0
100
AcDbText
 73
     3
  0
TEXT
  5
427
330
3A7
100
AcDbEntity
  8
DV3_Default
  6
Continuous
 62
     7
 48
25.4
100
AcDbText
 10
18.6921544892
 20
86.5955350353
 30
0.0
 40
3.5
  1
MAX. GRIPPING FORCE
  7
SEACAD_arial_ttf
 11
18.6921544892
 21
90.0955350353
 31
0.0
100
AcDbText
 73
     3
  0
TEXT
  5
428
330
3A7
100
AcDbEntity
  8
DV3_Default
  6
Continuous
 62
     7
 48
25.4
100
AcDbText
 10
18.6921544892
 20
78.1739882275
 30
0.0
 40
3.5
  1
MAX. SPEED
  7
SEACAD_arial_ttf
 11
18.6921544892
 21
81.6739882275
 31
0.0
100
AcDbText
 73
     3
  0
TEXT
  5
429
330
3A7
100
AcDbEntity
  8
DV3_Default
  6
Continuous
 62
     7
 48
25.4
100
AcDbText
 10
18.1817577129
 20
61.3308946118
 30
0.0
 40
3.5
  1
NET WEIGHT WITH SOFT TOP JAWS
  7
SEACAD_arial_ttf
 11
18.1817577129
 21
64.8308946118
 31
0.0
100
AcDbText
 73
     3
  0
TEXT
  5
42A
330
3A7
100
AcDbEntity
  8
DV3_Default
  6
Continuous
 62
     7
 48
25.4
100
AcDbText
 10
18.1817577129
 20
52.6541494158
 30
0.0
 40
3.5
  1
MOMENT OF INERTIA
  7
SEACAD_arial_ttf
 11
18.1817577129
 21
56.1541494158
 31
0.0
100
AcDbText
 73
     3
  0
TEXT
  5
42B
330
3A7
100
AcDbEntity
  8
DV3_Default
  6
Continuous
 62
     7
 48
25.4
100
AcDbText
 10
17.9265593248
 20
44.7429993842
 30
0.0
 40
3.5
  1
MATCHING CYLINDER
  7
SEACAD_arial_ttf
 11
17.9265593248
 21
48.2429993842
 31
0.0
100
AcDbText
 73
     3
  0
TEXT
  5
42C
330
3A7
100
AcDbEntity
  8
DV3_Default
  6
Continuous
 62
     7
 48
25.4
100
AcDbText
 10
17.9265593248
 20
35.8110558001
 30
0.0
 40
3.5
  1
MAX. PRESSURE
  7
SEACAD_arial_ttf
 11
17.9265593248
 21
39.3110558001
 31
0.0
100
AcDbText
 73
     3
  0
TEXT
  5
42D
330
3A7
100
AcDbEntity
  8
DV3_Default
  6
Continuous
 62
     7
 48
25.4
100
AcDbText
 10
17.6713609367
 20
27.8999057685
 30
0.0
 40
3.5
  1
MATCHING HARD TOP JAW
  7
SEACAD_arial_ttf
 11
17.6713609367
 21
31.3999057685
 31
0.0
100
AcDbText
 73
     3
  0
TEXT
  5
42E
330
3A7
100
AcDbEntity
  8
DV3_Default
  6
Continuous
 62
     7
 48
25.4
100
AcDbText
 10
17.6713609367
 20
19.7335573488
 30
0.0
 40
3.5
  1
MATCHING SOFT TOP JAW
  7
SEACAD_arial_ttf
 11
17.6713609367
 21
23.2335573488
 31
0.0
100
AcDbText
 73
     3
  0
LINE
  5
42F
330
3A7
100
AcDbEntity
  8
DV3_Default
  6
Continuous
 62
     7
 48
25.4
100
AcDbLine
 10
16.4098934619
 20
17.0110476619
 30
0.0
 11
184.4098934619
 21
17.0110476619
 31
0.0
  0
LINE
  5
430
330
3A7
100
AcDbEntity
  8
DV3_Default
  6
Continuous
 62
     7
 48
25.4
100
AcDbLine
 10
121.281906512
 20
151.4110476619
 30
0.0
 11
121.281906512
 21
17.0110476619
 31
0.0
  0
LINE
  5
431
330
3A7
100
AcDbEntity
  8
DV3_Default
  6
Continuous
 62
     7
 48
25.4
100
AcDbLine
 10
16.4098934619
 20
151.4110476619
 30
0.0
 11
16.4098934619
 21
17.0110476619
 31
0.0
  0
LINE
  5
432
330
3A7
100
AcDbEntity
  8
DV3_Default
  6
Continuous
 62
     7
 48
25.4
100
AcDbLine
 10
184.4098934619
 20
151.4110476619
 30
0.0
 11
184.4098934619
 21
17.0110476619
 31
0.0
  0
TEXT
  5
433
330
3A7
100
AcDbEntity
  8
DV3_Default
  6
Continuous
 62
     7
 48
25.4
100
AcDbText
 10
124.0101185735
 20
128.7325907496
 30
0.0
 40
3.5
  1
210mm
  7
SEACAD_arial_ttf
 11
124.0101185735
 21
132.2325907496
 31
0.0
100
AcDbText
 73
     3
  0
TEXT
  5
434
330
3A7
100
AcDbEntity
  8
DV3_Default
  6
Continuous
 62
     7
 48
25.4
100
AcDbText
 10
123.515818352
 20
120.0067580864
 30
0.0
 40
3.5
  1
13mm
  7
SEACAD_arial_ttf
 11
123.515818352
 21
123.5067580864
 31
0.0
100
AcDbText
 73
     3
  0
TEXT
  5
435
330
3A7
100
AcDbEntity
  8
DV3_Default
  6
Continuous
 62
     7
 48
25.4
100
AcDbText
 10
123.9200894472
 20
111.8024063772
 30
0.0
 40
3.5
  1
7.4mm
  7
SEACAD_arial_ttf
 11
123.9200894472
 21
115.3024063772
 31
0.0
100
AcDbText
 73
     3
  0
TEXT
  5
436
330
3A7
100
AcDbEntity
  8
DV3_Default
  6
Continuous
 62
     7
 48
25.4
100
AcDbText
 10
123.3986084933
 20
103.3194803603
 30
0.0
 40
3.5
  1
16mm
  7
SEACAD_arial_ttf
 11
123.3986084933
 21
106.8194803603
 31
0.0
100
AcDbText
 73
     3
  0
TEXT
  5
437
330
3A7
100
AcDbEntity
  8
DV3_Default
  6
Continuous
 62
     7
 48
25.4
100
AcDbText
 10
123.7043635334
 20
94.8365543435
 30
0.0
 40
3.5
  1
34.8kN
  7
SEACAD_arial_ttf
 11
123.7043635334
 21
98.3365543435
 31
0.0
100
AcDbText
 73
     3
  0
TEXT
  5
438
330
3A7
100
AcDbEntity
  8
DV3_Default
  6
Continuous
 62
     7
 48
25.4
100
AcDbText
 10
123.830060321
 20
86.4793251142
 30
0.0
 40
3.5
  1
86kN
  7
SEACAD_arial_ttf
 11
123.830060321
 21
89.9793251142
 31
0.0
100
AcDbText
 73
     3
  0
TEXT
  5
439
330
3A7
100
AcDbEntity
  8
DV3_Default
  6
Continuous
 62
     7
 48
25.4
100
AcDbText
 10
123.5550198781
 20
78.1626420981
 30
0.0
 40
3.5
  1
5000min-
  7
SEACAD_arial_ttf
 11
123.5550198781
 21
81.6626420981
 31
0.0
100
AcDbText
 73
     3
  0
TEXT
  5
43A
330
3A7
100
AcDbEntity
  8
DV3_Default
  6
Continuous
 62
     7
 48
25.4
100
AcDbText
 10
144.098498139
 20
78.1626420981
 30
0.0
 40
3.2102777778
  1
¹
  7
SEACAD_arial_ttf
 11
144.098498139
 21
81.3729198758
 31
0.0
100
AcDbText
 73
     3
  0
TEXT
  5
43B
330
3A7
100
AcDbEntity
  8
DV3_Default
  6
Continuous
 62
     7
 48
25.4
100
AcDbText
 10
123.3754385547
 20
69.9606586387
 30
0.0
 40
3.5
  1
28.7kN
  7
SEACAD_arial_ttf
 11
123.3754385547
 21
73.4606586387
 31
0.0
100
AcDbText
 73
     3
  0
TEXT
  5
43C
330
3A7
100
AcDbEntity
  8
DV3_Default
  6
Continuous
 62
     7
 48
25.4
100
AcDbText
 10
123.2242542508
 20
61.3397857904
 30
0.0
 40
3.5
  1
23.6kg
  7
SEACAD_arial_ttf
 11
123.2242542508
 21
64.8397857904
 31
0.0
100
AcDbText
 73
     3
  0
TEXT
  5
43D
330
3A7
100
AcDbEntity
  8
DV3_Default
  6
Continuous
 62
     7
 48
25.4
100
AcDbText
 10
123.2028084117
 20
52.9344347632
 30
0.0
 40
3.5
  1
0.178kg.m
  7
SEACAD_arial_ttf
 11
123.2028084117
 21
56.4344347632
 31
0.0
100
AcDbText
 73
     3
  0
TEXT
  5
43E
330
3A7
100
AcDbEntity
  8
DV3_Default
  6
Continuous
 62
     7
 48
25.4
100
AcDbText
 10
146.3332431943
 20
52.9344347632
 30
0.0
 40
3.2102777778
  1
²
  7
SEACAD_arial_ttf
 11
146.3332431943
 21
56.144712541
 31
0.0
100
AcDbText
 73
     3
  0
TEXT
  5
43F
330
3A7
100
AcDbEntity
  8
DV3_Default
  6
Continuous
 62
     7
 48
25.4
100
AcDbText
 10
123.2242542508
 20
44.9601273785
 30
0.0
 40
3.5
  1
S1552
  7
SEACAD_arial_ttf
 11
123.2242542508
 21
48.4601273785
 31
0.0
100
AcDbText
 73
     3
  0
TEXT
  5
440
330
3A7
100
AcDbEntity
  8
DV3_Default
  6
Continuous
 62
     7
 48
25.4
100
AcDbText
 10
123.439776072
 20
35.9296567269
 30
0.0
 40
3.5
  1
2.65MPa
  7
SEACAD_arial_ttf
 11
123.439776072
 21
39.4296567269
 31
0.0
100
AcDbText
 73
     3
  0
TEXT
  5
441
330
3A7
100
AcDbEntity
  8
DV3_Default
  6
Continuous
 62
     7
 48
25.4
100
AcDbText
 10
123.612406215
 20
27.9124576639
 30
0.0
 40
3.5
  1
HB08A1
  7
SEACAD_arial_ttf
 11
123.612406215
 21
31.4124576639
 31
0.0
100
AcDbText
 73
     3
  0
LINE
  5
442
330
3A7
100
AcDbEntity
  8
DV3_Default
  6
Continuous
 62
     7
 48
25.4
100
AcDbLine
 10
208.8869966107
 20
139.8858198
 30
0.0
 11
208.8869966107
 21
131.4858198
 31
0.0
  0
ENDBLK
  5
444
330
3A7
100
AcDbEntity
  8
0
100
AcDbBlockEnd
  0
BLOCK
  5
44F
330
445
100
AcDbEntity
  8
0
100
AcDbBlockBegin
  2
GDimGGroup
 70
     0
 71
     0
 10
0.0
 20
0.0
 30
0.0
  3
GDimGGroup
  1

  0
HATCH
  5
447
330
445
100
AcDbEntity
  8
Default
  6
Continuous
 62
     7
 48
25.4
100
AcDbHatch
 10
0.0
 20
0.0
 30
0.0
210
0.0
220
0.0
230
1.0
  2
SOLID
 70
     1
 71
     0
 91
        1
 92
        1
 93
        3
 72
     1
 10
425.566412839618
 20
401.1898163149122
 11
421.5664126496282
 21
400.5231496165805
 72
     1
 10
421.5664126496282
 20
400.5231496165805
 11
425.566412839618
 21
399.8564829182488
 72
     1
 10
425.566412839618
 20
399.8564829182488
 11
425.566412839618
 21
401.1898163149122
 97
        0
 75
     0
 76
     1
 98
        0
  0
LWPOLYLINE
  5
448
330
445
100
AcDbEntity
  8
Default
  6
Continuous
 62
     7
 48
25.4
370
    20
100
AcDbPolyline
 90
        4
 70
     1
 43
0.00025
 10
425.5664128396
 20
401.1898163149
 10
421.5664126496
 20
400.5231496166
 10
425.5664128396
 20
399.8564829182
 10
425.5664128396
 20
401.1898163149
  0
HATCH
  5
449
330
445
100
AcDbEntity
  8
Default
  6
Continuous
 62
     7
 48
25.4
100
AcDbHatch
 10
0.0
 20
0.0
 30
0.0
210
0.0
220
0.0
230
1.0
  2
SOLID
 70
     1
 71
     0
 91
        1
 92
        1
 93
        3
 72
     1
 10
442.0664118188885
 20
401.1898163149122
 11
442.0664118188885
 21
399.8564829182488
 72
     1
 10
442.0664118188885
 20
399.8564829182488
 11
446.0664120088783
 21
400.5231496165805
 72
     1
 10
446.0664120088783
 20
400.5231496165805
 11
442.0664118188885
 21
401.1898163149122
 97
        0
 75
     0
 76
     1
 98
        0
  0
LWPOLYLINE
  5
44A
330
445
100
AcDbEntity
  8
Default
  6
Continuous
 62
     7
 48
25.4
370
    20
100
AcDbPolyline
 90
        4
 70
     1
 43
0.00025
 10
442.0664118189
 20
401.1898163149
 10
446.0664120089
 20
400.5231496166
 10
442.0664118189
 20
399.8564829182
 10
442.0664118189
 20
401.1898163149
  0
LINE
  5
44B
330
445
100
AcDbEntity
  8
Default
  6
Continuous
 62
     7
 48
25.4
100
AcDbLine
 10
421.5664126496
 20
375.3547214191
 30
0.0
 11
421.5664126496
 21
402.5231497116
 31
0.0
  0
LINE
  5
44C
330
445
100
AcDbEntity
  8
Default
  6
Continuous
 62
     7
 48
25.4
100
AcDbLine
 10
446.0664126496
 20
375.3547214191
 30
0.0
 11
446.0664126496
 21
402.5231497116
 31
0.0
  0
LINE
  5
44D
330
445
100
AcDbEntity
  8
Default
  6
Continuous
 62
     7
 48
25.4
100
AcDbLine
 10
421.5664126496
 20
400.5231496166
 30
0.0
 11
446.0664120089
 21
400.5231496166
 31
0.0
  0
TEXT
  5
44E
330
445
100
AcDbEntity
  8
Default
  6
Continuous
 62
     7
 48
25.4
100
AcDbText
 10
430.6859775466
 20
401.5231496166
 30
0.0
 40
4.0
  1
35
  7
SEACAD_arial_ttf
 11
430.6859775466
 21
405.5231496166
 31
0.0
100
AcDbText
 73
     3
  0
ENDBLK
  5
450
330
445
100
AcDbEntity
  8
0
100
AcDbBlockEnd
  0
BLOCK
  5
45B
330
451
100
AcDbEntity
  8
0
100
AcDbBlockBegin
  2
GDimGGroup1
 70
     0
 71
     0
 10
0.0
 20
0.0
 30
0.0
  3
GDimGGroup1
  1

  0
HATCH
  5
453
330
451
100
AcDbEntity
  8
Default
  6
Continuous
 62
     7
 48
25.4
100
AcDbHatch
 10
0.0
 20
0.0
 30
0.0
210
0.0
220
0.0
230
1.0
  2
SOLID
 70
     1
 71
     0
 91
        1
 92
        1
 93
        3
 72
     1
 10
240.7929028080066
 20
143.9050568433357
 11
239.4595694113433
 21
143.9050568433357
 72
     1
 10
239.4595694113433
 20
143.9050568433357
 11
240.1262361096749
 21
139.9050566533459
 72
     1
 10
240.1262361096749
 20
139.9050566533459
 11
240.7929028080066
 21
143.9050568433357
 97
        0
 75
     0
 76
     1
 98
        0
  0
LWPOLYLINE
  5
454
330
451
100
AcDbEntity
  8
Default
  6
Continuous
 62
     7
 48
25.4
370
    20
100
AcDbPolyline
 90
        4
 70
     1
 43
0.00025
 10
240.792902808
 20
143.9050568433
 10
240.1262361097
 20
139.9050566533
 10
239.4595694113
 20
143.9050568433
 10
240.792902808
 20
143.9050568433
  0
HATCH
  5
455
330
451
100
AcDbEntity
  8
Default
  6
Continuous
 62
     7
 48
25.4
100
AcDbHatch
 10
0.0
 20
0.0
 30
0.0
210
0.0
220
0.0
230
1.0
  2
SOLID
 70
     1
 71
     0
 91
        1
 92
        1
 93
        3
 72
     1
 10
240.7929028080066
 20
161.7826309220744
 11
240.1262361096749
 21
165.7826311120642
 72
     1
 10
240.1262361096749
 20
165.7826311120642
 11
239.4595694113433
 21
161.7826309220744
 72
     1
 10
239.4595694113433
 20
161.7826309220744
 11
240.7929028080066
 21
161.7826309220744
 97
        0
 75
     0
 76
     1
 98
        0
  0
LWPOLYLINE
  5
456
330
451
100
AcDbEntity
  8
Default
  6
Continuous
 62
     7
 48
25.4
370
    20
100
AcDbPolyline
 90
        4
 70
     1
 43
0.00025
 10
240.792902808
 20
161.7826309221
 10
240.1262361097
 20
165.7826311121
 10
239.4595694113
 20
161.7826309221
 10
240.792902808
 20
161.7826309221
  0
LINE
  5
457
330
451
100
AcDbEntity
  8
Default
  6
Continuous
 62
     7
 48
25.4
100
AcDbLine
 10
208.8869966107
 20
139.9050566533
 30
0.0
 11
242.1262362047
 21
139.9050566533
 31
0.0
  0
LINE
  5
458
330
451
100
AcDbEntity
  8
Default
  6
Continuous
 62
     7
 48
25.4
100
AcDbLine
 10
208.8901713215
 20
165.7826306086
 30
0.0
 11
242.1262362047
 21
165.7826306086
 31
0.0
  0
LINE
  5
459
330
451
100
AcDbEntity
  8
Default
  6
Continuous
 62
     7
 48
25.4
100
AcDbLine
 10
240.1262361097
 20
139.9050566533
 30
0.0
 11
240.1262361097
 21
165.7826311121
 31
0.0
  0
TEXT
  5
45A
330
451
100
AcDbEntity
  8
Default
  6
Continuous
 62
     7
 48
25.4
100
AcDbText
 10
239.1262361097
 20
149.7134091001
 30
0.0
 40
4.0
  1
37
 50
90.0
  7
SEACAD_arial_ttf
 11
235.1262361097
 21
149.7134091001
 31
0.0
100
AcDbText
 73
     3
  0
ENDBLK
  5
45C
330
451
100
AcDbEntity
  8
0
100
AcDbBlockEnd
  0
BLOCK
  5
468
330
45D
100
AcDbEntity
  8
0
100
AcDbBlockBegin
  2
GDimGGroup2
 70
     0
 71
     0
 10
0.0
 20
0.0
 30
0.0
  3
GDimGGroup2
  1

  0
HATCH
  5
45F
330
45D
100
AcDbEntity
  8
Default
  6
Continuous
 62
     7
 48
25.4
100
AcDbHatch
 10
0.0
 20
0.0
 30
0.0
210
0.0
220
0.0
230
1.0
  2
SOLID
 70
     1
 71
     0
 91
        1
 92
        1
 93
        3
 72
     1
 10
228.0449756730183
 20
151.9376160070825
 11
226.711642276355
 21
151.9376160070825
 72
     1
 10
226.711642276355
 20
151.9376160070825
 11
227.3783089746866
 21
147.9376158170927
 72
     1
 10
227.3783089746866
 20
147.9376158170927
 11
228.0449756730183
 21
151.9376160070825
 97
        0
 75
     0
 76
     1
 98
        0
  0
LWPOLYLINE
  5
460
330
45D
100
AcDbEntity
  8
Default
  6
Continuous
 62
     7
 48
25.4
370
    20
100
AcDbPolyline
 90
        4
 70
     1
 43
0.00025
 10
228.044975673
 20
151.9376160071
 10
227.3783089747
 20
147.9376158171
 10
226.7116422764
 20
151.9376160071
 10
228.044975673
 20
151.9376160071
  0
HATCH
  5
461
330
45D
100
AcDbEntity
  8
Default
  6
Continuous
 62
     7
 48
25.4
100
AcDbHatch
 10
0.0
 20
0.0
 30
0.0
210
0.0
220
0.0
230
1.0
  2
SOLID
 70
     1
 71
     0
 91
        1
 92
        1
 93
        3
 72
     1
 10
228.0449756730183
 20
153.7376157433319
 11
227.3783089746866
 21
157.7376159333217
 72
     1
 10
227.3783089746866
 20
157.7376159333217
 11
226.711642276355
 21
153.7376157433319
 72
     1
 10
226.711642276355
 20
153.7376157433319
 11
228.0449756730183
 21
153.7376157433319
 97
        0
 75
     0
 76
     1
 98
        0
  0
LWPOLYLINE
  5
462
330
45D
100
AcDbEntity
  8
Default
  6
Continuous
 62
     7
 48
25.4
370
    20
100
AcDbPolyline
 90
        4
 70
     1
 43
0.00025
 10
228.044975673
 20
153.7376157433
 10
227.3783089747
 20
157.7376159333
 10
226.7116422764
 20
153.7376157433
 10
228.044975673
 20
153.7376157433
  0
LINE
  5
463
330
45D
100
AcDbEntity
  8
Default
  6
Continuous
 62
     7
 48
25.4
100
AcDbLine
 10
212.3901715656
 20
147.9376158171
 30
0.0
 11
229.3783090697
 21
147.9376158171
 31
0.0
  0
LINE
  5
464
330
45D
100
AcDbEntity
  8
Default
  6
Continuous
 62
     7
 48
25.4
100
AcDbLine
 10
212.3901715656
 20
157.7376158171
 30
0.0
 11
229.3783090697
 21
157.7376158171
 31
0.0
  0
LINE
  5
465
330
45D
100
AcDbEntity
  8
Default
  6
Continuous
 62
     7
 48
25.4
100
AcDbLine
 10
227.3783089747
 20
110.1738376968
 30
0.0
 11
227.3783089747
 21
157.7376159333
 31
0.0
  0
TEXT
  5
466
330
45D
100
AcDbEntity
  8
Default
  6
Continuous
 62
     7
 48
25.4
100
AcDbText
 10
226.3783089747
 20
111.5738368359
 30
0.0
 40
4.0
  1
14
 50
90.0
  7
SEACAD_arial_ttf
 11
222.3783089747
 21
111.5738368359
 31
0.0
100
AcDbText
 73
     3
  0
TEXT
  5
467
330
45D
100
AcDbEntity
  8
Default
  6
Continuous
 62
     7
 48
25.4
100
AcDbText
 10
226.3783089747
 20
120.2347064011
 30
0.0
 40
4.0
  1
H8/h8
 50
90.0
  7
SEACAD_arial_ttf
 11
222.3783089747
 21
120.2347064011
 31
0.0
100
AcDbText
 73
     3
  0
ENDBLK
  5
469
330
45D
100
AcDbEntity
  8
0
100
AcDbBlockEnd
  0
BLOCK
  5
474
330
46A
100
AcDbEntity
  8
0
100
AcDbBlockBegin
  2
GDimGGroup3
 70
     0
 71
     0
 10
0.0
 20
0.0
 30
0.0
  3
GDimGGroup3
  1

  0
HATCH
  5
46C
330
46A
100
AcDbEntity
  8
Default
  6
Continuous
 62
     7
 48
25.4
100
AcDbHatch
 10
0.0
 20
0.0
 30
0.0
210
0.0
220
0.0
230
1.0
  2
SOLID
 70
     1
 71
     0
 91
        1
 92
        1
 93
        3
 72
     1
 10
214.2901715278957
 20
178.1433080698385
 11
210.2901713379059
 21
177.4766413715069
 72
     1
 10
210.2901713379059
 20
177.4766413715069
 11
214.2901715278957
 21
176.8099746731753
 72
     1
 10
214.2901715278957
 20
176.8099746731753
 11
214.2901715278957
 21
178.1433080698385
 97
        0
 75
     0
 76
     1
 98
        0
  0
LWPOLYLINE
  5
46D
330
46A
100
AcDbEntity
  8
Default
  6
Continuous
 62
     7
 48
25.4
370
    20
100
AcDbPolyline
 90
        4
 70
     1
 43
0.00025
 10
214.2901715279
 20
178.1433080698
 10
210.2901713379
 20
177.4766413715
 10
214.2901715279
 20
176.8099746732
 10
214.2901715279
 20
178.1433080698
  0
HATCH
  5
46E
330
46A
100
AcDbEntity
  8
Default
  6
Continuous
 62
     7
 48
25.4
100
AcDbHatch
 10
0.0
 20
0.0
 30
0.0
210
0.0
220
0.0
230
1.0
  2
SOLID
 70
     1
 71
     0
 91
        1
 92
        1
 93
        3
 72
     1
 10
204.8901711479161
 20
178.1433080698385
 11
204.8901711479161
 21
176.8099746731753
 72
     1
 10
204.8901711479161
 20
176.8099746731753
 11
208.8901713379059
 21
177.4766413715069
 72
     1
 10
208.8901713379059
 20
177.4766413715069
 11
204.8901711479161
 21
178.1433080698385
 97
        0
 75
     0
 76
     1
 98
        0
  0
LWPOLYLINE
  5
46F
330
46A
100
AcDbEntity
  8
Default
  6
Continuous
 62
     7
 48
25.4
370
    20
100
AcDbPolyline
 90
        4
 70
     1
 43
0.00025
 10
204.8901711479
 20
178.1433080698
 10
208.8901713379
 20
177.4766413715
 10
204.8901711479
 20
176.8099746732
 10
204.8901711479
 20
178.1433080698
  0
LINE
  5
470
330
46A
100
AcDbEntity
  8
Default
  6
Continuous
 62
     7
 48
25.4
100
AcDbLine
 10
210.2901713379
 20
164.3826306086
 30
0.0
 11
210.2901713379
 21
179.4766414665
 31
0.0
  0
LINE
  5
471
330
46A
100
AcDbEntity
  8
Default
  6
Continuous
 62
     7
 48
25.4
100
AcDbLine
 10
208.8901713379
 20
165.7826306086
 30
0.0
 11
208.8901713379
 21
179.4766414665
 31
0.0
  0
LINE
  5
472
330
46A
100
AcDbEntity
  8
Default
  6
Continuous
 62
     7
 48
25.4
100
AcDbLine
 10
218.2901717179
 20
177.4766413715
 30
0.0
 11
194.584686441
 21
177.4766413715
 31
0.0
  0
TEXT
  5
473
330
46A
100
AcDbEntity
  8
Default
  6
Continuous
 62
     7
 48
25.4
100
AcDbText
 10
195.9846865708
 20
178.4766413715
 30
0.0
 40
4.0
  1
2
  7
SEACAD_arial_ttf
 11
195.9846865708
 21
182.4766413715
 31
0.0
100
AcDbText
 73
     3
  0
ENDBLK
  5
475
330
46A
100
AcDbEntity
  8
0
100
AcDbBlockEnd
  0
BLOCK
  5
480
330
476
100
AcDbEntity
  8
0
100
AcDbBlockBegin
  2
GDimGGroup4
 70
     0
 71
     0
 10
0.0
 20
0.0
 30
0.0
  3
GDimGGroup4
  1

  0
HATCH
  5
478
330
476
100
AcDbEntity
  8
Default
  6
Continuous
 62
     7
 48
25.4
100
AcDbHatch
 10
0.0
 20
0.0
 30
0.0
210
0.0
220
0.0
230
1.0
  2
SOLID
 70
     1
 71
     0
 91
        1
 92
        1
 93
        3
 72
     1
 10
214.2901715278957
 20
178.1433080698385
 11
210.2901713379059
 21
177.4766413715069
 72
     1
 10
210.2901713379059
 20
177.4766413715069
 11
214.2901715278957
 21
176.8099746731753
 72
     1
 10
214.2901715278957
 20
176.8099746731753
 11
214.2901715278957
 21
178.1433080698385
 97
        0
 75
     0
 76
     1
 98
        0
  0
LWPOLYLINE
  5
479
330
476
100
AcDbEntity
  8
Default
  6
Continuous
 62
     7
 48
25.4
370
    20
100
AcDbPolyline
 90
        4
 70
     1
 43
0.00025
 10
214.2901715279
 20
178.1433080698
 10
210.2901713379
 20
177.4766413715
 10
214.2901715279
 20
176.8099746732
 10
214.2901715279
 20
178.1433080698
  0
HATCH
  5
47A
330
476
100
AcDbEntity
  8
Default
  6
Continuous
 62
     7
 48
25.4
100
AcDbHatch
 10
0.0
 20
0.0
 30
0.0
210
0.0
220
0.0
230
1.0
  2
SOLID
 70
     1
 71
     0
 91
        1
 92
        1
 93
        3
 72
     1
 10
208.3901711479161
 20
178.1433080698385
 11
208.3901711479161
 21
176.8099746731753
 72
     1
 10
208.3901711479161
 20
176.8099746731753
 11
212.3901713379059
 21
177.4766413715069
 72
     1
 10
212.3901713379059
 20
177.4766413715069
 11
208.3901711479161
 21
178.1433080698385
 97
        0
 75
     0
 76
     1
 98
        0
  0
LWPOLYLINE
  5
47B
330
476
100
AcDbEntity
  8
Default
  6
Continuous
 62
     7
 48
25.4
370
    20
100
AcDbPolyline
 90
        4
 70
     1
 43
0.00025
 10
208.3901711479
 20
178.1433080698
 10
212.3901713379
 20
177.4766413715
 10
208.3901711479
 20
176.8099746732
 10
208.3901711479
 20
178.1433080698
  0
LINE
  5
47C
330
476
100
AcDbEntity
  8
Default
  6
Continuous
 62
     7
 48
25.4
100
AcDbLine
 10
210.2901713379
 20
164.3826306086
 30
0.0
 11
210.2901713379
 21
179.4766414665
 31
0.0
  0
LINE
  5
47D
330
476
100
AcDbEntity
  8
Default
  6
Continuous
 62
     7
 48
25.4
100
AcDbLine
 10
212.3901713379
 20
157.7376158171
 30
0.0
 11
212.3901713379
 21
179.4766414665
 31
0.0
  0
LINE
  5
47E
330
476
100
AcDbEntity
  8
Default
  6
Continuous
 62
     7
 48
25.4
100
AcDbLine
 10
210.2901713379
 20
177.4766413715
 30
0.0
 11
223.8991429486
 21
177.4766413715
 31
0.0
  0
TEXT
  5
47F
330
476
100
AcDbEntity
  8
Default
  6
Continuous
 62
     7
 48
25.4
100
AcDbText
 10
219.3687080361
 20
178.4766413715
 30
0.0
 40
4.0
  1
3
  7
SEACAD_arial_ttf
 11
219.3687080361
 21
182.4766413715
 31
0.0
100
AcDbText
 73
     3
  0
ENDBLK
  5
481
330
476
100
AcDbEntity
  8
0
100
AcDbBlockEnd
  0
BLOCK
  5
48B
330
482
100
AcDbEntity
  8
0
100
AcDbBlockBegin
  2
GDimGGroup5
 70
     0
 71
     0
 10
0.0
 20
0.0
 30
0.0
  3
GDimGGroup5
  1

  0
HATCH
  5
484
330
482
100
AcDbEntity
  8
Default
  6
Continuous
 62
     7
 48
25.4
100
AcDbHatch
 10
0.0
 20
0.0
 30
0.0
210
0.0
220
0.0
230
1.0
  2
SOLID
 70
     1
 71
     0
 91
        1
 92
        1
 93
        3
 72
     1
 10
141.3359197834817
 20
233.3181384066784
 11
145.3359199734715
 21
233.98480510501
 72
     1
 10
145.3359199734715
 20
233.98480510501
 11
141.3359197834817
 21
234.6514718033417
 72
     1
 10
141.3359197834817
 20
234.6514718033417
 11
141.3359197834817
 21
233.3181384066784
 97
        0
 75
     0
 76
     1
 98
        0
  0
LWPOLYLINE
  5
485
330
482
100
AcDbEntity
  8
Default
  6
Continuous
 62
     7
 48
25.4
370
    20
100
AcDbPolyline
 90
        4
 70
     1
 43
0.00025
 10
141.3359197835
 20
233.3181384067
 10
145.3359199735
 20
233.984805105
 10
141.3359197835
 20
234.6514718033
 10
141.3359197835
 20
233.3181384067
  0
HATCH
  5
486
330
482
100
AcDbEntity
  8
Default
  6
Continuous
 62
     7
 48
25.4
100
AcDbHatch
 10
0.0
 20
0.0
 30
0.0
210
0.0
220
0.0
230
1.0
  2
SOLID
 70
     1
 71
     0
 91
        1
 92
        1
 93
        3
 72
     1
 10
152.8359201634613
 20
233.3181384066784
 11
152.8359201634613
 21
234.6514718033417
 72
     1
 10
152.8359201634613
 20
234.6514718033417
 11
148.8359199734715
 21
233.98480510501
 72
     1
 10
148.8359199734715
 20
233.98480510501
 11
152.8359201634613
 21
233.3181384066784
 97
        0
 75
     0
 76
     1
 98
        0
  0
LWPOLYLINE
  5
487
330
482
100
AcDbEntity
  8
Default
  6
Continuous
 62
     7
 48
25.4
370
    20
100
AcDbPolyline
 90
        4
 70
     1
 43
0.00025
 10
152.8359201635
 20
233.3181384067
 10
148.8359199735
 20
233.984805105
 10
152.8359201635
 20
234.6514718033
 10
152.8359201635
 20
233.3181384067
  0
LINE
  5
488
330
482
100
AcDbEntity
  8
Default
  6
Continuous
 62
     7
 48
25.4
100
AcDbLine
 10
148.8359199735
 20
243.178620349
 30
0.0
 11
148.8359199735
 21
231.98480501
 31
0.0
  0
LINE
  5
489
330
482
100
AcDbEntity
  8
Default
  6
Continuous
 62
     7
 48
25.4
100
AcDbLine
 10
137.3359195935
 20
233.984805105
 30
0.0
 11
161.0188426497
 21
233.984805105
 31
0.0
  0
TEXT
  5
48A
330
482
100
AcDbEntity
  8
Default
  6
Continuous
 62
     7
 48
25.4
100
AcDbText
 10
156.4884077372
 20
234.984805105
 30
0.0
 40
4.0
  1
5
  7
SEACAD_arial_ttf
 11
156.4884077372
 21
238.984805105
 31
0.0
100
AcDbText
 73
     3
  0
ENDBLK
  5
48C
330
482
100
AcDbEntity
  8
0
100
AcDbBlockEnd
  0
BLOCK
  5
498
330
48D
100
AcDbEntity
  8
0
100
AcDbBlockBegin
  2
GDimGGroup6
 70
     0
 71
     0
 10
0.0
 20
0.0
 30
0.0
  3
GDimGGroup6
  1

  0
HATCH
  5
48F
330
48D
100
AcDbEntity
  8
Default
  6
Continuous
 62
     7
 48
25.4
100
AcDbHatch
 10
0.0
 20
0.0
 30
0.0
210
0.0
220
0.0
230
1.0
  2
SOLID
 70
     1
 71
     0
 91
        1
 92
        1
 93
        3
 72
     1
 10
223.0220144718835
 20
253.2405971518014
 11
221.6886810752203
 21
253.2405971518014
 72
     1
 10
221.6886810752203
 20
253.2405971518014
 11
222.3553477735519
 21
249.2405969618116
 72
     1
 10
222.3553477735519
 20
249.2405969618116
 11
223.0220144718835
 21
253.2405971518014
 97
        0
 75
     0
 76
     1
 98
        0
  0
LWPOLYLINE
  5
490
330
48D
100
AcDbEntity
  8
Default
  6
Continuous
 62
     7
 48
25.4
370
    20
100
AcDbPolyline
 90
        4
 70
     1
 43
0.00025
 10
223.0220144719
 20
253.2405971518
 10
222.3553477736
 20
249.2405969618
 10
221.6886810752
 20
253.2405971518
 10
223.0220144719
 20
253.2405971518
  0
HATCH
  5
491
330
48D
100
AcDbEntity
  8
Default
  6
Continuous
 62
     7
 48
25.4
100
AcDbHatch
 10
0.0
 20
0.0
 30
0.0
210
0.0
220
0.0
230
1.0
  2
SOLID
 70
     1
 71
     0
 91
        1
 92
        1
 93
        3
 72
     1
 10
223.0220144718835
 20
259.2405967718217
 11
222.3553477735519
 21
263.2405969618116
 72
     1
 10
222.3553477735519
 20
263.2405969618116
 11
221.6886810752203
 21
259.2405967718217
 72
     1
 10
221.6886810752203
 20
259.2405967718217
 11
223.0220144718835
 21
259.2405967718217
 97
        0
 75
     0
 76
     1
 98
        0
  0
LWPOLYLINE
  5
492
330
48D
100
AcDbEntity
  8
Default
  6
Continuous
 62
     7
 48
25.4
370
    20
100
AcDbPolyline
 90
        4
 70
     1
 43
0.00025
 10
223.0220144719
 20
259.2405967718
 10
222.3553477736
 20
263.2405969618
 10
221.6886810752
 20
259.2405967718
 10
223.0220144719
 20
259.2405967718
  0
LINE
  5
493
330
48D
100
AcDbEntity
  8
Default
  6
Continuous
 62
     7
 48
25.4
100
AcDbLine
 10
209.0366414697
 20
249.2405969618
 30
0.0
 11
224.3553478685
 21
249.2405969618
 31
0.0
  0
LINE
  5
494
330
48D
100
AcDbEntity
  8
Default
  6
Continuous
 62
     7
 48
25.4
100
AcDbLine
 10
209.0366414697
 20
263.2405969618
 30
0.0
 11
224.3553478685
 21
263.2405969618
 31
0.0
  0
LINE
  5
495
330
48D
100
AcDbEntity
  8
Default
  6
Continuous
 62
     7
 48
25.4
100
AcDbLine
 10
222.3553477736
 20
249.2405969618
 30
0.0
 11
222.3553477736
 21
282.953166586
 31
0.0
  0
TEXT
  5
496
330
48D
100
AcDbEntity
  8
Default
  6
Continuous
 62
     7
 48
25.4
100
AcDbText
 10
221.3553477736
 20
275.2922965036
 30
0.0
 40
4.0
  1
20
 50
90.0
  7
SEACAD_arial_ttf
 11
217.3553477736
 21
275.2922965036
 31
0.0
100
AcDbText
 73
     3
  0
TEXT
  5
497
330
48D
100
AcDbEntity
  8
Default
  6
Continuous
 62
     7
 48
25.4
100
AcDbText
 10
221.3553477736
 20
267.9308929948
 30
0.0
 40
4.0
  1
O
 50
90.0
  7
SEACAD_semeca1_ttf
 11
217.3553477736
 21
267.9308929948
 31
0.0
100
AcDbText
 73
     3
  0
ENDBLK
  5
499
330
48D
100
AcDbEntity
  8
0
100
AcDbBlockEnd
  0
BLOCK
  5
4A4
330
49A
100
AcDbEntity
  8
0
100
AcDbBlockBegin
  2
GDimGGroup7
 70
     0
 71
     0
 10
0.0
 20
0.0
 30
0.0
  3
GDimGGroup7
  1

  0
HATCH
  5
49C
330
49A
100
AcDbEntity
  8
Default
  6
Continuous
 62
     7
 48
25.4
100
AcDbHatch
 10
0.0
 20
0.0
 30
0.0
210
0.0
220
0.0
230
1.0
  2
SOLID
 70
     1
 71
     0
 91
        1
 92
        1
 93
        3
 72
     1
 10
193.7429047407967
 20
211.250533610543
 11
197.7429049307865
 21
211.9172003088746
 72
     1
 10
197.7429049307865
 20
211.9172003088746
 11
193.7429047407967
 21
212.5838670072062
 72
     1
 10
193.7429047407967
 20
212.5838670072062
 11
193.7429047407967
 21
211.250533610543
 97
        0
 75
     0
 76
     1
 98
        0
  0
LWPOLYLINE
  5
49D
330
49A
100
AcDbEntity
  8
Default
  6
Continuous
 62
     7
 48
25.4
370
    20
100
AcDbPolyline
 90
        4
 70
     1
 43
0.00025
 10
193.7429047408
 20
211.2505336105
 10
197.7429049308
 20
211.9172003089
 10
193.7429047408
 20
212.5838670072
 10
193.7429047408
 20
211.2505336105
  0
HATCH
  5
49E
330
49A
100
AcDbEntity
  8
Default
  6
Continuous
 62
     7
 48
25.4
100
AcDbHatch
 10
0.0
 20
0.0
 30
0.0
210
0.0
220
0.0
230
1.0
  2
SOLID
 70
     1
 71
     0
 91
        1
 92
        1
 93
        3
 72
     1
 10
213.0366416597068
 20
211.250533610543
 11
213.0366416597068
 21
212.5838670072062
 72
     1
 10
213.0366416597068
 20
212.5838670072062
 11
209.036641469717
 21
211.9172003088746
 72
     1
 10
209.036641469717
 20
211.9172003088746
 11
213.0366416597068
 21
211.250533610543
 97
        0
 75
     0
 76
     1
 98
        0
  0
LWPOLYLINE
  5
49F
330
49A
100
AcDbEntity
  8
Default
  6
Continuous
 62
     7
 48
25.4
370
    20
100
AcDbPolyline
 90
        4
 70
     1
 43
0.00025
 10
213.0366416597
 20
211.2505336105
 10
209.0366414697
 20
211.9172003089
 10
213.0366416597
 20
212.5838670072
 10
213.0366416597
 20
211.2505336105
  0
LINE
  5
4A0
330
49A
100
AcDbEntity
  8
Default
  6
Continuous
 62
     7
 48
25.4
100
AcDbLine
 10
197.7429049308
 20
249.2405969618
 30
0.0
 11
197.7429049308
 21
209.9172002139
 31
0.0
  0
LINE
  5
4A1
330
49A
100
AcDbEntity
  8
Default
  6
Continuous
 62
     7
 48
25.4
100
AcDbLine
 10
209.0366414697
 20
229.6695232189
 30
0.0
 11
209.0366414697
 21
209.9172002139
 31
0.0
  0
LINE
  5
4A2
330
49A
100
AcDbEntity
  8
Default
  6
Continuous
 62
     7
 48
25.4
100
AcDbLine
 10
189.7429045508
 20
211.9172003089
 30
0.0
 11
223.4798757578
 21
211.9172003089
 31
0.0
  0
TEXT
  5
4A3
330
49A
100
AcDbEntity
  8
Default
  6
Continuous
 62
     7
 48
25.4
100
AcDbText
 10
215.8190049017
 20
212.9172003089
 30
0.0
 40
4.0
  1
16
  7
SEACAD_arial_ttf
 11
215.8190049017
 21
216.9172003089
 31
0.0
100
AcDbText
 73
     3
  0
ENDBLK
  5
4A5
330
49A
100
AcDbEntity
  8
0
100
AcDbBlockEnd
  0
BLOCK
  5
4B1
330
4A6
100
AcDbEntity
  8
0
100
AcDbBlockBegin
  2
GDimGGroup8
 70
     0
 71
     0
 10
0.0
 20
0.0
 30
0.0
  3
GDimGGroup8
  1

  0
HATCH
  5
4A8
330
4A6
100
AcDbEntity
  8
Default
  6
Continuous
 62
     7
 48
25.4
100
AcDbHatch
 10
0.0
 20
0.0
 30
0.0
210
0.0
220
0.0
230
1.0
  2
SOLID
 70
     1
 71
     0
 91
        1
 92
        1
 93
        3
 72
     1
 10
41.92665446732812
 20
371.2695230288904
 11
43.25998786399138
 21
371.2695230288904
 72
     1
 10
43.25998786399138
 20
371.2695230288904
 11
42.59332116565975
 21
375.2695232188802
 72
     1
 10
42.59332116565975
 20
375.2695232188802
 11
41.92665446732812
 21
371.2695230288904
 97
        0
 75
     0
 76
     1
 98
        0
  0
LWPOLYLINE
  5
4A9
330
4A6
100
AcDbEntity
  8
Default
  6
Continuous
 62
     7
 48
25.4
370
    20
100
AcDbPolyline
 90
        4
 70
     1
 43
0.00025
 10
41.9266544673
 20
371.2695230289
 10
42.5933211657
 20
375.2695232189
 10
43.259987864
 20
371.2695230289
 10
41.9266544673
 20
371.2695230289
  0
HATCH
  5
4AA
330
4A6
100
AcDbEntity
  8
Default
  6
Continuous
 62
     7
 48
25.4
100
AcDbHatch
 10
0.0
 20
0.0
 30
0.0
210
0.0
220
0.0
230
1.0
  2
SOLID
 70
     1
 71
     0
 91
        1
 92
        1
 93
        3
 72
     1
 10
41.92665446732812
 20
232.2695235280793
 11
42.59332116565975
 21
228.2695233380895
 72
     1
 10
42.59332116565975
 20
228.2695233380895
 11
43.25998786399138
 21
232.2695235280793
 72
     1
 10
43.25998786399138
 20
232.2695235280793
 11
41.92665446732812
 21
232.2695235280793
 97
        0
 75
     0
 76
     1
 98
        0
  0
LWPOLYLINE
  5
4AB
330
4A6
100
AcDbEntity
  8
Default
  6
Continuous
 62
     7
 48
25.4
370
    20
100
AcDbPolyline
 90
        4
 70
     1
 43
0.00025
 10
41.9266544673
 20
232.2695235281
 10
42.5933211657
 20
228.2695233381
 10
43.259987864
 20
232.2695235281
 10
41.9266544673
 20
232.2695235281
  0
LINE
  5
4AC
330
4A6
100
AcDbEntity
  8
Default
  6
Continuous
 62
     7
 48
25.4
100
AcDbLine
 10
146.7359199735
 20
375.2695232189
 30
0.0
 11
40.5933210707
 21
375.2695232189
 31
0.0
  0
LINE
  5
4AD
330
4A6
100
AcDbEntity
  8
Default
  6
Continuous
 62
     7
 48
25.4
100
AcDbLine
 10
146.7359199735
 20
228.2695232189
 30
0.0
 11
40.5933210707
 21
228.2695232189
 31
0.0
  0
LINE
  5
4AE
330
4A6
100
AcDbEntity
  8
Default
  6
Continuous
 62
     7
 48
25.4
100
AcDbLine
 10
42.5933211657
 20
375.2695232189
 30
0.0
 11
42.5933211657
 21
228.2695233381
 31
0.0
  0
TEXT
  5
4AF
330
4A6
100
AcDbEntity
  8
Default
  6
Continuous
 62
     7
 48
25.4
100
AcDbText
 10
41.5933211657
 20
300.754572859
 30
0.0
 40
4.0
  1
210
 50
90.0
  7
SEACAD_arial_ttf
 11
37.5933211657
 21
300.754572859
 31
0.0
100
AcDbText
 73
     3
  0
TEXT
  5
4B0
330
4A6
100
AcDbEntity
  8
Default
  6
Continuous
 62
     7
 48
25.4
100
AcDbText
 10
41.5933211657
 20
293.3931693502
 30
0.0
 40
4.0
  1
O
 50
90.0
  7
SEACAD_semeca1_ttf
 11
37.5933211657
 21
293.3931693502
 31
0.0
100
AcDbText
 73
     3
  0
ENDBLK
  5
4B2
330
4A6
100
AcDbEntity
  8
0
100
AcDbBlockEnd
  0
BLOCK
  5
4BE
330
4B3
100
AcDbEntity
  8
0
100
AcDbBlockBegin
  2
GDimGGroup9
 70
     0
 71
     0
 10
0.0
 20
0.0
 30
0.0
  3
GDimGGroup9
  1

  0
HATCH
  5
4B5
330
4B3
100
AcDbEntity
  8
Default
  6
Continuous
 62
     7
 48
25.4
100
AcDbHatch
 10
0.0
 20
0.0
 30
0.0
210
0.0
220
0.0
230
1.0
  2
SOLID
 70
     1
 71
     0
 91
        1
 92
        1
 93
        3
 72
     1
 10
95.32059080304215
 20
282.7037366022496
 11
95.98725750137379
 21
278.7037364122598
 72
     1
 10
95.98725750137379
 20
278.7037364122598
 11
96.65392419970543
 21
282.7037366022496
 72
     1
 10
96.65392419970543
 20
282.7037366022496
 11
95.32059080304215
 21
282.7037366022496
 97
        0
 75
     0
 76
     1
 98
        0
  0
LWPOLYLINE
  5
4B6
330
4B3
100
AcDbEntity
  8
Default
  6
Continuous
 62
     7
 48
25.4
370
    20
100
AcDbPolyline
 90
        4
 70
     1
 43
0.00025
 10
95.320590803
 20
282.7037366022
 10
95.9872575014
 20
278.7037364123
 10
96.6539241997
 20
282.7037366022
 10
95.320590803
 20
282.7037366022
  0
HATCH
  5
4B7
330
4B3
100
AcDbEntity
  8
Default
  6
Continuous
 62
     7
 48
25.4
100
AcDbHatch
 10
0.0
 20
0.0
 30
0.0
210
0.0
220
0.0
230
1.0
  2
SOLID
 70
     1
 71
     0
 91
        1
 92
        1
 93
        3
 72
     1
 10
95.32059080304215
 20
320.8356711928873
 11
96.65392419970543
 21
320.8356711928873
 72
     1
 10
96.65392419970543
 20
320.8356711928873
 11
95.98725750137379
 21
324.8356713828771
 72
     1
 10
95.98725750137379
 20
324.8356713828771
 11
95.32059080304215
 21
320.8356711928873
 97
        0
 75
     0
 76
     1
 98
        0
  0
LWPOLYLINE
  5
4B8
330
4B3
100
AcDbEntity
  8
Default
  6
Continuous
 62
     7
 48
25.4
370
    20
100
AcDbPolyline
 90
        4
 70
     1
 43
0.00025
 10
95.320590803
 20
320.8356711929
 10
95.9872575014
 20
324.8356713829
 10
96.6539241997
 20
320.8356711929
 10
95.320590803
 20
320.8356711929
  0
LINE
  5
4B9
330
4B3
100
AcDbEntity
  8
Default
  6
Continuous
 62
     7
 48
25.4
100
AcDbLine
 10
159.6302510707
 20
278.7037364123
 30
0.0
 11
93.9872574064
 21
278.7037364123
 31
0.0
  0
LINE
  5
4BA
330
4B3
100
AcDbEntity
  8
Default
  6
Continuous
 62
     7
 48
25.4
100
AcDbLine
 10
159.6302508427
 20
324.835673208
 30
0.0
 11
93.9872574064
 21
324.835673208
 31
0.0
  0
LINE
  5
4BB
330
4B3
100
AcDbEntity
  8
Default
  6
Continuous
 62
     7
 48
25.4
100
AcDbLine
 10
95.9872575014
 20
278.7037364123
 30
0.0
 11
95.9872575014
 21
324.8356713829
 31
0.0
  0
TEXT
  5
4BC
330
4B3
100
AcDbEntity
  8
Default
  6
Continuous
 62
     7
 48
25.4
100
AcDbText
 10
94.9872575014
 20
302.3199708693
 30
0.0
 40
4.0
  1
66
 50
90.0
  7
SEACAD_arial_ttf
 11
90.9872575014
 21
302.3199708693
 31
0.0
100
AcDbText
 73
     3
  0
TEXT
  5
4BD
330
4B3
100
AcDbEntity
  8
Default
  6
Continuous
 62
     7
 48
25.4
100
AcDbText
 10
94.9872575014
 20
294.9585673606
 30
0.0
 40
4.0
  1
O
 50
90.0
  7
SEACAD_semeca1_ttf
 11
90.9872575014
 21
294.9585673606
 31
0.0
100
AcDbText
 73
     3
  0
ENDBLK
  5
4BF
330
4B3
100
AcDbEntity
  8
0
100
AcDbBlockEnd
  0
BLOCK
  5
4C9
330
4C0
100
AcDbEntity
  8
0
100
AcDbBlockBegin
  2
GDimGGroup10
 70
     0
 71
     0
 10
0.0
 20
0.0
 30
0.0
  3
GDimGGroup10
  1

  0
HATCH
  5
4C2
330
4C0
100
AcDbEntity
  8
Default
  6
Continuous
 62
     7
 48
25.4
100
AcDbHatch
 10
0.0
 20
0.0
 30
0.0
210
0.0
220
0.0
230
1.0
  2
SOLID
 70
     1
 71
     0
 91
        1
 92
        1
 93
        3
 72
     1
 10
194.114088919703
 20
287.5695234088699
 11
192.7807555230398
 21
287.5695234088699
 72
     1
 10
192.7807555230398
 20
287.5695234088699
 11
193.4474222213714
 21
283.5695232188801
 72
     1
 10
193.4474222213714
 20
283.5695232188801
 11
194.114088919703
 21
287.5695234088699
 97
        0
 75
     0
 76
     1
 98
        0
  0
LWPOLYLINE
  5
4C3
330
4C0
100
AcDbEntity
  8
Default
  6
Continuous
 62
     7
 48
25.4
370
    20
100
AcDbPolyline
 90
        4
 70
     1
 43
0.00025
 10
194.1140889197
 20
287.5695234089
 10
193.4474222214
 20
283.5695232189
 10
192.780755523
 20
287.5695234089
 10
194.1140889197
 20
287.5695234089
  0
HATCH
  5
4C4
330
4C0
100
AcDbEntity
  8
Default
  6
Continuous
 62
     7
 48
25.4
100
AcDbHatch
 10
0.0
 20
0.0
 30
0.0
210
0.0
220
0.0
230
1.0
  2
SOLID
 70
     1
 71
     0
 91
        1
 92
        1
 93
        3
 72
     1
 10
194.114088919703
 20
315.9695245249669
 11
193.4474222213714
 21
319.9695247149567
 72
     1
 10
193.4474222213714
 20
319.9695247149567
 11
192.7807555230398
 21
315.9695245249669
 72
     1
 10
192.7807555230398
 20
315.9695245249669
 11
194.114088919703
 21
315.9695245249669
 97
        0
 75
     0
 76
     1
 98
        0
  0
LWPOLYLINE
  5
4C5
330
4C0
100
AcDbEntity
  8
Default
  6
Continuous
 62
     7
 48
25.4
370
    20
100
AcDbPolyline
 90
        4
 70
     1
 43
0.00025
 10
194.1140889197
 20
315.969524525
 10
193.4474222214
 20
319.969524715
 10
192.780755523
 20
315.969524525
 10
194.1140889197
 20
315.969524525
  0
LINE
  5
4C6
330
4C0
100
AcDbEntity
  8
Default
  6
Continuous
 62
     7
 48
25.4
100
AcDbLine
 10
193.4474222214
 20
283.5695232189
 30
0.0
 11
193.4474222214
 21
319.969524715
 31
0.0
  0
TEXT
  5
4C7
330
4C0
100
AcDbEntity
  8
Default
  6
Continuous
 62
     7
 48
25.4
100
AcDbText
 10
192.4474222214
 20
302.3197909387
 30
0.0
 40
4.0
  1
52
 50
90.0
  7
SEACAD_arial_ttf
 11
188.4474222214
 21
302.3197909387
 31
0.0
100
AcDbText
 73
     3
  0
TEXT
  5
4C8
330
4C0
100
AcDbEntity
  8
Default
  6
Continuous
 62
     7
 48
25.4
100
AcDbText
 10
192.4474222214
 20
294.9583874299
 30
0.0
 40
4.0
  1
O
 50
90.0
  7
SEACAD_semeca1_ttf
 11
188.4474222214
 21
294.9583874299
 31
0.0
100
AcDbText
 73
     3
  0
ENDBLK
  5
4CA
330
4C0
100
AcDbEntity
  8
0
100
AcDbBlockEnd
  0
BLOCK
  5
4D5
330
4CB
100
AcDbEntity
  8
0
100
AcDbBlockBegin
  2
GDimGGroup11
 70
     0
 71
     0
 10
0.0
 20
0.0
 30
0.0
  3
GDimGGroup11
  1

  0
HATCH
  5
4CD
330
4CB
100
AcDbEntity
  8
Default
  6
Continuous
 62
     7
 48
25.4
100
AcDbHatch
 10
0.0
 20
0.0
 30
0.0
210
0.0
220
0.0
230
1.0
  2
SOLID
 70
     1
 71
     0
 91
        1
 92
        1
 93
        3
 72
     1
 10
232.3366412797272
 20
400.4876683895639
 11
232.3366412797272
 21
399.1543349929005
 72
     1
 10
232.3366412797272
 20
399.1543349929005
 11
236.336641469717
 21
399.8210016912322
 72
     1
 10
236.336641469717
 20
399.8210016912322
 11
232.3366412797272
 21
400.4876683895639
 97
        0
 75
     0
 76
     1
 98
        0
  0
LWPOLYLINE
  5
4CE
330
4CB
100
AcDbEntity
  8
Default
  6
Continuous
 62
     7
 48
25.4
370
    20
100
AcDbPolyline
 90
        4
 70
     1
 43
0.00025
 10
232.3366412797
 20
400.4876683896
 10
236.3366414697
 20
399.8210016912
 10
232.3366412797
 20
399.1543349929
 10
232.3366412797
 20
400.4876683896
  0
HATCH
  5
4CF
330
4CB
100
AcDbEntity
  8
Default
  6
Continuous
 62
     7
 48
25.4
100
AcDbHatch
 10
0.0
 20
0.0
 30
0.0
210
0.0
220
0.0
230
1.0
  2
SOLID
 70
     1
 71
     0
 91
        1
 92
        1
 93
        3
 72
     1
 10
213.0366414689719
 20
400.4876683895639
 11
209.0366412789821
 21
399.8210016912322
 72
     1
 10
209.0366412789821
 20
399.8210016912322
 11
213.0366414689719
 21
399.1543349929005
 72
     1
 10
213.0366414689719
 20
399.1543349929005
 11
213.0366414689719
 21
400.4876683895639
 97
        0
 75
     0
 76
     1
 98
        0
  0
LWPOLYLINE
  5
4D0
330
4CB
100
AcDbEntity
  8
Default
  6
Continuous
 62
     7
 48
25.4
370
    20
100
AcDbPolyline
 90
        4
 70
     1
 43
0.00025
 10
213.036641469
 20
400.4876683896
 10
209.036641279
 20
399.8210016912
 10
213.036641469
 20
399.1543349929
 10
213.036641469
 20
400.4876683896
  0
LINE
  5
4D1
330
4CB
100
AcDbEntity
  8
Default
  6
Continuous
 62
     7
 48
25.4
100
AcDbLine
 10
236.3366414697
 20
375.9695232189
 30
0.0
 11
236.3366414697
 21
401.8210017862
 31
0.0
  0
LINE
  5
4D2
330
4CB
100
AcDbEntity
  8
Default
  6
Continuous
 62
     7
 48
25.4
100
AcDbLine
 10
209.0366414697
 20
373.8695232189
 30
0.0
 11
209.0366414697
 21
401.8210017862
 31
0.0
  0
LINE
  5
4D3
330
4CB
100
AcDbEntity
  8
Default
  6
Continuous
 62
     7
 48
25.4
100
AcDbLine
 10
236.3366414697
 20
399.8210016912
 30
0.0
 11
209.036641279
 21
399.8210016912
 31
0.0
  0
TEXT
  5
4D4
330
4CB
100
AcDbEntity
  8
Default
  6
Continuous
 62
     7
 48
25.4
100
AcDbText
 10
219.5562065917
 20
400.8210016912
 30
0.0
 40
4.0
  1
39
  7
SEACAD_arial_ttf
 11
219.5562065917
 21
404.8210016912
 31
0.0
100
AcDbText
 73
     3
  0
ENDBLK
  5
4D6
330
4CB
100
AcDbEntity
  8
0
100
AcDbBlockEnd
  0
BLOCK
  5
4E1
330
4D7
100
AcDbEntity
  8
0
100
AcDbBlockBegin
  2
GDimGGroup12
 70
     0
 71
     0
 10
0.0
 20
0.0
 30
0.0
  3
GDimGGroup12
  1

  0
HATCH
  5
4D9
330
4D7
100
AcDbEntity
  8
Default
  6
Continuous
 62
     7
 48
25.4
100
AcDbHatch
 10
0.0
 20
0.0
 30
0.0
210
0.0
220
0.0
230
1.0
  2
SOLID
 70
     1
 71
     0
 91
        1
 92
        1
 93
        3
 72
     1
 10
289.6208726715988
 20
345.7224973274371
 11
288.2875392749355
 21
345.7224973274371
 72
     1
 10
288.2875392749355
 20
345.7224973274371
 11
288.9542059732672
 21
341.7224971374473
 72
     1
 10
288.9542059732672
 20
341.7224971374473
 11
289.6208726715988
 21
345.7224973274371
 97
        0
 75
     0
 76
     1
 98
        0
  0
LWPOLYLINE
  5
4DA
330
4D7
100
AcDbEntity
  8
Default
  6
Continuous
 62
     7
 48
25.4
370
    20
100
AcDbPolyline
 90
        4
 70
     1
 43
0.00025
 10
289.6208726716
 20
345.7224973274
 10
288.9542059733
 20
341.7224971374
 10
288.2875392749
 20
345.7224973274
 10
289.6208726716
 20
345.7224973274
  0
HATCH
  5
4DB
330
4D7
100
AcDbEntity
  8
Default
  6
Continuous
 62
     7
 48
25.4
100
AcDbHatch
 10
0.0
 20
0.0
 30
0.0
210
0.0
220
0.0
230
1.0
  2
SOLID
 70
     1
 71
     0
 91
        1
 92
        1
 93
        3
 72
     1
 10
289.6208726715988
 20
355.1695364324352
 11
288.9542059732672
 21
359.169536622425
 72
     1
 10
288.9542059732672
 20
359.169536622425
 11
288.2875392749355
 21
355.1695364324352
 72
     1
 10
288.2875392749355
 20
355.1695364324352
 11
289.6208726715988
 21
355.1695364324352
 97
        0
 75
     0
 76
     1
 98
        0
  0
LWPOLYLINE
  5
4DC
330
4D7
100
AcDbEntity
  8
Default
  6
Continuous
 62
     7
 48
25.4
370
    20
100
AcDbPolyline
 90
        4
 70
     1
 43
0.00025
 10
289.6208726716
 20
355.1695364324
 10
288.9542059733
 20
359.1695366224
 10
288.2875392749
 20
355.1695364324
 10
289.6208726716
 20
355.1695364324
  0
LINE
  5
4DD
330
4D7
100
AcDbEntity
  8
Default
  6
Continuous
 62
     7
 48
25.4
100
AcDbLine
 10
243.8005881144
 20
341.7224971374
 30
0.0
 11
290.9542060683
 21
341.7224971374
 31
0.0
  0
LINE
  5
4DE
330
4D7
100
AcDbEntity
  8
Default
  6
Continuous
 62
     7
 48
25.4
100
AcDbLine
 10
244.3392092297
 20
359.1695372097
 30
0.0
 11
290.9542060683
 21
359.1695372097
 31
0.0
  0
LINE
  5
4DF
330
4D7
100
AcDbEntity
  8
Default
  6
Continuous
 62
     7
 48
25.4
100
AcDbLine
 10
288.9542059733
 20
341.7224971374
 30
0.0
 11
288.9542059733
 21
359.1695366224
 31
0.0
  0
TEXT
  5
4E0
330
4D7
100
AcDbEntity
  8
Default
  6
Continuous
 62
     7
 48
25.4
100
AcDbText
 10
287.9542059733
 20
347.3155820973
 30
0.0
 40
4.0
  1
25
 50
90.0
  7
SEACAD_arial_ttf
 11
283.9542059733
 21
347.3155820973
 31
0.0
100
AcDbText
 73
     3
  0
ENDBLK
  5
4E2
330
4D7
100
AcDbEntity
  8
0
100
AcDbBlockEnd
  0
BLOCK
  5
4ED
330
4E3
100
AcDbEntity
  8
0
100
AcDbBlockBegin
  2
GDimGGroup13
 70
     0
 71
     0
 10
0.0
 20
0.0
 30
0.0
  3
GDimGGroup13
  1

  0
HATCH
  5
4E5
330
4E3
100
AcDbEntity
  8
Default
  6
Continuous
 62
     7
 48
25.4
100
AcDbHatch
 10
0.0
 20
0.0
 30
0.0
210
0.0
220
0.0
230
1.0
  2
SOLID
 70
     1
 71
     0
 91
        1
 92
        1
 93
        3
 72
     1
 10
289.6208729654501
 20
371.9695230288904
 11
288.9542062671184
 21
375.9695232188802
 72
     1
 10
288.9542062671184
 20
375.9695232188802
 11
288.2875395687868
 21
371.9695230288904
 72
     1
 10
288.2875395687868
 20
371.9695230288904
 11
289.6208729654501
 21
371.9695230288904
 97
        0
 75
     0
 76
     1
 98
        0
  0
LWPOLYLINE
  5
4E6
330
4E3
100
AcDbEntity
  8
Default
  6
Continuous
 62
     7
 48
25.4
370
    20
100
AcDbPolyline
 90
        4
 70
     1
 43
0.00025
 10
289.6208729655
 20
371.9695230289
 10
288.9542062671
 20
375.9695232189
 10
288.2875395688
 20
371.9695230289
 10
289.6208729655
 20
371.9695230289
  0
HATCH
  5
4E7
330
4E3
100
AcDbEntity
  8
Default
  6
Continuous
 62
     7
 48
25.4
100
AcDbHatch
 10
0.0
 20
0.0
 30
0.0
210
0.0
220
0.0
230
1.0
  2
SOLID
 70
     1
 71
     0
 91
        1
 92
        1
 93
        3
 72
     1
 10
289.6208729654501
 20
363.1695370464127
 11
288.2875395687868
 21
363.1695370464127
 72
     1
 10
288.2875395687868
 20
363.1695370464127
 11
288.9542062671184
 21
359.1695368564229
 72
     1
 10
288.9542062671184
 20
359.1695368564229
 11
289.6208729654501
 21
363.1695370464127
 97
        0
 75
     0
 76
     1
 98
        0
  0
LWPOLYLINE
  5
4E8
330
4E3
100
AcDbEntity
  8
Default
  6
Continuous
 62
     7
 48
25.4
370
    20
100
AcDbPolyline
 90
        4
 70
     1
 43
0.00025
 10
289.6208729655
 20
363.1695370464
 10
288.9542062671
 20
359.1695368564
 10
288.2875395688
 20
363.1695370464
 10
289.6208729655
 20
363.1695370464
  0
LINE
  5
4E9
330
4E3
100
AcDbEntity
  8
Default
  6
Continuous
 62
     7
 48
25.4
100
AcDbLine
 10
236.3366414697
 20
375.9695232189
 30
0.0
 11
290.9542063621
 21
375.9695232189
 31
0.0
  0
LINE
  5
4EA
330
4E3
100
AcDbEntity
  8
Default
  6
Continuous
 62
     7
 48
25.4
100
AcDbLine
 10
244.3392092297
 20
359.1695372097
 30
0.0
 11
290.9542063621
 21
359.1695372097
 31
0.0
  0
LINE
  5
4EB
330
4E3
100
AcDbEntity
  8
Default
  6
Continuous
 62
     7
 48
25.4
100
AcDbLine
 10
288.9542062671
 20
375.9695232189
 30
0.0
 11
288.9542062671
 21
359.1695368564
 31
0.0
  0
TEXT
  5
4EC
330
4E3
100
AcDbEntity
  8
Default
  6
Continuous
 62
     7
 48
25.4
100
AcDbText
 10
287.9542062671
 20
364.439095255
 30
0.0
 40
4.0
  1
24
 50
90.0
  7
SEACAD_arial_ttf
 11
283.9542062671
 21
364.439095255
 31
0.0
100
AcDbText
 73
     3
  0
ENDBLK
  5
4EE
330
4E3
100
AcDbEntity
  8
0
100
AcDbBlockEnd
  0
BLOCK
  5
4FB
330
4EF
100
AcDbEntity
  8
0
100
AcDbBlockBegin
  2
GDimGGroup14
 70
     0
 71
     0
 10
0.0
 20
0.0
 30
0.0
  3
GDimGGroup14
  1

  0
HATCH
  5
4F1
330
4EF
100
AcDbEntity
  8
Default
  6
Continuous
 62
     7
 48
25.4
100
AcDbHatch
 10
0.0
 20
0.0
 30
0.0
210
0.0
220
0.0
230
1.0
  2
SOLID
 70
     1
 71
     0
 91
        1
 92
        1
 93
        3
 72
     1
 10
289.2105091139949
 20
305.7695234088699
 11
287.8771757173316
 21
305.7695234088699
 72
     1
 10
287.8771757173316
 20
305.7695234088699
 11
288.5438424156632
 21
301.7695232188801
 72
     1
 10
288.5438424156632
 20
301.7695232188801
 11
289.2105091139949
 21
305.7695234088699
 97
        0
 75
     0
 76
     1
 98
        0
  0
LWPOLYLINE
  5
4F2
330
4EF
100
AcDbEntity
  8
Default
  6
Continuous
 62
     7
 48
25.4
370
    20
100
AcDbPolyline
 90
        4
 70
     1
 43
0.00025
 10
289.210509114
 20
305.7695234089
 10
288.5438424157
 20
301.7695232189
 10
287.8771757173
 20
305.7695234089
 10
289.210509114
 20
305.7695234089
  0
HATCH
  5
4F3
330
4EF
100
AcDbEntity
  8
Default
  6
Continuous
 62
     7
 48
25.4
100
AcDbHatch
 10
0.0
 20
0.0
 30
0.0
210
0.0
220
0.0
230
1.0
  2
SOLID
 70
     1
 71
     0
 91
        1
 92
        1
 93
        3
 72
     1
 10
289.2105091139949
 20
324.8595230175654
 11
288.5438424156632
 21
328.8595232075552
 72
     1
 10
288.5438424156632
 20
328.8595232075552
 11
287.8771757173316
 21
324.8595230175654
 72
     1
 10
287.8771757173316
 20
324.8595230175654
 11
289.2105091139949
 21
324.8595230175654
 97
        0
 75
     0
 76
     1
 98
        0
  0
LWPOLYLINE
  5
4F4
330
4EF
100
AcDbEntity
  8
Default
  6
Continuous
 62
     7
 48
25.4
370
    20
100
AcDbPolyline
 90
        4
 70
     1
 43
0.00025
 10
289.210509114
 20
324.8595230176
 10
288.5438424157
 20
328.8595232076
 10
287.8771757173
 20
324.8595230176
 10
289.210509114
 20
324.8595230176
  0
LINE
  5
4F5
330
4EF
100
AcDbEntity
  8
Default
  6
Continuous
 62
     7
 48
25.4
100
AcDbLine
 10
257.0627924608
 20
301.7695232189
 30
0.0
 11
290.5438425107
 21
301.7695232189
 31
0.0
  0
LINE
  5
4F6
330
4EF
100
AcDbEntity
  8
Default
  6
Continuous
 62
     7
 48
25.4
100
AcDbLine
 10
209.0366414697
 20
328.8595232189
 30
0.0
 11
290.5438425107
 21
328.8595232189
 31
0.0
  0
LINE
  5
4F7
330
4EF
100
AcDbEntity
  8
Default
  6
Continuous
 62
     7
 48
25.4
100
AcDbLine
 10
288.5438424157
 20
270.1994052982
 30
0.0
 11
288.5438424157
 21
328.8595232076
 31
0.0
  0
TEXT
  5
4F8
330
4EF
100
AcDbEntity
  8
Default
  6
Continuous
 62
     7
 48
25.4
100
AcDbText
 10
281.5438424157
 20
286.3124493493
 30
0.0
 40
4.0
  1
38.7
 50
90.0
  7
SEACAD_arial_ttf
 11
277.5438424157
 21
286.3124493493
 31
0.0
100
AcDbText
 73
     3
  0
TEXT
  5
4F9
330
4EF
100
AcDbEntity
  8
Default
  6
Continuous
 62
     7
 48
25.4
100
AcDbText
 10
281.5438424157
 20
271.599405871
 30
0.0
 40
4.0
  1
MAX
 50
90.0
  7
SEACAD_arial_ttf
 11
277.5438424157
 21
271.599405871
 31
0.0
100
AcDbText
 73
     3
  0
TEXT
  5
4FA
330
4EF
100
AcDbEntity
  8
Default
  6
Continuous
 62
     7
 48
25.4
100
AcDbText
 10
287.5438424157
 20
271.599405871
 30
0.0
 40
4.0
  1
MIN 35
 50
90.0
  7
SEACAD_arial_ttf
 11
283.5438424157
 21
271.599405871
 31
0.0
100
AcDbText
 73
     3
  0
ENDBLK
  5
4FC
330
4EF
100
AcDbEntity
  8
0
100
AcDbBlockEnd
  0
BLOCK
  5
509
330
4FD
100
AcDbEntity
  8
0
100
AcDbBlockBegin
  2
GDimGGroup15
 70
     0
 71
     0
 10
0.0
 20
0.0
 30
0.0
  3
GDimGGroup15
  1

  0
HATCH
  5
4FF
330
4FD
100
AcDbEntity
  8
Default
  6
Continuous
 62
     7
 48
25.4
100
AcDbHatch
 10
0.0
 20
0.0
 30
0.0
210
0.0
220
0.0
230
1.0
  2
SOLID
 70
     1
 71
     0
 91
        1
 92
        1
 93
        3
 72
     1
 10
271.130517694349
 20
324.8595230288903
 11
270.4638509960174
 21
328.8595232188801
 72
     1
 10
270.4638509960174
 20
328.8595232188801
 11
269.7971842976858
 21
324.8595230288903
 72
     1
 10
269.7971842976858
 20
324.8595230288903
 11
271.1305176943491
 21
324.8595230288903
 97
        0
 75
     0
 76
     1
 98
        0
  0
LWPOLYLINE
  5
500
330
4FD
100
AcDbEntity
  8
Default
  6
Continuous
 62
     7
 48
25.4
370
    20
100
AcDbPolyline
 90
        4
 70
     1
 43
0.00025
 10
271.1305176943
 20
324.8595230289
 10
270.463850996
 20
328.8595232189
 10
269.7971842977
 20
324.8595230289
 10
271.1305176943
 20
324.8595230289
  0
HATCH
  5
501
330
4FD
100
AcDbEntity
  8
Default
  6
Continuous
 62
     7
 48
25.4
100
AcDbHatch
 10
0.0
 20
0.0
 30
0.0
210
0.0
220
0.0
230
1.0
  2
SOLID
 70
     1
 71
     0
 91
        1
 92
        1
 93
        3
 72
     1
 10
271.130517694349
 20
345.7224973274371
 11
269.7971842976857
 21
345.7224973274371
 72
     1
 10
269.7971842976858
 20
345.7224973274371
 11
270.4638509960174
 21
341.7224971374473
 72
     1
 10
270.4638509960174
 20
341.7224971374473
 11
271.1305176943491
 21
345.7224973274371
 97
        0
 75
     0
 76
     1
 98
        0
  0
LWPOLYLINE
  5
502
330
4FD
100
AcDbEntity
  8
Default
  6
Continuous
 62
     7
 48
25.4
370
    20
100
AcDbPolyline
 90
        4
 70
     1
 43
0.00025
 10
271.1305176943
 20
345.7224973274
 10
270.463850996
 20
341.7224971374
 10
269.7971842977
 20
345.7224973274
 10
271.1305176943
 20
345.7224973274
  0
LINE
  5
503
330
4FD
100
AcDbEntity
  8
Default
  6
Continuous
 62
     7
 48
25.4
100
AcDbLine
 10
209.0366414697
 20
328.8595232189
 30
0.0
 11
272.463851091
 21
328.8595232189
 31
0.0
  0
LINE
  5
504
330
4FD
100
AcDbEntity
  8
Default
  6
Continuous
 62
     7
 48
25.4
100
AcDbLine
 10
243.800588645
 20
341.7224971374
 30
0.0
 11
272.463851091
 21
341.7224971374
 31
0.0
  0
LINE
  5
505
330
4FD
100
AcDbEntity
  8
Default
  6
Continuous
 62
     7
 48
25.4
100
AcDbLine
 10
270.463850996
 20
268.7210853219
 30
0.0
 11
270.463850996
 21
349.7224974454
 31
0.0
  0
TEXT
  5
506
330
4FD
100
AcDbEntity
  8
Default
  6
Continuous
 62
     7
 48
25.4
100
AcDbText
 10
263.463850996
 20
284.8341291369
 30
0.0
 40
4.0
  1
29.75
 50
90.0
  7
SEACAD_arial_ttf
 11
259.463850996
 21
284.8341291369
 31
0.0
100
AcDbText
 73
     3
  0
TEXT
  5
507
330
4FD
100
AcDbEntity
  8
Default
  6
Continuous
 62
     7
 48
25.4
100
AcDbText
 10
263.463850996
 20
270.1210856587
 30
0.0
 40
4.0
  1
MAX
 50
90.0
  7
SEACAD_arial_ttf
 11
259.463850996
 21
270.1210856587
 31
0.0
100
AcDbText
 73
     3
  0
TEXT
  5
508
330
4FD
100
AcDbEntity
  8
Default
  6
Continuous
 62
     7
 48
25.4
100
AcDbText
 10
269.463850996
 20
270.1210856587
 30
0.0
 40
4.0
  1
MIN 14.75
 50
90.0
  7
SEACAD_arial_ttf
 11
265.463850996
 21
270.1210856587
 31
0.0
100
AcDbText
 73
     3
  0
ENDBLK
  5
50A
330
4FD
100
AcDbEntity
  8
0
100
AcDbBlockEnd
  0
BLOCK
  5
514
330
50B
100
AcDbEntity
  8
0
100
AcDbBlockBegin
  2
GDimGGroup16
 70
     0
 71
     0
 10
0.0
 20
0.0
 30
0.0
  3
GDimGGroup16
  1

  0
HATCH
  5
50D
330
50B
100
AcDbEntity
  8
Default
  6
Continuous
 62
     7
 48
25.4
100
AcDbHatch
 10
0.0
 20
0.0
 30
0.0
210
0.0
220
0.0
230
1.0
  2
SOLID
 70
     1
 71
     0
 91
        1
 92
        1
 93
        3
 72
     1
 10
167.37074395427
 20
295.2959189058777
 11
166.0374105576068
 21
295.2959189058777
 72
     1
 10
166.0374105576068
 20
295.2959189058777
 11
166.7040772559384
 21
291.2959187158879
 72
     1
 10
166.7040772559384
 20
291.2959187158879
 11
167.37074395427
 21
295.2959189058777
 97
        0
 75
     0
 76
     1
 98
        0
  0
LWPOLYLINE
  5
50E
330
50B
100
AcDbEntity
  8
Default
  6
Continuous
 62
     7
 48
25.4
370
    20
100
AcDbPolyline
 90
        4
 70
     1
 43
0.00025
 10
167.3707439543
 20
295.2959189059
 10
166.7040772559
 20
291.2959187159
 10
166.0374105576
 20
295.2959189059
 10
167.3707439543
 20
295.2959189059
  0
HATCH
  5
50F
330
50B
100
AcDbEntity
  8
Default
  6
Continuous
 62
     7
 48
25.4
100
AcDbHatch
 10
0.0
 20
0.0
 30
0.0
210
0.0
220
0.0
230
1.0
  2
SOLID
 70
     1
 71
     0
 91
        1
 92
        1
 93
        3
 72
     1
 10
167.37074395427
 20
308.2431271539565
 11
166.7040772559384
 21
312.2431273439463
 72
     1
 10
166.7040772559384
 20
312.2431273439463
 11
166.0374105576068
 21
308.2431271539565
 72
     1
 10
166.0374105576068
 20
308.2431271539565
 11
167.37074395427
 21
308.2431271539565
 97
        0
 75
     0
 76
     1
 98
        0
  0
LWPOLYLINE
  5
510
330
50B
100
AcDbEntity
  8
Default
  6
Continuous
 62
     7
 48
25.4
370
    20
100
AcDbPolyline
 90
        4
 70
     1
 43
0.00025
 10
167.3707439543
 20
308.243127154
 10
166.7040772559
 20
312.2431273439
 10
166.0374105576
 20
308.243127154
 10
167.3707439543
 20
308.243127154
  0
LINE
  5
511
330
50B
100
AcDbEntity
  8
Default
  6
Continuous
 62
     7
 48
25.4
100
AcDbLine
 10
166.7040772559
 20
291.2959187159
 30
0.0
 11
166.7040772559
 21
312.2431273439
 31
0.0
  0
TEXT
  5
512
330
50B
100
AcDbEntity
  8
Default
  6
Continuous
 62
     7
 48
25.4
100
AcDbText
 10
165.7040772559
 20
302.3197900017
 30
0.0
 40
4.0
  1
30
 50
90.0
  7
SEACAD_arial_ttf
 11
161.7040772559
 21
302.3197900017
 31
0.0
100
AcDbText
 73
     3
  0
TEXT
  5
513
330
50B
100
AcDbEntity
  8
Default
  6
Continuous
 62
     7
 48
25.4
100
AcDbText
 10
165.7040772559
 20
294.9583864929
 30
0.0
 40
4.0
  1
O
 50
90.0
  7
SEACAD_semeca1_ttf
 11
161.7040772559
 21
294.9583864929
 31
0.0
100
AcDbText
 73
     3
  0
ENDBLK
  5
515
330
50B
100
AcDbEntity
  8
0
100
AcDbBlockEnd
  0
BLOCK
  5
51E
330
516
100
AcDbEntity
  8
0
100
AcDbBlockBegin
  2
GDimGGroup17
 70
     0
 71
     0
 10
0.0
 20
0.0
 30
0.0
  3
GDimGGroup17
  1

  0
HATCH
  5
518
330
516
100
AcDbEntity
  8
Default
  6
Continuous
 62
     7
 48
25.4
100
AcDbHatch
 10
0.0
 20
0.0
 30
0.0
210
0.0
220
0.0
230
1.0
  2
SOLID
 70
     1
 71
     0
 91
        1
 92
        1
 93
        3
 72
     1
 10
154.9856192255656
 20
287.2752032823765
 11
154.9856192255656
 21
285.9418698857132
 72
     1
 10
154.9856192255656
 20
285.9418698857132
 11
158.9856194155554
 21
286.6085365840449
 72
     1
 10
158.9856194155554
 20
286.6085365840449
 11
154.9856192255656
 21
287.2752032823765
 97
        0
 75
     0
 76
     1
 98
        0
  0
LWPOLYLINE
  5
519
330
516
100
AcDbEntity
  8
Default
  6
Continuous
 62
     7
 48
25.4
370
    20
100
AcDbPolyline
 90
        4
 70
     1
 43
0.00025
 10
154.9856192256
 20
287.2752032824
 10
158.9856194156
 20
286.608536584
 10
154.9856192256
 20
285.9418698857
 10
154.9856192256
 20
287.2752032824
  0
HATCH
  5
51A
330
516
100
AcDbEntity
  8
Default
  6
Continuous
 62
     7
 48
25.4
100
AcDbHatch
 10
0.0
 20
0.0
 30
0.0
210
0.0
220
0.0
230
1.0
  2
SOLID
 70
     1
 71
     0
 91
        1
 92
        1
 93
        3
 72
     1
 10
177.3356196055452
 20
287.2752032823765
 11
173.3356194155554
 21
286.6085365840449
 72
     1
 10
173.3356194155554
 20
286.6085365840449
 11
177.3356196055452
 21
285.9418698857132
 72
     1
 10
177.3356196055452
 20
285.9418698857132
 11
177.3356196055452
 21
287.2752032823765
 97
        0
 75
     0
 76
     1
 98
        0
  0
LWPOLYLINE
  5
51B
330
516
100
AcDbEntity
  8
Default
  6
Continuous
 62
     7
 48
25.4
370
    20
100
AcDbPolyline
 90
        4
 70
     1
 43
0.00025
 10
177.3356196055
 20
287.2752032824
 10
173.3356194156
 20
286.608536584
 10
177.3356196055
 20
285.9418698857
 10
177.3356196055
 20
287.2752032824
  0
LINE
  5
51C
330
516
100
AcDbEntity
  8
Default
  6
Continuous
 62
     7
 48
25.4
100
AcDbLine
 10
119.9962021606
 20
286.608536584
 30
0.0
 11
181.3356196331
 21
286.608536584
 31
0.0
  0
TEXT
  5
51D
330
516
100
AcDbEntity
  8
Default
  6
Continuous
 62
     7
 48
25.4
100
AcDbText
 10
121.3962014677
 20
287.608536584
 30
0.0
 40
4.0
  1
20.5
  7
SEACAD_arial_ttf
 11
121.3962014677
 21
291.608536584
 31
0.0
100
AcDbText
 73
     3
  0
ENDBLK
  5
51F
330
516
100
AcDbEntity
  8
0
100
AcDbBlockEnd
  0
BLOCK
  5
52B
330
520
100
AcDbEntity
  8
0
100
AcDbBlockBegin
  2
GDimGGroup18
 70
     0
 71
     0
 10
0.0
 20
0.0
 30
0.0
  3
GDimGGroup18
  1

  0
HATCH
  5
522
330
520
100
AcDbEntity
  8
Default
  6
Continuous
 62
     7
 48
25.4
100
AcDbHatch
 10
0.0
 20
0.0
 30
0.0
210
0.0
220
0.0
230
1.0
  2
SOLID
 70
     1
 71
     0
 91
        1
 92
        1
 93
        3
 72
     1
 10
78.74348812435437
 20
335.0007730288903
 11
80.07682152101765
 21
335.0007730288903
 72
     1
 10
80.07682152101765
 20
335.0007730288903
 11
79.41015482268601
 21
339.0007732188801
 72
     1
 10
79.41015482268601
 20
339.0007732188801
 11
78.74348812435437
 21
335.0007730288903
 97
        0
 75
     0
 76
     1
 98
        0
  0
LWPOLYLINE
  5
523
330
520
100
AcDbEntity
  8
Default
  6
Continuous
 62
     7
 48
25.4
370
    20
100
AcDbPolyline
 90
        4
 70
     1
 43
0.00025
 10
78.7434881244
 20
335.0007730289
 10
79.4101548227
 20
339.0007732189
 10
80.076821521
 20
335.0007730289
 10
78.7434881244
 20
335.0007730289
  0
HATCH
  5
524
330
520
100
AcDbEntity
  8
Default
  6
Continuous
 62
     7
 48
25.4
100
AcDbHatch
 10
0.0
 20
0.0
 30
0.0
210
0.0
220
0.0
230
1.0
  2
SOLID
 70
     1
 71
     0
 91
        1
 92
        1
 93
        3
 72
     1
 10
78.74348812435437
 20
268.538270214061
 11
79.41015482268601
 21
264.5382700240712
 72
     1
 10
79.41015482268601
 20
264.5382700240712
 11
80.07682152101765
 21
268.538270214061
 72
     1
 10
80.07682152101765
 20
268.538270214061
 11
78.74348812435437
 21
268.538270214061
 97
        0
 75
     0
 76
     1
 98
        0
  0
LWPOLYLINE
  5
525
330
520
100
AcDbEntity
  8
Default
  6
Continuous
 62
     7
 48
25.4
370
    20
100
AcDbPolyline
 90
        4
 70
     1
 43
0.00025
 10
78.7434881244
 20
268.5382702141
 10
79.4101548227
 20
264.5382700241
 10
80.076821521
 20
268.5382702141
 10
78.7434881244
 20
268.5382702141
  0
LINE
  5
526
330
520
100
AcDbEntity
  8
Default
  6
Continuous
 62
     7
 48
25.4
100
AcDbLine
 10
136.9359199735
 20
339.0007732189
 30
0.0
 11
77.4101547277
 21
339.0007732189
 31
0.0
  0
LINE
  5
527
330
520
100
AcDbEntity
  8
Default
  6
Continuous
 62
     7
 48
25.4
100
AcDbLine
 10
136.9359199735
 20
264.5382732189
 30
0.0
 11
77.4101547277
 21
264.5382732189
 31
0.0
  0
LINE
  5
528
330
520
100
AcDbEntity
  8
Default
  6
Continuous
 62
     7
 48
25.4
100
AcDbLine
 10
79.4101548227
 20
339.0007732189
 30
0.0
 11
79.4101548227
 21
264.5382700241
 31
0.0
  0
TEXT
  5
529
330
520
100
AcDbEntity
  8
Default
  6
Continuous
 62
     7
 48
25.4
100
AcDbText
 10
78.4101548227
 20
295.2763103324
 30
0.0
 40
4.0
  1
106.375
 50
90.0
  7
SEACAD_arial_ttf
 11
74.4101548227
 21
295.2763103324
 31
0.0
100
AcDbText
 73
     3
  0
TEXT
  5
52A
330
520
100
AcDbEntity
  8
Default
  6
Continuous
 62
     7
 48
25.4
100
AcDbText
 10
78.4101548227
 20
287.9149068236
 30
0.0
 40
4.0
  1
O
 50
90.0
  7
SEACAD_semeca1_ttf
 11
74.4101548227
 21
287.9149068236
 31
0.0
100
AcDbText
 73
     3
  0
ENDBLK
  5
52C
330
520
100
AcDbEntity
  8
0
100
AcDbBlockEnd
  0
BLOCK
  5
539
330
52D
100
AcDbEntity
  8
0
100
AcDbBlockBegin
  2
GDimGGroup19
 70
     0
 71
     0
 10
0.0
 20
0.0
 30
0.0
  3
GDimGGroup19
  1

  0
HATCH
  5
52F
330
52D
100
AcDbEntity
  8
Default
  6
Continuous
 62
     7
 48
25.4
100
AcDbHatch
 10
0.0
 20
0.0
 30
0.0
210
0.0
220
0.0
230
1.0
  2
SOLID
 70
     1
 71
     0
 91
        1
 92
        1
 93
        3
 72
     1
 10
61.05653927062323
 20
247.1786205859277
 11
61.72320596895487
 21
243.1786203959379
 72
     1
 10
61.72320596895487
 20
243.1786203959379
 11
62.3898726672865
 21
247.1786205859277
 72
     1
 10
62.3898726672865
 20
247.1786205859277
 11
61.05653927062323
 21
247.1786205859277
 97
        0
 75
     0
 76
     1
 98
        0
  0
LWPOLYLINE
  5
530
330
52D
100
AcDbEntity
  8
Default
  6
Continuous
 62
     7
 48
25.4
370
    20
100
AcDbPolyline
 90
        4
 70
     1
 43
0.00025
 10
61.0565392706
 20
247.1786205859
 10
61.723205969
 20
243.1786203959
 10
62.3898726673
 20
247.1786205859
 10
61.0565392706
 20
247.1786205859
  0
HATCH
  5
531
330
52D
100
AcDbEntity
  8
Default
  6
Continuous
 62
     7
 48
25.4
100
AcDbHatch
 10
0.0
 20
0.0
 30
0.0
210
0.0
220
0.0
230
1.0
  2
SOLID
 70
     1
 71
     0
 91
        1
 92
        1
 93
        3
 72
     1
 10
61.05653927062323
 20
358.1786229477618
 11
62.3898726672865
 21
358.1786229477618
 72
     1
 10
62.3898726672865
 20
358.1786229477618
 11
61.72320596895487
 21
362.1786231377516
 72
     1
 10
61.72320596895487
 20
362.1786231377516
 11
61.05653927062323
 21
358.1786229477618
 97
        0
 75
     0
 76
     1
 98
        0
  0
LWPOLYLINE
  5
532
330
52D
100
AcDbEntity
  8
Default
  6
Continuous
 62
     7
 48
25.4
370
    20
100
AcDbPolyline
 90
        4
 70
     1
 43
0.00025
 10
61.0565392706
 20
358.1786229478
 10
61.723205969
 20
362.1786231378
 10
62.3898726673
 20
358.1786229478
 10
61.0565392706
 20
358.1786229478
  0
LINE
  5
533
330
52D
100
AcDbEntity
  8
Default
  6
Continuous
 62
     7
 48
25.4
100
AcDbLine
 10
137.6359199735
 20
243.1786203959
 30
0.0
 11
59.723205874
 21
243.1786203959
 31
0.0
  0
LINE
  5
534
330
52D
100
AcDbEntity
  8
Default
  6
Continuous
 62
     7
 48
25.4
100
AcDbLine
 10
137.6359199735
 20
362.1786203959
 30
0.0
 11
59.723205874
 21
362.1786203959
 31
0.0
  0
LINE
  5
535
330
52D
100
AcDbEntity
  8
Default
  6
Continuous
 62
     7
 48
25.4
100
AcDbLine
 10
61.723205969
 20
243.1786203959
 30
0.0
 11
61.723205969
 21
362.1786231378
 31
0.0
  0
TEXT
  5
536
330
52D
100
AcDbEntity
  8
Default
  6
Continuous
 62
     7
 48
25.4
100
AcDbText
 10
60.723205969
 20
296.898453956
 30
0.0
 40
4.0
  1
170
 50
90.0
  7
SEACAD_arial_ttf
 11
56.723205969
 21
296.898453956
 31
0.0
100
AcDbText
 73
     3
  0
TEXT
  5
537
330
52D
100
AcDbEntity
  8
Default
  6
Continuous
 62
     7
 48
25.4
100
AcDbText
 10
60.723205969
 20
308.6897583038
 30
0.0
 40
4.0
  1
H6
 50
90.0
  7
SEACAD_arial_ttf
 11
56.723205969
 21
308.6897583038
 31
0.0
100
AcDbText
 73
     3
  0
TEXT
  5
538
330
52D
100
AcDbEntity
  8
Default
  6
Continuous
 62
     7
 48
25.4
100
AcDbText
 10
60.723205969
 20
289.5370504472
 30
0.0
 40
4.0
  1
O
 50
90.0
  7
SEACAD_semeca1_ttf
 11
56.723205969
 21
289.5370504472
 31
0.0
100
AcDbText
 73
     3
  0
ENDBLK
  5
53A
330
52D
100
AcDbEntity
  8
0
100
AcDbBlockEnd
  0
BLOCK
  5
545
330
53B
100
AcDbEntity
  8
0
100
AcDbBlockBegin
  2
GDimGGroup20
 70
     0
 71
     0
 10
0.0
 20
0.0
 30
0.0
  3
GDimGGroup20
  1

  0
HATCH
  5
53D
330
53B
100
AcDbEntity
  8
Default
  6
Continuous
 62
     7
 48
25.4
100
AcDbHatch
 10
0.0
 20
0.0
 30
0.0
210
0.0
220
0.0
230
1.0
  2
SOLID
 70
     1
 71
     0
 91
        1
 92
        1
 93
        3
 72
     1
 10
140.9359201634613
 20
195.4256793993565
 11
140.9359201634613
 21
196.7590127960197
 72
     1
 10
140.9359201634613
 20
196.7590127960197
 11
136.9359199734715
 21
196.0923460976881
 72
     1
 10
136.9359199734715
 20
196.0923460976881
 11
140.9359201634613
 21
195.4256793993565
 97
        0
 75
     0
 76
     1
 98
        0
  0
LWPOLYLINE
  5
53E
330
53B
100
AcDbEntity
  8
Default
  6
Continuous
 62
     7
 48
25.4
370
    20
100
AcDbPolyline
 90
        4
 70
     1
 43
0.00025
 10
140.9359201635
 20
195.4256793994
 10
136.9359199735
 20
196.0923460977
 10
140.9359201635
 20
196.759012796
 10
140.9359201635
 20
195.4256793994
  0
HATCH
  5
53F
330
53B
100
AcDbEntity
  8
Default
  6
Continuous
 62
     7
 48
25.4
100
AcDbHatch
 10
0.0
 20
0.0
 30
0.0
210
0.0
220
0.0
230
1.0
  2
SOLID
 70
     1
 71
     0
 91
        1
 92
        1
 93
        3
 72
     1
 10
205.03664108313
 20
195.4256793993565
 11
209.0366412731198
 21
196.0923460976881
 72
     1
 10
209.0366412731198
 20
196.0923460976881
 11
205.03664108313
 21
196.7590127960197
 72
     1
 10
205.03664108313
 20
196.7590127960197
 11
205.03664108313
 21
195.4256793993565
 97
        0
 75
     0
 76
     1
 98
        0
  0
LWPOLYLINE
  5
540
330
53B
100
AcDbEntity
  8
Default
  6
Continuous
 62
     7
 48
25.4
370
    20
100
AcDbPolyline
 90
        4
 70
     1
 43
0.00025
 10
205.0366410831
 20
195.4256793994
 10
209.0366412731
 20
196.0923460977
 10
205.0366410831
 20
196.759012796
 10
205.0366410831
 20
195.4256793994
  0
LINE
  5
541
330
53B
100
AcDbEntity
  8
Default
  6
Continuous
 62
     7
 48
25.4
100
AcDbLine
 10
136.9359199735
 20
243.8786205569
 30
0.0
 11
136.9359199735
 21
194.0923460027
 31
0.0
  0
LINE
  5
542
330
53B
100
AcDbEntity
  8
Default
  6
Continuous
 62
     7
 48
25.4
100
AcDbLine
 10
209.0366414697
 20
229.6695232189
 30
0.0
 11
209.0366414697
 21
194.0923460027
 31
0.0
  0
LINE
  5
543
330
53B
100
AcDbEntity
  8
Default
  6
Continuous
 62
     7
 48
25.4
100
AcDbLine
 10
136.9359199735
 20
196.0923460977
 30
0.0
 11
209.0366412731
 21
196.0923460977
 31
0.0
  0
TEXT
  5
544
330
53B
100
AcDbEntity
  8
Default
  6
Continuous
 62
     7
 48
25.4
100
AcDbText
 10
168.2906284494
 20
197.0923460977
 30
0.0
 40
4.0
  1
103
  7
SEACAD_arial_ttf
 11
168.2906284494
 21
201.0923460977
 31
0.0
100
AcDbText
 73
     3
  0
ENDBLK
  5
546
330
53B
100
AcDbEntity
  8
0
100
AcDbBlockEnd
  0
BLOCK
  5
551
330
547
100
AcDbEntity
  8
0
100
AcDbBlockBegin
  2
GDimGGroup21
 70
     0
 71
     0
 10
0.0
 20
0.0
 30
0.0
  3
GDimGGroup21
  1

  0
HATCH
  5
549
330
547
100
AcDbEntity
  8
Default
  6
Continuous
 62
     7
 48
25.4
100
AcDbHatch
 10
0.0
 20
0.0
 30
0.0
210
0.0
220
0.0
230
1.0
  2
SOLID
 70
     1
 71
     0
 91
        1
 92
        1
 93
        3
 72
     1
 10
132.9359197834817
 20
210.7636134902679
 11
136.9359199734715
 21
211.4302801885996
 72
     1
 10
136.9359199734715
 20
211.4302801885996
 11
132.9359197834817
 21
212.0969468869312
 72
     1
 10
132.9359197834817
 20
212.0969468869312
 11
132.9359197834817
 21
210.7636134902679
 97
        0
 75
     0
 76
     1
 98
        0
  0
LWPOLYLINE
  5
54A
330
547
100
AcDbEntity
  8
Default
  6
Continuous
 62
     7
 48
25.4
370
    20
100
AcDbPolyline
 90
        4
 70
     1
 43
0.00025
 10
132.9359197835
 20
210.7636134903
 10
136.9359199735
 20
211.4302801886
 10
132.9359197835
 20
212.0969468869
 10
132.9359197835
 20
210.7636134903
  0
HATCH
  5
54B
330
547
100
AcDbEntity
  8
Default
  6
Continuous
 62
     7
 48
25.4
100
AcDbHatch
 10
0.0
 20
0.0
 30
0.0
210
0.0
220
0.0
230
1.0
  2
SOLID
 70
     1
 71
     0
 91
        1
 92
        1
 93
        3
 72
     1
 10
152.8359201634613
 20
210.7636134902679
 11
152.8359201634613
 21
212.0969468869312
 72
     1
 10
152.8359201634613
 20
212.0969468869312
 11
148.8359199734715
 21
211.4302801885996
 72
     1
 10
148.8359199734715
 20
211.4302801885996
 11
152.8359201634613
 21
210.7636134902679
 97
        0
 75
     0
 76
     1
 98
        0
  0
LWPOLYLINE
  5
54C
330
547
100
AcDbEntity
  8
Default
  6
Continuous
 62
     7
 48
25.4
370
    20
100
AcDbPolyline
 90
        4
 70
     1
 43
0.00025
 10
152.8359201635
 20
210.7636134903
 10
148.8359199735
 20
211.4302801886
 10
152.8359201635
 20
212.0969468869
 10
152.8359201635
 20
210.7636134903
  0
LINE
  5
54D
330
547
100
AcDbEntity
  8
Default
  6
Continuous
 62
     7
 48
25.4
100
AcDbLine
 10
136.9359199735
 20
243.8786203959
 30
0.0
 11
136.9359199735
 21
209.4302800936
 31
0.0
  0
LINE
  5
54E
330
547
100
AcDbEntity
  8
Default
  6
Continuous
 62
     7
 48
25.4
100
AcDbLine
 10
148.8359199735
 20
243.1786203959
 30
0.0
 11
148.8359199735
 21
209.4302800936
 31
0.0
  0
LINE
  5
54F
330
547
100
AcDbEntity
  8
Default
  6
Continuous
 62
     7
 48
25.4
100
AcDbLine
 10
128.9359195935
 20
211.4302801886
 30
0.0
 11
156.8359196963
 21
211.4302801886
 31
0.0
  0
TEXT
  5
550
330
547
100
AcDbEntity
  8
Default
  6
Continuous
 62
     7
 48
25.4
100
AcDbText
 10
139.755485328
 20
212.4302801886
 30
0.0
 40
4.0
  1
17
  7
SEACAD_arial_ttf
 11
139.755485328
 21
216.4302801886
 31
0.0
100
AcDbText
 73
     3
  0
ENDBLK
  5
552
330
547
100
AcDbEntity
  8
0
100
AcDbBlockEnd
  0
BLOCK
  5
55D
330
553
100
AcDbEntity
  8
0
100
AcDbBlockBegin
  2
GDimGGroup22
 70
     0
 71
     0
 10
0.0
 20
0.0
 30
0.0
  3
GDimGGroup22
  1

  0
HATCH
  5
555
330
553
100
AcDbEntity
  8
Default
  6
Continuous
 62
     7
 48
25.4
100
AcDbHatch
 10
0.0
 20
0.0
 30
0.0
210
0.0
220
0.0
230
1.0
  2
SOLID
 70
     1
 71
     0
 91
        1
 92
        1
 93
        3
 72
     1
 10
140.9359201634613
 20
233.3061469549977
 11
140.9359201634613
 21
234.639480351661
 72
     1
 10
140.9359201634613
 20
234.639480351661
 11
136.9359199734715
 21
233.9728136533294
 72
     1
 10
136.9359199734715
 20
233.9728136533294
 11
140.9359201634613
 21
233.3061469549977
 97
        0
 75
     0
 76
     1
 98
        0
  0
LWPOLYLINE
  5
556
330
553
100
AcDbEntity
  8
Default
  6
Continuous
 62
     7
 48
25.4
370
    20
100
AcDbPolyline
 90
        4
 70
     1
 43
0.00025
 10
140.9359201635
 20
233.306146955
 10
136.9359199735
 20
233.9728136533
 10
140.9359201635
 20
234.6394803517
 10
140.9359201635
 20
233.306146955
  0
HATCH
  5
557
330
553
100
AcDbEntity
  8
Default
  6
Continuous
 62
     7
 48
25.4
100
AcDbHatch
 10
0.0
 20
0.0
 30
0.0
210
0.0
220
0.0
230
1.0
  2
SOLID
 70
     1
 71
     0
 91
        1
 92
        1
 93
        3
 72
     1
 10
120.3359197834817
 20
233.3061469549977
 11
124.3359199734715
 21
233.9728136533294
 72
     1
 10
124.3359199734715
 20
233.9728136533294
 11
120.3359197834817
 21
234.639480351661
 72
     1
 10
120.3359197834817
 20
234.639480351661
 11
120.3359197834817
 21
233.3061469549977
 97
        0
 75
     0
 76
     1
 98
        0
  0
LWPOLYLINE
  5
558
330
553
100
AcDbEntity
  8
Default
  6
Continuous
 62
     7
 48
25.4
370
    20
100
AcDbPolyline
 90
        4
 70
     1
 43
0.00025
 10
120.3359197835
 20
233.306146955
 10
124.3359199735
 20
233.9728136533
 10
120.3359197835
 20
234.6394803517
 10
120.3359197835
 20
233.306146955
  0
LINE
  5
559
330
553
100
AcDbEntity
  8
Default
  6
Continuous
 62
     7
 48
25.4
100
AcDbLine
 10
136.9359199735
 20
243.8786203959
 30
0.0
 11
136.9359199735
 21
231.9728135583
 31
0.0
  0
LINE
  5
55A
330
553
100
AcDbEntity
  8
Default
  6
Continuous
 62
     7
 48
25.4
100
AcDbLine
 10
124.3359199735
 20
251.5846723409
 30
0.0
 11
124.3359199735
 21
231.9728135583
 31
0.0
  0
LINE
  5
55B
330
553
100
AcDbEntity
  8
Default
  6
Continuous
 62
     7
 48
25.4
100
AcDbLine
 10
144.9359203535
 20
233.9728136533
 30
0.0
 11
116.3359195771
 21
233.9728136533
 31
0.0
  0
TEXT
  5
55C
330
553
100
AcDbEntity
  8
Default
  6
Continuous
 62
     7
 48
25.4
100
AcDbText
 10
127.5054851827
 20
234.9728136533
 30
0.0
 40
4.0
  1
18
  7
SEACAD_arial_ttf
 11
127.5054851827
 21
238.9728136533
 31
0.0
100
AcDbText
 73
     3
  0
ENDBLK
  5
55E
330
553
100
AcDbEntity
  8
0
100
AcDbBlockEnd
  0
BLOCK
  5
56A
330
55F
100
AcDbEntity
  8
0
100
AcDbBlockBegin
  2
GDimGGroup23
 70
     0
 71
     0
 10
0.0
 20
0.0
 30
0.0
  3
GDimGGroup23
  1

  0
HATCH
  5
561
330
55F
100
AcDbEntity
  8
Default
  6
Continuous
 62
     7
 48
25.4
100
AcDbHatch
 10
0.0
 20
0.0
 30
0.0
210
0.0
220
0.0
230
1.0
  2
SOLID
 70
     1
 71
     0
 91
        1
 92
        1
 93
        3
 72
     1
 10
154.9856192255656
 20
309.9923396532586
 11
154.9856192255656
 21
308.6590062565953
 72
     1
 10
154.9856192255656
 20
308.6590062565953
 11
158.9856194155554
 21
309.3256729549269
 72
     1
 10
158.9856194155554
 20
309.3256729549269
 11
154.9856192255656
 21
309.9923396532586
 97
        0
 75
     0
 76
     1
 98
        0
  0
LWPOLYLINE
  5
562
330
55F
100
AcDbEntity
  8
Default
  6
Continuous
 62
     7
 48
25.4
370
    20
100
AcDbPolyline
 90
        4
 70
     1
 43
0.00025
 10
154.9856192256
 20
309.9923396533
 10
158.9856194156
 20
309.3256729549
 10
154.9856192256
 20
308.6590062566
 10
154.9856192256
 20
309.9923396533
  0
HATCH
  5
563
330
55F
100
AcDbEntity
  8
Default
  6
Continuous
 62
     7
 48
25.4
100
AcDbHatch
 10
0.0
 20
0.0
 30
0.0
210
0.0
220
0.0
230
1.0
  2
SOLID
 70
     1
 71
     0
 91
        1
 92
        1
 93
        3
 72
     1
 10
140.9359201634613
 20
309.9923396532586
 11
136.9359199734715
 21
309.3256729549269
 72
     1
 10
136.9359199734715
 20
309.3256729549269
 11
140.9359201634613
 21
308.6590062565953
 72
     1
 10
140.9359201634613
 20
308.6590062565953
 11
140.9359201634613
 21
309.9923396532586
 97
        0
 75
     0
 76
     1
 98
        0
  0
LWPOLYLINE
  5
564
330
55F
100
AcDbEntity
  8
Default
  6
Continuous
 62
     7
 48
25.4
370
    20
100
AcDbPolyline
 90
        4
 70
     1
 43
0.00025
 10
140.9359201635
 20
309.9923396533
 10
136.9359199735
 20
309.3256729549
 10
140.9359201635
 20
308.6590062566
 10
140.9359201635
 20
309.9923396533
  0
LINE
  5
565
330
55F
100
AcDbEntity
  8
Default
  6
Continuous
 62
     7
 48
25.4
100
AcDbLine
 10
158.9856194156
 20
301.7695232189
 30
0.0
 11
158.9856194156
 21
311.3256730499
 31
0.0
  0
LINE
  5
566
330
55F
100
AcDbEntity
  8
Default
  6
Continuous
 62
     7
 48
25.4
100
AcDbLine
 10
158.9856194156
 20
309.3256729549
 30
0.0
 11
106.1118813055
 21
309.3256729549
 31
0.0
  0
TEXT
  5
567
330
55F
100
AcDbEntity
  8
Default
  6
Continuous
 62
     7
 48
25.4
100
AcDbText
 10
122.2249239595
 20
316.3256729549
 30
0.0
 40
4.0
  1
31.5
  7
SEACAD_arial_ttf
 11
122.2249239595
 21
320.3256729549
 31
0.0
100
AcDbText
 73
     3
  0
TEXT
  5
568
330
55F
100
AcDbEntity
  8
Default
  6
Continuous
 62
     7
 48
25.4
100
AcDbText
 10
107.5118804813
 20
316.3256729549
 30
0.0
 40
4.0
  1
MAX
  7
SEACAD_arial_ttf
 11
107.5118804813
 21
320.3256729549
 31
0.0
100
AcDbText
 73
     3
  0
TEXT
  5
569
330
55F
100
AcDbEntity
  8
Default
  6
Continuous
 62
     7
 48
25.4
100
AcDbText
 10
107.5118804813
 20
310.3256729549
 30
0.0
 40
4.0
  1
MIN 15.5
  7
SEACAD_arial_ttf
 11
107.5118804813
 21
314.3256729549
 31
0.0
100
AcDbText
 73
     3
  0
ENDBLK
  5
56B
330
55F
100
AcDbEntity
  8
0
100
AcDbBlockEnd
  0
BLOCK
  5
576
330
56C
100
AcDbEntity
  8
0
100
AcDbBlockBegin
  2
GDimGGroup24
 70
     0
 71
     0
 10
0.0
 20
0.0
 30
0.0
  3
GDimGGroup24
  1

  0
HATCH
  5
56E
330
56C
100
AcDbEntity
  8
Default
  6
Continuous
 62
     7
 48
25.4
100
AcDbHatch
 10
0.0
 20
0.0
 30
0.0
210
0.0
220
0.0
230
1.0
  2
SOLID
 70
     1
 71
     0
 91
        1
 92
        1
 93
        3
 72
     1
 10
306.6776212364385
 20
313.46952340887
 11
305.3442878397752
 21
313.46952340887
 72
     1
 10
305.3442878397752
 20
313.46952340887
 11
306.0109545381069
 21
309.4695232188802
 72
     1
 10
306.0109545381069
 20
309.4695232188802
 11
306.6776212364385
 21
313.46952340887
 97
        0
 75
     0
 76
     1
 98
        0
  0
LWPOLYLINE
  5
56F
330
56C
100
AcDbEntity
  8
Default
  6
Continuous
 62
     7
 48
25.4
370
    20
100
AcDbPolyline
 90
        4
 70
     1
 43
0.00025
 10
306.6776212364
 20
313.4695234089
 10
306.0109545381
 20
309.4695232189
 10
305.3442878398
 20
313.4695234089
 10
306.6776212364
 20
313.4695234089
  0
HATCH
  5
570
330
56C
100
AcDbEntity
  8
Default
  6
Continuous
 62
     7
 48
25.4
100
AcDbHatch
 10
0.0
 20
0.0
 30
0.0
210
0.0
220
0.0
230
1.0
  2
SOLID
 70
     1
 71
     0
 91
        1
 92
        1
 93
        3
 72
     1
 10
306.6776212364385
 20
371.9695236845415
 11
306.0109545381069
 21
375.9695238745313
 72
     1
 10
306.0109545381069
 20
375.9695238745313
 11
305.3442878397752
 21
371.9695236845415
 72
     1
 10
305.3442878397752
 20
371.9695236845415
 11
306.6776212364385
 21
371.9695236845415
 97
        0
 75
     0
 76
     1
 98
        0
  0
LWPOLYLINE
  5
571
330
56C
100
AcDbEntity
  8
Default
  6
Continuous
 62
     7
 48
25.4
370
    20
100
AcDbPolyline
 90
        4
 70
     1
 43
0.00025
 10
306.6776212364
 20
371.9695236845
 10
306.0109545381
 20
375.9695238745
 10
305.3442878398
 20
371.9695236845
 10
306.6776212364
 20
371.9695236845
  0
LINE
  5
572
330
56C
100
AcDbEntity
  8
Default
  6
Continuous
 62
     7
 48
25.4
100
AcDbLine
 10
236.3366414697
 20
309.4695232189
 30
0.0
 11
308.0109546331
 21
309.4695232189
 31
0.0
  0
LINE
  5
573
330
56C
100
AcDbEntity
  8
Default
  6
Continuous
 62
     7
 48
25.4
100
AcDbLine
 10
236.3366414697
 20
375.9695232189
 30
0.0
 11
308.0109546331
 21
375.9695232189
 31
0.0
  0
LINE
  5
574
330
56C
100
AcDbEntity
  8
Default
  6
Continuous
 62
     7
 48
25.4
100
AcDbLine
 10
306.0109545381
 20
309.4695232189
 30
0.0
 11
306.0109545381
 21
375.9695238745
 31
0.0
  0
TEXT
  5
575
330
56C
100
AcDbEntity
  8
Default
  6
Continuous
 62
     7
 48
25.4
100
AcDbText
 10
305.0109545381
 20
339.5890887641
 30
0.0
 40
4.0
  1
95
 50
90.0
  7
SEACAD_arial_ttf
 11
301.0109545381
 21
339.5890887641
 31
0.0
100
AcDbText
 73
     3
  0
ENDBLK
  5
577
330
56C
100
AcDbEntity
  8
0
100
AcDbBlockEnd
  0
BLOCK
  5
584
330
578
100
AcDbEntity
  8
0
100
AcDbBlockBegin
  2
GDimGGroup25
 70
     0
 71
     0
 10
0.0
 20
0.0
 30
0.0
  3
GDimGGroup25
  1

  0
HATCH
  5
57A
330
578
100
AcDbEntity
  8
Default
  6
Continuous
 62
     7
 48
25.4
100
AcDbHatch
 10
0.0
 20
0.0
 30
0.0
210
0.0
220
0.0
230
1.0
  2
SOLID
 70
     1
 71
     0
 91
        1
 92
        1
 93
        3
 72
     1
 10
79.75724002420161
 20
350.0723681901021
 11
79.79064611329554
 21
346.0173305774782
 72
     1
 10
79.79064611329554
 20
346.0173305774782
 11
81.07419309257118
 21
349.8640113750718
 72
     1
 10
81.07419309257118
 20
349.8640113750718
 11
79.75724002420161
 21
350.0723681901021
 97
        0
 75
     0
 76
     1
 98
        0
  0
LWPOLYLINE
  5
57B
330
578
100
AcDbEntity
  8
Default
  6
Continuous
 62
     7
 48
25.4
370
    20
100
AcDbPolyline
 90
        4
 70
     1
 43
0.00025
 10
79.7572400242
 20
350.0723681901
 10
79.7906461133
 20
346.0173305775
 10
81.0741930926
 20
349.8640113751
 10
79.7572400242
 20
350.0723681901
  0
HATCH
  5
57C
330
578
100
AcDbEntity
  8
Default
  6
Continuous
 62
     7
 48
25.4
100
AcDbHatch
 10
0.0
 20
0.0
 30
0.0
210
0.0
220
0.0
230
1.0
  2
SOLID
 70
     1
 71
     0
 91
        1
 92
        1
 93
        3
 72
     1
 10
80.16668223900406
 20
335.0263399703705
 11
79.36149508080752
 21
339.0007732188801
 72
     1
 10
79.3614950808075
 20
339.0007732188801
 11
78.83415323093628
 21
334.980032418983
 72
     1
 10
78.8341532309363
 20
334.980032418983
 11
80.16668223900406
 21
335.0263399703705
 97
        0
 75
     0
 76
     1
 98
        0
  0
LWPOLYLINE
  5
57D
330
578
100
AcDbEntity
  8
Default
  6
Continuous
 62
     7
 48
25.4
370
    20
100
AcDbPolyline
 90
        4
 70
     1
 43
0.00025
 10
80.166682239
 20
335.0263399704
 10
79.3614950808
 20
339.0007732189
 10
78.8341532309
 20
334.980032419
 10
80.166682239
 20
335.0263399704
  0
LINE
  5
57E
330
578
100
AcDbEntity
  8
Default
  6
Continuous
 62
     7
 48
25.4
100
AcDbLine
 10
136.9359199735
 20
339.0007732189
 30
0.0
 11
77.8055534846
 21
346.2610693042
 31
0.0
  0
LINE
  5
57F
330
578
100
AcDbEntity
  8
Default
  6
Continuous
 62
     7
 48
25.4
100
AcDbLine
 10
136.9359199735
 20
339.0007732189
 30
0.0
 11
77.361494753
 21
339.0007732189
 31
0.0
  0
ARC
  5
580
330
578
100
AcDbEntity
  8
Default
  6
Continuous
 62
     7
 48
25.4
100
AcDbCircle
 10
136.9359199735
 20
339.0007732189
 30
0.0
 40
57.57442489266487
100
AcDbArc
 50
165.0387178431
 51
180.0000000525
  0
ARC
  5
581
330
578
100
AcDbEntity
  8
Default
  6
Continuous
 62
     7
 48
25.4
100
AcDbCircle
 10
136.9359199735
 20
339.0007732189
 30
0.0
 40
57.5744248926616
100
AcDbArc
 50
180.0
 51
187.9612821569
  0
TEXT
  5
582
330
578
100
AcDbEntity
  8
Default
  6
Continuous
 62
     7
 48
25.4
100
AcDbText
 10
77.4603391341
 20
333.1091166935
 30
0.0
 40
4.0
  1
7°
 50
84.1937559396
  7
SEACAD_arial_ttf
 11
73.4808603747
 21
333.5137755658
 31
0.0
100
AcDbText
 73
     3
  0
TEXT
  5
583
330
578
100
AcDbEntity
  8
Default
  6
Continuous
 62
     7
 48
25.4
100
AcDbText
 10
78.2890101293
 20
341.2583971096
 30
0.0
 40
4.0
  1
07'30"
 50
84.1937559396
  7
SEACAD_arial_ttf
 11
74.3095313699
 21
341.663055982
 31
0.0
100
AcDbText
 73
     3
  0
ENDBLK
  5
585
330
578
100
AcDbEntity
  8
0
100
AcDbBlockEnd
  0
BLOCK
  5
590
330
586
100
AcDbEntity
  8
0
100
AcDbBlockBegin
  2
GDimGGroup26
 70
     0
 71
     0
 10
0.0
 20
0.0
 30
0.0
  3
GDimGGroup26
  1

  0
HATCH
  5
588
330
586
100
AcDbEntity
  8
Default
  6
Continuous
 62
     7
 48
25.4
100
AcDbHatch
 10
0.0
 20
0.0
 30
0.0
210
0.0
220
0.0
230
1.0
  2
SOLID
 70
     1
 71
     0
 91
        1
 92
        1
 93
        3
 72
     1
 10
492.2283565561205
 20
365.5426646449805
 11
495.5795261569134
 21
363.2592224378503
 72
     1
 10
495.5795261569134
 20
363.2592224378503
 11
493.1500767098272
 21
366.5061011529605
 72
     1
 10
493.1500767098272
 20
366.5061011529605
 11
492.2283565561205
 21
365.5426646449806
 97
        0
 75
     0
 76
     1
 98
        0
  0
LWPOLYLINE
  5
589
330
586
100
AcDbEntity
  8
Default
  6
Continuous
 62
     7
 48
25.4
370
    20
100
AcDbPolyline
 90
        4
 70
     1
 43
0.00025
 10
492.2283565561
 20
365.542664645
 10
495.5795261569
 20
363.2592224379
 10
493.1500767098
 20
366.506101153
 10
492.2283565561
 20
365.542664645
  0
HATCH
  5
58A
330
586
100
AcDbEntity
  8
Default
  6
Continuous
 62
     7
 48
25.4
100
AcDbHatch
 10
0.0
 20
0.0
 30
0.0
210
0.0
220
0.0
230
1.0
  2
SOLID
 70
     1
 71
     0
 91
        1
 92
        1
 93
        3
 72
     1
 10
437.8303621533694
 20
389.4458851081492
 11
433.8161365822974
 21
388.8710468081604
 72
     1
 10
433.8161365822974
 20
388.8710468081604
 11
437.7998110306052
 21
388.1129017715859
 72
     1
 10
437.7998110306052
 20
388.1129017715859
 11
437.8303621533694
 21
389.4458851081492
 97
        0
 75
     0
 76
     1
 98
        0
  0
LWPOLYLINE
  5
58B
330
586
100
AcDbEntity
  8
Default
  6
Continuous
 62
     7
 48
25.4
370
    20
100
AcDbPolyline
 90
        4
 70
     1
 43
0.00025
 10
437.8303621534
 20
389.4458851081
 10
433.8161365823
 20
388.8710468082
 10
437.7998110306
 20
388.1129017716
 10
437.8303621534
 20
389.4458851081
  0
LINE
  5
58C
330
586
100
AcDbEntity
  8
Default
  6
Continuous
 62
     7
 48
25.4
100
AcDbLine
 10
466.7612897378
 20
334.4864899369
 30
0.0
 11
496.9948542751
 21
364.6723157568
 31
0.0
  0
LINE
  5
58D
330
586
100
AcDbEntity
  8
Default
  6
Continuous
 62
     7
 48
25.4
100
AcDbLine
 10
433.8161382168
 20
301.5933587221
 30
0.0
 11
433.8161382168
 21
390.8710434107
 31
0.0
  0
ARC
  5
58E
330
586
100
AcDbEntity
  8
Default
  6
Continuous
 62
     7
 48
25.4
100
AcDbCircle
 10
433.8161382168
 20
301.5933587221
 30
0.0
 40
87.27768808603338
100
AcDbArc
 50
44.954729327
 51
90.000001073
  0
TEXT
  5
58F
330
586
100
AcDbEntity
  8
Default
  6
Continuous
 62
     7
 48
25.4
100
AcDbText
 10
463.6948789326
 20
384.7700746738
 30
0.0
 40
4.0
  1
45°
 50
337.4773646635
  7
SEACAD_arial_ttf
 11
465.2270724982
 21
388.464987782
 31
0.0
100
AcDbText
 73
     3
  0
ENDBLK
  5
591
330
586
100
AcDbEntity
  8
0
100
AcDbBlockEnd
  0
BLOCK
  5
59C
330
592
100
AcDbEntity
  8
0
100
AcDbBlockBegin
  2
GDimGGroup27
 70
     0
 71
     0
 10
0.0
 20
0.0
 30
0.0
  3
GDimGGroup27
  1

  0
HATCH
  5
594
330
592
100
AcDbEntity
  8
Default
  6
Continuous
 62
     7
 48
25.4
100
AcDbHatch
 10
0.0
 20
0.0
 30
0.0
210
0.0
220
0.0
230
1.0
  2
SOLID
 70
     1
 71
     0
 91
        1
 92
        1
 93
        3
 72
     1
 10
516.3848086758311
 20
327.7451395021175
 11
518.14423098513
 21
324.0915277077251
 72
     1
 10
518.1442309851301
 20
324.0915277077251
 11
517.6648677610017
 21
328.1182704243554
 72
     1
 10
517.6648677610016
 20
328.1182704243554
 11
516.3848086758311
 21
327.7451395021175
 97
        0
 75
     0
 76
     1
 98
        0
  0
LWPOLYLINE
  5
595
330
592
100
AcDbEntity
  8
Default
  6
Continuous
 62
     7
 48
25.4
370
    20
100
AcDbPolyline
 90
        4
 70
     1
 43
0.00025
 10
516.3848086758
 20
327.7451395021
 10
518.1442309851
 20
324.0915277077
 10
517.664867761
 20
328.1182704244
 10
516.3848086758
 20
327.7451395021
  0
HATCH
  5
596
330
592
100
AcDbEntity
  8
Default
  6
Continuous
 62
     7
 48
25.4
100
AcDbHatch
 10
0.0
 20
0.0
 30
0.0
210
0.0
220
0.0
230
1.0
  2
SOLID
 70
     1
 71
     0
 91
        1
 92
        1
 93
        3
 72
     1
 10
498.8225607680657
 20
360.8246461748751
 11
495.5795251943787
 21
363.2592234019072
 72
     1
 10
495.5795251943787
 20
363.2592234019072
 11
497.8576689336938
 21
359.904449622708
 72
     1
 10
497.8576689336938
 20
359.904449622708
 11
498.8225607680657
 21
360.824646174875
 97
        0
 75
     0
 76
     1
 98
        0
  0
LWPOLYLINE
  5
597
330
592
100
AcDbEntity
  8
Default
  6
Continuous
 62
     7
 48
25.4
370
    20
100
AcDbPolyline
 90
        4
 70
     1
 43
0.00025
 10
498.8225607681
 20
360.8246461749
 10
495.5795251944
 20
363.2592234019
 10
497.8576689337
 20
359.9044496227
 10
498.8225607681
 20
360.8246461749
  0
LINE
  5
598
330
592
100
AcDbEntity
  8
Default
  6
Continuous
 62
     7
 48
25.4
100
AcDbLine
 10
478.8200510211
 20
313.6001005094
 30
0.0
 11
520.0766366518
 21
324.6070805657
 31
0.0
  0
LINE
  5
599
330
592
100
AcDbEntity
  8
Default
  6
Continuous
 62
     7
 48
25.4
100
AcDbLine
 10
466.7612897378
 20
334.4864899369
 30
0.0
 11
496.9948542751
 21
364.6723157568
 31
0.0
  0
ARC
  5
59A
330
592
100
AcDbEntity
  8
Default
  6
Continuous
 62
     7
 48
25.4
100
AcDbCircle
 10
433.8161382168
 20
301.5933587221
 30
0.0
 40
87.27768808603366
100
AcDbArc
 50
14.9381900834
 51
44.9547302213
  0
TEXT
  5
59B
330
592
100
AcDbEntity
  8
Default
  6
Continuous
 62
     7
 48
25.4
100
AcDbText
 10
508.1810853441
 20
349.3527542588
 30
0.0
 40
4.0
  1
30°
 50
299.9464597052
  7
SEACAD_arial_ttf
 11
511.6470543554
 21
351.3495163409
 31
0.0
100
AcDbText
 73
     3
  0
ENDBLK
  5
59D
330
592
100
AcDbEntity
  8
0
100
AcDbBlockEnd
  0
BLOCK
  5
5A8
330
59E
100
AcDbEntity
  8
0
100
AcDbBlockBegin
  2
GDimGGroup28
 70
     0
 71
     0
 10
0.0
 20
0.0
 30
0.0
  3
GDimGGroup28
  1

  0
HATCH
  5
5A0
330
59E
100
AcDbEntity
  8
Default
  6
Continuous
 62
     7
 48
25.4
100
AcDbHatch
 10
0.0
 20
0.0
 30
0.0
210
0.0
220
0.0
230
1.0
  2
SOLID
 70
     1
 71
     0
 91
        1
 92
        1
 93
        3
 72
     1
 10
520.1786895982658
 20
305.577001880026
 11
520.9369990318821
 21
301.5933587221275
 72
     1
 10
520.9369990318821
 20
301.5933587221275
 11
521.5116716729149
 21
305.6076080121233
 72
     1
 10
521.5116716729149
 20
305.6076080121233
 11
520.1786895982658
 21
305.577001880026
 97
        0
 75
     0
 76
     1
 98
        0
  0
LWPOLYLINE
  5
5A1
330
59E
100
AcDbEntity
  8
Default
  6
Continuous
 62
     7
 48
25.4
370
    20
100
AcDbPolyline
 90
        4
 70
     1
 43
0.00025
 10
520.1786895983
 20
305.57700188
 10
520.9369990319
 20
301.5933587221
 10
521.5116716729
 20
305.6076080121
 10
520.1786895983
 20
305.57700188
  0
HATCH
  5
5A2
330
59E
100
AcDbEntity
  8
Default
  6
Continuous
 62
     7
 48
25.4
100
AcDbHatch
 10
0.0
 20
0.0
 30
0.0
210
0.0
220
0.0
230
1.0
  2
SOLID
 70
     1
 71
     0
 91
        1
 92
        1
 93
        3
 72
     1
 10
519.5827354767208
 20
320.3206537538859
 11
517.9927035636225
 21
324.0511020542798
 72
     1
 10
517.9927035636226
 20
324.0511020542799
 11
518.2869126812906
 21
320.0066135820916
 72
     1
 10
518.2869126812906
 20
320.0066135820915
 11
519.5827354767208
 21
320.3206537538859
 97
        0
 75
     0
 76
     1
 98
        0
  0
LWPOLYLINE
  5
5A3
330
59E
100
AcDbEntity
  8
Default
  6
Continuous
 62
     7
 48
25.4
370
    20
100
AcDbPolyline
 90
        4
 70
     1
 43
0.00025
 10
519.5827354767
 20
320.3206537539
 10
517.9927035636
 20
324.0511020543
 10
518.2869126813
 20
320.0066135821
 10
519.5827354767
 20
320.3206537539
  0
LINE
  5
5A4
330
59E
100
AcDbEntity
  8
Default
  6
Continuous
 62
     7
 48
25.4
100
AcDbLine
 10
433.8161382168
 20
301.5933587221
 30
0.0
 11
522.9369956344
 21
301.5933587221
 31
0.0
  0
LINE
  5
5A5
330
59E
100
AcDbEntity
  8
Default
  6
Continuous
 62
     7
 48
25.4
100
AcDbLine
 10
478.8200510211
 20
313.6001005094
 30
0.0
 11
519.9251094409
 21
324.5666541232
 31
0.0
  0
ARC
  5
5A6
330
59E
100
AcDbEntity
  8
Default
  6
Continuous
 62
     7
 48
25.4
100
AcDbCircle
 10
433.8161382168
 20
301.5933587221
 30
0.0
 40
87.12086081504677
100
AcDbArc
 50
0.0
 51
14.9381906205
  0
TEXT
  5
5A7
330
59E
100
AcDbEntity
  8
Default
  6
Continuous
 62
     7
 48
25.4
100
AcDbText
 10
520.63542791
 20
317.2730289169
 30
0.0
 40
4.0
  1
15°
 50
277.4690950417
  7
SEACAD_arial_ttf
 11
524.6014883983
 21
317.7929944952
 31
0.0
100
AcDbText
 73
     3
  0
ENDBLK
  5
5A9
330
59E
100
AcDbEntity
  8
0
100
AcDbBlockEnd
  0
BLOCK
  5
5B4
330
5AA
100
AcDbEntity
  8
0
100
AcDbBlockBegin
  2
GDimGGroup29
 70
     0
 71
     0
 10
0.0
 20
0.0
 30
0.0
  3
GDimGGroup29
  1

  0
HATCH
  5
5AC
330
5AA
100
AcDbEntity
  8
Default
  6
Continuous
 62
     7
 48
25.4
100
AcDbHatch
 10
0.0
 20
0.0
 30
0.0
210
0.0
220
0.0
230
1.0
  2
SOLID
 70
     1
 71
     0
 91
        1
 92
        1
 93
        3
 72
     1
 10
510.6598837956625
 20
261.8275323155044
 11
509.3247079612725
 21
257.9984656540523
 72
     1
 10
509.3247079612725
 20
257.9984656540523
 11
511.8295715867071
 21
261.187525738867
 72
     1
 10
511.8295715867071
 20
261.187525738867
 11
510.6598837956625
 21
261.8275323155044
 97
        0
 75
     0
 76
     1
 98
        0
  0
LWPOLYLINE
  5
5AD
330
5AA
100
AcDbEntity
  8
Default
  6
Continuous
 62
     7
 48
25.4
370
    20
100
AcDbPolyline
 90
        4
 70
     1
 43
0.00025
 10
510.6598837957
 20
261.8275323155
 10
509.3247079613
 20
257.9984656541
 10
511.8295715867
 20
261.1875257389
 10
510.6598837957
 20
261.8275323155
  0
HATCH
  5
5AE
330
5AA
100
AcDbEntity
  8
Default
  6
Continuous
 62
     7
 48
25.4
100
AcDbHatch
 10
0.0
 20
0.0
 30
0.0
210
0.0
220
0.0
230
1.0
  2
SOLID
 70
     1
 71
     0
 91
        1
 92
        1
 93
        3
 72
     1
 10
521.5806698973347
 20
297.5791211399096
 11
521.0059243529844
 21
301.5933599925231
 72
     1
 10
521.0059243529843
 20
301.5933599925231
 11
520.2476872670627
 21
297.6097030635047
 72
     1
 10
520.2476872670627
 20
297.6097030635047
 11
521.5806698973346
 21
297.5791211399096
 97
        0
 75
     0
 76
     1
 98
        0
  0
LWPOLYLINE
  5
5AF
330
5AA
100
AcDbEntity
  8
Default
  6
Continuous
 62
     7
 48
25.4
370
    20
100
AcDbPolyline
 90
        4
 70
     1
 43
0.00025
 10
521.5806698973
 20
297.5791211399
 10
521.005924353
 20
301.5933599925
 10
520.2476872671
 20
297.6097030635
 10
521.5806698973
 20
297.5791211399
  0
LINE
  5
5B0
330
5AA
100
AcDbEntity
  8
Default
  6
Continuous
 62
     7
 48
25.4
100
AcDbLine
 10
502.1892592145
 20
262.1181189088
 30
0.0
 11
511.0567558266
 21
256.9984673528
 31
0.0
  0
LINE
  5
5B1
330
5AA
100
AcDbEntity
  8
Default
  6
Continuous
 62
     7
 48
25.4
100
AcDbLine
 10
433.8161382168
 20
301.5933587221
 30
0.0
 11
523.0059209555
 21
301.5933587221
 31
0.0
  0
ARC
  5
5B2
330
5AA
100
AcDbEntity
  8
Default
  6
Continuous
 62
     7
 48
25.4
100
AcDbCircle
 10
433.8161382168
 20
301.5933587221
 30
0.0
 40
87.18978613614944
100
AcDbArc
 50
330.0
 51
0.0000008348
  0
TEXT
  5
5B3
330
5AA
100
AcDbEntity
  8
Default
  6
Continuous
 62
     7
 48
25.4
100
AcDbText
 10
515.9662844159
 20
275.1701166213
 30
0.0
 40
4.0
  1
30°
 50
75.0
  7
SEACAD_arial_ttf
 11
512.1025811107
 21
276.2053928017
 31
0.0
100
AcDbText
 73
     3
  0
ENDBLK
  5
5B5
330
5AA
100
AcDbEntity
  8
0
100
AcDbBlockEnd
  0
ENDSEC
  0
SECTION
  2
ENTITIES
  0
INSERT
  5
2C
330
1F
100
AcDbEntity
  8
Default
100
AcDbBlockReference
  2
SEANNOT_GROUP
 10
0.0
 20
0.0
 30
0.0
  0
INSERT
  5
36
330
1F
100
AcDbEntity
  8
Default
100
AcDbBlockReference
  2
SEANNOT_GROUP1
 10
0.0
 20
0.0
 30
0.0
  0
INSERT
  5
40
330
1F
100
AcDbEntity
  8
Default
100
AcDbBlockReference
  2
SEANNOT_GROUP2
 10
0.0
 20
0.0
 30
0.0
  0
INSERT
  5
4A
330
1F
100
AcDbEntity
  8
Default
100
AcDbBlockReference
  2
SEANNOT_GROUP3
 10
0.0
 20
0.0
 30
0.0
  0
INSERT
  5
54
330
1F
100
AcDbEntity
  8
Default
100
AcDbBlockReference
  2
SEANNOT_GROUP4
 10
0.0
 20
0.0
 30
0.0
  0
INSERT
  5
5D
330
1F
100
AcDbEntity
  8
Default
100
AcDbBlockReference
  2
SEANNOT_GROUP5
 10
0.0
 20
0.0
 30
0.0
  0
INSERT
  5
66
330
1F
100
AcDbEntity
  8
Default
100
AcDbBlockReference
  2
SE
 10
0.0
 20
0.0
 30
0.0
  0
INSERT
  5
147
330
1F
100
AcDbEntity
  8
Default
100
AcDbBlockReference
  2
SE1
 10
0.0
 20
0.0
 30
0.0
  0
INSERT
  5
3A8
330
1F
100
AcDbEntity
  8
Default
100
AcDbBlockReference
  2
SE2
 10
0.0
 20
0.0
 30
0.0
  0
INSERT
  5
446
330
1F
100
AcDbEntity
  8
Default
100
AcDbBlockReference
  2
GDimGGroup
 10
0.0
 20
0.0
 30
0.0
  0
INSERT
  5
452
330
1F
100
AcDbEntity
  8
Default
100
AcDbBlockReference
  2
GDimGGroup1
 10
0.0
 20
0.0
 30
0.0
  0
INSERT
  5
45E
330
1F
100
AcDbEntity
  8
Default
100
AcDbBlockReference
  2
GDimGGroup2
 10
0.0
 20
0.0
 30
0.0
  0
INSERT
  5
46B
330
1F
100
AcDbEntity
  8
Default
100
AcDbBlockReference
  2
GDimGGroup3
 10
0.0
 20
0.0
 30
0.0
  0
INSERT
  5
477
330
1F
100
AcDbEntity
  8
Default
100
AcDbBlockReference
  2
GDimGGroup4
 10
0.0
 20
0.0
 30
0.0
  0
INSERT
  5
483
330
1F
100
AcDbEntity
  8
Default
100
AcDbBlockReference
  2
GDimGGroup5
 10
0.0
 20
0.0
 30
0.0
  0
INSERT
  5
48E
330
1F
100
AcDbEntity
  8
Default
100
AcDbBlockReference
  2
GDimGGroup6
 10
0.0
 20
0.0
 30
0.0
  0
INSERT
  5
49B
330
1F
100
AcDbEntity
  8
Default
100
AcDbBlockReference
  2
GDimGGroup7
 10
0.0
 20
0.0
 30
0.0
  0
INSERT
  5
4A7
330
1F
100
AcDbEntity
  8
Default
100
AcDbBlockReference
  2
GDimGGroup8
 10
0.0
 20
0.0
 30
0.0
  0
INSERT
  5
4B4
330
1F
100
AcDbEntity
  8
Default
100
AcDbBlockReference
  2
GDimGGroup9
 10
0.0
 20
0.0
 30
0.0
  0
INSERT
  5
4C1
330
1F
100
AcDbEntity
  8
Default
100
AcDbBlockReference
  2
GDimGGroup10
 10
0.0
 20
0.0
 30
0.0
  0
INSERT
  5
4CC
330
1F
100
AcDbEntity
  8
Default
100
AcDbBlockReference
  2
GDimGGroup11
 10
0.0
 20
0.0
 30
0.0
  0
INSERT
  5
4D8
330
1F
100
AcDbEntity
  8
Default
100
AcDbBlockReference
  2
GDimGGroup12
 10
0.0
 20
0.0
 30
0.0
  0
INSERT
  5
4E4
330
1F
100
AcDbEntity
  8
Default
100
AcDbBlockReference
  2
GDimGGroup13
 10
0.0
 20
0.0
 30
0.0
  0
INSERT
  5
4F0
330
1F
100
AcDbEntity
  8
Default
100
AcDbBlockReference
  2
GDimGGroup14
 10
0.0
 20
0.0
 30
0.0
  0
INSERT
  5
4FE
330
1F
100
AcDbEntity
  8
Default
100
AcDbBlockReference
  2
GDimGGroup15
 10
0.0
 20
0.0
 30
0.0
  0
INSERT
  5
50C
330
1F
100
AcDbEntity
  8
Default
100
AcDbBlockReference
  2
GDimGGroup16
 10
0.0
 20
0.0
 30
0.0
  0
INSERT
  5
517
330
1F
100
AcDbEntity
  8
Default
100
AcDbBlockReference
  2
GDimGGroup17
 10
0.0
 20
0.0
 30
0.0
  0
INSERT
  5
521
330
1F
100
AcDbEntity
  8
Default
100
AcDbBlockReference
  2
GDimGGroup18
 10
0.0
 20
0.0
 30
0.0
  0
INSERT
  5
52E
330
1F
100
AcDbEntity
  8
Default
100
AcDbBlockReference
  2
GDimGGroup19
 10
0.0
 20
0.0
 30
0.0
  0
INSERT
  5
53C
330
1F
100
AcDbEntity
  8
Default
100
AcDbBlockReference
  2
GDimGGroup20
 10
0.0
 20
0.0
 30
0.0
  0
INSERT
  5
548
330
1F
100
AcDbEntity
  8
Default
100
AcDbBlockReference
  2
GDimGGroup21
 10
0.0
 20
0.0
 30
0.0
  0
INSERT
  5
554
330
1F
100
AcDbEntity
  8
Default
100
AcDbBlockReference
  2
GDimGGroup22
 10
0.0
 20
0.0
 30
0.0
  0
INSERT
  5
560
330
1F
100
AcDbEntity
  8
Default
100
AcDbBlockReference
  2
GDimGGroup23
 10
0.0
 20
0.0
 30
0.0
  0
INSERT
  5
56D
330
1F
100
AcDbEntity
  8
Default
100
AcDbBlockReference
  2
GDimGGroup24
 10
0.0
 20
0.0
 30
0.0
  0
INSERT
  5
579
330
1F
100
AcDbEntity
  8
Default
100
AcDbBlockReference
  2
GDimGGroup25
 10
0.0
 20
0.0
 30
0.0
  0
INSERT
  5
587
330
1F
100
AcDbEntity
  8
Default
100
AcDbBlockReference
  2
GDimGGroup26
 10
0.0
 20
0.0
 30
0.0
  0
INSERT
  5
593
330
1F
100
AcDbEntity
  8
Default
100
AcDbBlockReference
  2
GDimGGroup27
 10
0.0
 20
0.0
 30
0.0
  0
INSERT
  5
59F
330
1F
100
AcDbEntity
  8
Default
100
AcDbBlockReference
  2
GDimGGroup28
 10
0.0
 20
0.0
 30
0.0
  0
INSERT
  5
5AB
330
1F
100
AcDbEntity
  8
Default
100
AcDbBlockReference
  2
GDimGGroup29
 10
0.0
 20
0.0
 30
0.0
  0
LINE
  5
5B7
330
1F
100
AcDbEntity
  8
BORDER
  6
Continuous
 62
     7
 48
25.4
100
AcDbLine
 10
6.2292620399
 20
408.4651325162
 30
0.0
 11
586.2292620399
 21
408.4651325162
 31
0.0
  0
LINE
  5
5B8
330
1F
100
AcDbEntity
  8
BORDER
  6
Continuous
 62
     7
 48
25.4
100
AcDbLine
 10
6.2292620399
 20
408.4651325162
 30
0.0
 11
6.2292620399
 21
8.4651325162
 31
0.0
  0
LINE
  5
5B9
330
1F
100
AcDbEntity
  8
BORDER
  6
Continuous
 62
     7
 48
25.4
100
AcDbLine
 10
6.2292620399
 20
8.4651325162
 30
0.0
 11
586.2292620399
 21
8.4651325162
 31
0.0
  0
LINE
  5
5BA
330
1F
100
AcDbEntity
  8
BORDER
  6
Continuous
 62
     7
 48
25.4
100
AcDbLine
 10
586.2292620399
 20
8.4651325162
 30
0.0
 11
586.2292620399
 21
408.4651325162
 31
0.0
  0
LINE
  5
5BB
330
1F
100
AcDbEntity
  8
Default
  6
Continuous
 62
     7
 48
25.4
100
AcDbLine
 10
3.7292620399
 20
410.9651325162
 30
0.0
 11
588.7292620399
 21
410.9651325162
 31
0.0
  0
LINE
  5
5BC
330
1F
100
AcDbEntity
  8
Default
  6
Continuous
 62
     7
 48
25.4
100
AcDbLine
 10
588.7292620399
 20
410.9651325162
 30
0.0
 11
588.7292620399
 21
5.9651325162
 31
0.0
  0
LINE
  5
5BD
330
1F
100
AcDbEntity
  8
Default
  6
Continuous
 62
     7
 48
25.4
100
AcDbLine
 10
588.7292620399
 20
5.9651325162
 30
0.0
 11
3.7292620399
 21
5.9651325162
 31
0.0
  0
LINE
  5
5BE
330
1F
100
AcDbEntity
  8
Default
  6
Continuous
 62
     7
 48
25.4
100
AcDbLine
 10
3.7292620399
 20
5.9651325162
 30
0.0
 11
3.7292620399
 21
410.9651325162
 31
0.0
  0
TEXT
  5
5BF
330
1F
100
AcDbEntity
  8
Default
  6
Continuous
 62
     7
 48
25.4
100
AcDbText
 10
473.5242219525
 20
26.6212936876
 30
0.0
 40
5.0
  1
TITLE :
  7
SEACAD_arial_ttf
 11
473.5242219525
 21
31.6212936876
 31
0.0
100
AcDbText
 73
     3
  0
TEXT
  5
5C0
330
1F
100
AcDbEntity
  8
Default
  6
Continuous
 62
     7
 48
25.4
100
AcDbText
 10
473.4498030642
 20
38.7361567855
 30
0.0
 40
5.0
  1
KITAGAWA EUROPE LIMITED
  7
SEACAD_arial_ttf
 11
473.4498030642
 21
43.7361567855
 31
0.0
100
AcDbText
 73
     3
  0
TEXT
  5
5C1
330
1F
100
AcDbEntity
  8
Default
  6
Continuous
 62
     7
 48
25.4
100
AcDbText
 10
474.4044215056
 20
14.2263277309
 30
0.0
 40
5.0
  1
www.kitagawaeurope.com
  7
SEACAD_arial_ttf
 11
474.4044215056
 21
19.2263277309
 31
0.0
100
AcDbText
 73
     3
  0
TEXT
  5
5C2
330
1F
100
AcDbEntity
  8
Default
  6
Continuous
 62
     7
 48
25.4
100
AcDbText
 10
497.8463064412
 20
26.3210535629
 30
0.0
 40
5.0
  1
B208A6 POWER CHUCK
  7
SEACAD_arial_ttf
 11
497.8463064412
 21
31.3210535629
 31
0.0
100
AcDbText
 73
     3
  0
LINE
  5
5C3
330
1F
100
AcDbEntity
  8
Default
  6
Continuous
 62
     7
 48
25.4
100
AcDbLine
 10
471.5030858285
 20
48.4651325162
 30
0.0
 11
586.2292620399
 21
48.4651325162
 31
0.0
  0
LINE
  5
5C4
330
1F
100
AcDbEntity
  8
Default
  6
Continuous
 62
     7
 48
25.4
100
AcDbLine
 10
471.5030858285
 20
35.1651325162
 30
0.0
 11
586.2292620399
 21
35.1651325162
 31
0.0
  0
LINE
  5
5C5
330
1F
100
AcDbEntity
  8
Default
  6
Continuous
 62
     7
 48
25.4
100
AcDbLine
 10
586.2292620399
 20
21.8651325162
 30
0.0
 11
471.5030858285
 21
21.8651325162
 31
0.0
  0
LINE
  5
5C6
330
1F
100
AcDbEntity
  8
Default
  6
Continuous
 62
     7
 48
25.4
100
AcDbLine
 10
471.5030858285
 20
48.4651325162
 30
0.0
 11
471.5030858285
 21
8.4651325162
 31
0.0
  0
ENDSEC
  0
SECTION
  2
OBJECTS
  0
DICTIONARY
  5
C
330
0
100
AcDbDictionary
281
     1
  3
ACAD_GROUP
350
D
  3
ACAD_LAYOUT
350
1A
  3
ACAD_MLINESTYLE
350
17
  3
ACAD_PLOTSETTINGS
350
19
  3
ACAD_PLOTSTYLENAME
350
E
  0
DICTIONARY
  5
D
102
{ACAD_REACTORS
330
C
102
}
330
C
100
AcDbDictionary
281
     1
  0
DICTIONARY
  5
1A
102
{ACAD_REACTORS
330
C
102
}
330
C
100
AcDbDictionary
281
     1
  3
Layout1
350
1E
  3
Model
350
22
  0
DICTIONARY
  5
17
102
{ACAD_REACTORS
330
C
102
}
330
C
100
AcDbDictionary
281
     1
  3
Standard
350
18
  0
DICTIONARY
  5
19
102
{ACAD_REACTORS
330
C
102
}
330
C
100
AcDbDictionary
281
     1
  0
ACDBDICTIONARYWDFLT
  5
E
102
{ACAD_REACTORS
330
C
102
}
330
C
100
AcDbDictionary
281
     1
  3
Normal
350
F
100
AcDbDictionaryWithDefault
340
F
  0
LAYOUT
  5
1E
102
{ACAD_REACTORS
330
1A
102
}
330
1A
100
AcDbPlotSettings
  1

  2

  4

  6

 40
0.0
 41
0.0
 42
0.0
 43
0.0
 44
0.0
 45
0.0
 46
0.0
 47
0.0
 48
0.0
 49
0.0
140
0.0
141
0.0
142
1.0
143
1.0
 70
   688
 72
     0
 73
     0
 74
     5
  7

 75
    16
147
1.0
148
0.0
149
0.0
100
AcDbLayout
  1
Layout1
 70
     1
 71
     1
 10
0.0
 20
0.0
 11
594.0
 21
420.0
 12
0.0
 22
0.0
 32
0.0
 14
0.0
 24
0.0
 34
0.0
 15
594.0
 25
420.0
 35
0.0
146
0.0
 13
0.0
 23
0.0
 33
0.0
 16
1.0
 26
0.0
 36
0.0
 17
0.0
 27
1.0
 37
0.0
 76
     0
330
1B
  0
LAYOUT
  5
22
102
{ACAD_REACTORS
330
1A
102
}
330
1A
100
AcDbPlotSettings
  1

  2

  4

  6

 40
0.0
 41
0.0
 42
0.0
 43
0.0
 44
0.0
 45
0.0
 46
0.0
 47
0.0
 48
0.0
 49
0.0
140
0.0
141
0.0
142
1.0
143
1.0
 70
  1712
 72
     0
 73
     0
 74
     0
  7

 75
     0
147
1.0
148
0.0
149
0.0
100
AcDbLayout
  1
Model
 70
     1
 71
     0
 10
0.0
 20
0.0
 11
594.0
 21
420.0
 12
0.0
 22
0.0
 32
0.0
 14
0.0
 24
0.0
 34
0.0
 15
594.0
 25
420.0
 35
0.0
146
0.0
 13
0.0
 23
0.0
 33
0.0
 16
1.0
 26
0.0
 36
0.0
 17
0.0
 27
1.0
 37
0.0
 76
     0
330
1F
  0
MLINESTYLE
  5
18
102
{ACAD_REACTORS
330
17
102
}
330
17
100
AcDbMlineStyle
  2
Standard
 70
     0
  3

 62
   256
 51
90.0
 52
90.0
 71
     2
 49
0.5
 62
   256
  6
BYLAYER
 49
-0.5
 62
   256
  6
BYLAYER
  0
ACDBPLACEHOLDER
  5
F
102
{ACAD_REACTORS
330
E
102
}
330
E
  0
ENDSEC
  0
EOF
