  0
SECTION
  2
HEADER
  9
$ACADVER
  1
AC1015
  9
$ACADMAINTVER
 70
     6
  9
$DWGCODEPAGE
  3
ANSI_1252
  9
$INSBASE
 10
0.0
 20
0.0
 30
0.0
  9
$EXTMIN
 10
0.0
 20
0.0
 30
0.0
  9
$EXTMAX
 10
594.0
 20
420.0
 30
0.0
  9
$LIMMIN
 10
0.0
 20
0.0
  9
$LIMMAX
 10
594.0
 20
420.0
  9
$ORTHOMODE
 70
     0
  9
$REGENMODE
 70
     1
  9
$FILLMODE
 70
     1
  9
$QTEXTMODE
 70
     0
  9
$MIRRTEXT
 70
     1
  9
$LTSCALE
 40
1.0
  9
$ATTMODE
 70
     1
  9
$TEXTSIZE
 40
0.2
  9
$TRACEWID
 40
0.05
  9
$TEXTSTYLE
  7
Standard
  9
$CLAYER
  8
0
  9
$CELTYPE
  6
ByLayer
  9
$CECOLOR
 62
   256
  9
$CELTSCALE
 40
25.4
  9
$DISPSILH
 70
     0
  9
$DIMSCALE
 40
1.0
  9
$DIMASZ
 40
0.18
  9
$DIMEXO
 40
0.0625
  9
$DIMDLI
 40
0.38
  9
$DIMRND
 40
0.0
  9
$DIMDLE
 40
0.0
  9
$DIMEXE
 40
0.18
  9
$DIMTP
 40
0.0
  9
$DIMTM
 40
0.0
  9
$DIMTXT
 40
0.18
  9
$DIMCEN
 40
0.09
  9
$DIMTSZ
 40
0.0
  9
$DIMTOL
 70
     0
  9
$DIMLIM
 70
     0
  9
$DIMTIH
 70
     1
  9
$DIMTOH
 70
     1
  9
$DIMSE1
 70
     0
  9
$DIMSE2
 70
     0
  9
$DIMTAD
 70
     0
  9
$DIMZIN
 70
     0
  9
$DIMBLK
  1

  9
$DIMASO
 70
     1
  9
$DIMSHO
 70
     1
  9
$DIMPOST
  1

  9
$DIMAPOST
  1

  9
$DIMALT
 70
     0
  9
$DIMALTD
 70
     2
  9
$DIMALTF
 40
25.4
  9
$DIMLFAC
 40
1.0
  9
$DIMTOFL
 70
     0
  9
$DIMTVP
 40
0.0
  9
$DIMTIX
 70
     0
  9
$DIMSOXD
 70
     0
  9
$DIMSAH
 70
     0
  9
$DIMBLK1
  1

  9
$DIMBLK2
  1

  9
$DIMSTYLE
  2
Standard
  9
$DIMCLRD
 70
     0
  9
$DIMCLRE
 70
     0
  9
$DIMCLRT
 70
     0
  9
$DIMTFAC
 40
1.0
  9
$DIMGAP
 40
0.09
  9
$DIMJUST
 70
     0
  9
$DIMSD1
 70
     0
  9
$DIMSD2
 70
     0
  9
$DIMTOLJ
 70
     1
  9
$DIMTZIN
 70
     0
  9
$DIMALTZ
 70
     0
  9
$DIMALTTZ
 70
     0
  9
$DIMUPT
 70
     0
  9
$DIMDEC
 70
     4
  9
$DIMTDEC
 70
     4
  9
$DIMALTU
 70
     2
  9
$DIMALTTD
 70
     2
  9
$DIMTXSTY
  7
Standard
  9
$DIMAUNIT
 70
     0
  9
$DIMADEC
 70
     0
  9
$DIMALTRND
 40
0.0
  9
$DIMAZIN
 70
     0
  9
$DIMDSEP
 70
    46
  9
$DIMATFIT
 70
     3
  9
$DIMFRAC
 70
     0
  9
$DIMLDRBLK
  1

  9
$DIMLUNIT
 70
     2
  9
$DIMLWD
 70
    -2
  9
$DIMLWE
 70
    -2
  9
$DIMTMOVE
 70
     0
  9
$LUNITS
 70
     2
  9
$LUPREC
 70
     4
  9
$SKETCHINC
 40
0.1
  9
$FILLETRAD
 40
0.5
  9
$AUNITS
 70
     0
  9
$AUPREC
 70
     0
  9
$MENU
  1
.
  9
$ELEVATION
 40
0.0
  9
$PELEVATION
 40
0.0
  9
$THICKNESS
 40
0.0
  9
$LIMCHECK
 70
     0
  9
$CHAMFERA
 40
0.5
  9
$CHAMFERB
 40
0.5
  9
$CHAMFERC
 40
1.0
  9
$CHAMFERD
 40
0.0
  9
$SKPOLY
 70
     0
  9
$TDCREATE
 40
2454896.417790533
  9
$TDUCREATE
 40
2454896.417790533
  9
$TDUPDATE
 40
2454896.417790544
  9
$TDUUPDATE
 40
2454896.417790544
  9
$TDINDWG
 40
0.0000000116
  9
$TDUSRTIMER
 40
0.0000000116
  9
$USRTIMER
 70
     1
  9
$ANGBASE
 50
0.0
  9
$ANGDIR
 70
     0
  9
$PDMODE
 70
     0
  9
$PDSIZE
 40
0.0
  9
$PLINEWID
 40
0.0
  9
$SPLFRAME
 70
     0
  9
$SPLINETYPE
 70
     6
  9
$SPLINESEGS
 70
     8
  9
$HANDSEED
  5
466
  9
$SURFTAB1
 70
     6
  9
$SURFTAB2
 70
     6
  9
$SURFTYPE
 70
     6
  9
$SURFU
 70
     6
  9
$SURFV
 70
     6
  9
$UCSBASE
  2

  9
$UCSNAME
  2

  9
$UCSORG
 10
0.0
 20
0.0
 30
0.0
  9
$UCSXDIR
 10
1.0
 20
0.0
 30
0.0
  9
$UCSYDIR
 10
0.0
 20
1.0
 30
0.0
  9
$UCSORTHOREF
  2

  9
$UCSORTHOVIEW
 70
     0
  9
$UCSORGTOP
 10
0.0
 20
0.0
 30
0.0
  9
$UCSORGBOTTOM
 10
0.0
 20
0.0
 30
0.0
  9
$UCSORGLEFT
 10
0.0
 20
0.0
 30
0.0
  9
$UCSORGRIGHT
 10
0.0
 20
0.0
 30
0.0
  9
$UCSORGFRONT
 10
0.0
 20
0.0
 30
0.0
  9
$UCSORGBACK
 10
0.0
 20
0.0
 30
0.0
  9
$PUCSBASE
  2

  9
$PUCSNAME
  2

  9
$PUCSORG
 10
0.0
 20
0.0
 30
0.0
  9
$PUCSXDIR
 10
1.0
 20
0.0
 30
0.0
  9
$PUCSYDIR
 10
0.0
 20
1.0
 30
0.0
  9
$PUCSORTHOREF
  2

  9
$PUCSORTHOVIEW
 70
     0
  9
$PUCSORGTOP
 10
0.0
 20
0.0
 30
0.0
  9
$PUCSORGBOTTOM
 10
0.0
 20
0.0
 30
0.0
  9
$PUCSORGLEFT
 10
0.0
 20
0.0
 30
0.0
  9
$PUCSORGRIGHT
 10
0.0
 20
0.0
 30
0.0
  9
$PUCSORGFRONT
 10
0.0
 20
0.0
 30
0.0
  9
$PUCSORGBACK
 10
0.0
 20
0.0
 30
0.0
  9
$USERI1
 70
     0
  9
$USERI2
 70
     0
  9
$USERI3
 70
     0
  9
$USERI4
 70
     0
  9
$USERI5
 70
     0
  9
$USERR1
 40
0.0
  9
$USERR2
 40
0.0
  9
$USERR3
 40
0.0
  9
$USERR4
 40
0.0
  9
$USERR5
 40
0.0
  9
$WORLDVIEW
 70
     1
  9
$SHADEDGE
 70
     3
  9
$SHADEDIF
 70
    70
  9
$TILEMODE
 70
     1
  9
$MAXACTVP
 70
    64
  9
$PINSBASE
 10
0.0
 20
0.0
 30
0.0
  9
$PLIMCHECK
 70
     0
  9
$PEXTMIN
 10
0.0
 20
0.0
 30
0.0
  9
$PEXTMAX
 10
594.0
 20
420.0
 30
0.0
  9
$PLIMMIN
 10
0.0
 20
0.0
  9
$PLIMMAX
 10
594.0
 20
420.0
  9
$UNITMODE
 70
     0
  9
$VISRETAIN
 70
     1
  9
$PLINEGEN
 70
     0
  9
$PSLTSCALE
 70
     1
  9
$TREEDEPTH
 70
  3020
  9
$CMLSTYLE
  2
Standard
  9
$CMLJUST
 70
     0
  9
$CMLSCALE
 40
1.0
  9
$PROXYGRAPHICS
 70
     1
  9
$MEASUREMENT
 70
     1
  9
$CELWEIGHT
370
    -1
  9
$ENDCAPS
280
     0
  9
$JOINSTYLE
280
     0
  9
$LWDISPLAY
290
     0
  9
$INSUNITS
 70
     1
  9
$HYPERLINKBASE
  1

  9
$STYLESHEET
  1

  9
$XEDIT
290
     1
  9
$CEPSNTYPE
380
     0
  9
$PSTYLEMODE
290
     1
  9
$FINGERPRINTGUID
  2
{C4B3ED49-F6D7-4E6A-B845-A41B6F4CECE5}
  9
$VERSIONGUID
  2
{FAEB1C32-E019-11D5-929B-00C0DF256EC4}
  9
$EXTNAMES
290
     1
  9
$PSVPSCALE
 40
0.0
  9
$OLESTARTUP
290
     0
  0
ENDSEC
  0
SECTION
  2
CLASSES
  0
CLASS
  1
ACDBDICTIONARYWDFLT
  2
AcDbDictionaryWithDefault
  3
ObjectDBX Classes
 90
        0
280
     0
281
     0
  0
CLASS
  1
ACDBPLACEHOLDER
  2
AcDbPlaceHolder
  3
ObjectDBX Classes
 90
        0
280
     0
281
     0
  0
CLASS
  1
LAYOUT
  2
AcDbLayout
  3
ObjectDBX Classes
 90
        0
280
     0
281
     0
  0
ENDSEC
  0
SECTION
  2
TABLES
  0
TABLE
  2
VPORT
  5
8
330
0
100
AcDbSymbolTable
 70
     1
  0
VPORT
  5
29
330
8
100
AcDbSymbolTableRecord
100
AcDbViewportTableRecord
  2
*Active
 70
     0
 10
0.0
 20
0.0
 11
1.0
 21
1.0
 12
10.4299065421
 22
4.5
 13
0.0
 23
0.0
 14
0.5
 24
0.5
 15
0.5
 25
0.5
 16
0.0
 26
0.0
 36
1.0
 17
0.0
 27
0.0
 37
0.0
 40
9.0
 41
1.9729729729
 42
50.0
 43
0.0
 44
0.0
 50
0.0
 51
0.0
 71
     0
 72
   100
 73
     1
 74
     3
 75
     0
 76
     0
 77
     0
 78
     0
281
     0
 65
     1
110
0.0
120
0.0
130
0.0
111
1.0
121
0.0
131
0.0
112
0.0
122
1.0
132
0.0
 79
     0
146
0.0
  0
ENDTAB
  0
TABLE
  2
LTYPE
  5
5
330
0
100
AcDbSymbolTable
 70
     3
  0
LTYPE
  5
14
330
5
100
AcDbSymbolTableRecord
100
AcDbLinetypeTableRecord
  2
ByBlock
 70
     0
  3

 72
    65
 73
     0
 40
0.0
  0
LTYPE
  5
15
330
5
100
AcDbSymbolTableRecord
100
AcDbLinetypeTableRecord
  2
ByLayer
 70
     0
  3

 72
    65
 73
     0
 40
0.0
  0
LTYPE
  5
16
330
5
100
AcDbSymbolTableRecord
100
AcDbLinetypeTableRecord
  2
Continuous
 70
     0
  3
Solid line
 72
    65
 73
     0
 40
0.0
  0
LTYPE
  5
5F
330
5
100
AcDbSymbolTableRecord
100
AcDbLinetypeTableRecord
  2
CENTER2
 70
     0
  3
___ _ ___ _ ___ _ ___ _ ___ _ ___ _ ___ _ ___ _
 72
    65
 73
     4
 40
1.125
 49
0.75
 74
     4
 75
     0
340
0
 46
0.0
 50
0.0
 44
0.0
 45
0.0
 49
-0.125
 74
     4
 75
     0
340
0
 46
0.0
 50
0.0
 44
0.0
 45
0.0
 49
0.125
 74
     4
 75
     0
340
0
 46
0.0
 50
0.0
 44
0.0
 45
0.0
 49
-0.125
 74
     4
 75
     0
340
0
 46
0.0
 50
0.0
 44
0.0
 45
0.0
  0
LTYPE
  5
14A
330
5
100
AcDbSymbolTableRecord
100
AcDbLinetypeTableRecord
  2
HIDDEN2
 70
     0
  3
_ _ _ _ _ _ _ _ _ _ _ _ _ _ _ _ _ _ _ _ _ _ _ _
 72
    65
 73
     2
 40
0.1875
 49
0.125
 74
     4
 75
     0
340
0
 46
0.0
 50
0.0
 44
0.0
 45
0.0
 49
-0.0625
 74
     4
 75
     0
340
0
 46
0.0
 50
0.0
 44
0.0
 45
0.0
  0
ENDTAB
  0
TABLE
  2
LAYER
  5
2
330
0
100
AcDbSymbolTable
 70
     6
  0
LAYER
  5
10
330
2
100
AcDbSymbolTableRecord
100
AcDbLayerTableRecord
  2
0
 70
     0
 62
     7
  6
Continuous
370
    -3
390
F
  0
LAYER
  5
2A
330
2
100
AcDbSymbolTableRecord
100
AcDbLayerTableRecord
  2
Default
 70
     0
 62
     7
  6
Continuous
370
    -3
390
F
  0
LAYER
  5
5E
330
2
100
AcDbSymbolTableRecord
100
AcDbLayerTableRecord
  2
DV1_Default
 70
     0
 62
     7
  6
Continuous
370
    -3
390
F
  0
LAYER
  5
152
330
2
100
AcDbSymbolTableRecord
100
AcDbLayerTableRecord
  2
DV2_Default
 70
     0
 62
     7
  6
Continuous
370
    -3
390
F
  0
LAYER
  5
1F1
330
2
100
AcDbSymbolTableRecord
100
AcDbLayerTableRecord
  2
DV3_Default
 70
     0
 62
     7
  6
Continuous
370
    -3
390
F
  0
LAYER
  5
455
330
2
100
AcDbSymbolTableRecord
100
AcDbLayerTableRecord
  2
BORDER
 70
     0
 62
     7
  6
Continuous
370
    -3
390
F
  0
ENDTAB
  0
TABLE
  2
STYLE
  5
3
330
0
100
AcDbSymbolTable
 70
     3
  0
STYLE
  5
11
330
3
100
AcDbSymbolTableRecord
100
AcDbTextStyleTableRecord
  2
Standard
 70
     0
 40
0.0
 41
1.0
 50
0.0
 71
     0
 42
0.2
  3
txt
  4

  0
STYLE
  5
31
330
3
100
AcDbSymbolTableRecord
100
AcDbTextStyleTableRecord
  2
SEACAD_arial_ttf
 70
     0
 40
0.2
 41
1.0
 50
0.0
 71
     0
 42
0.2
  3
arial.ttf
  4

  0
STYLE
  5
57
330
3
100
AcDbSymbolTableRecord
100
AcDbTextStyleTableRecord
  2
SEACAD_semeca1_ttf
 70
     0
 40
0.2
 41
1.0
 50
0.0
 71
     0
 42
0.2
  3
semeca1.ttf
  4

  0
ENDTAB
  0
TABLE
  2
VIEW
  5
6
330
0
100
AcDbSymbolTable
 70
     0
  0
ENDTAB
  0
TABLE
  2
UCS
  5
7
330
0
100
AcDbSymbolTable
 70
     0
  0
ENDTAB
  0
TABLE
  2
APPID
  5
9
330
0
100
AcDbSymbolTable
 70
     1
  0
APPID
  5
12
330
9
100
AcDbSymbolTableRecord
100
AcDbRegAppTableRecord
  2
ACAD
 70
     0
  0
ENDTAB
  0
TABLE
  2
DIMSTYLE
  5
A
330
0
100
AcDbSymbolTable
 70
     1
100
AcDbDimStyleTable
  0
DIMSTYLE
105
27
330
A
100
AcDbSymbolTableRecord
100
AcDbDimStyleTableRecord
  2
Standard
 70
     0
340
11
  0
ENDTAB
  0
TABLE
  2
BLOCK_RECORD
  5
1
330
0
100
AcDbSymbolTable
 70
    42
  0
BLOCK_RECORD
  5
1F
330
1
100
AcDbSymbolTableRecord
100
AcDbBlockTableRecord
  2
*Model_Space
340
22
  0
BLOCK_RECORD
  5
1B
330
1
100
AcDbSymbolTableRecord
100
AcDbBlockTableRecord
  2
*Paper_Space
340
1E
  0
BLOCK_RECORD
  5
2B
330
1
100
AcDbSymbolTableRecord
100
AcDbBlockTableRecord
  2
SEANNOT_GROUP
340
0
102
{BLKREFS
331
2C
102
}
  0
BLOCK_RECORD
  5
36
330
1
100
AcDbSymbolTableRecord
100
AcDbBlockTableRecord
  2
SEANNOT_GROUP1
340
0
102
{BLKREFS
331
37
102
}
  0
BLOCK_RECORD
  5
3F
330
1
100
AcDbSymbolTableRecord
100
AcDbBlockTableRecord
  2
SEANNOT_GROUP2
340
0
102
{BLKREFS
331
40
102
}
  0
BLOCK_RECORD
  5
48
330
1
100
AcDbSymbolTableRecord
100
AcDbBlockTableRecord
  2
SEANNOT_GROUP3
340
0
102
{BLKREFS
331
49
102
}
  0
BLOCK_RECORD
  5
51
330
1
100
AcDbSymbolTableRecord
100
AcDbBlockTableRecord
  2
SEANNOT_GROUP4
340
0
102
{BLKREFS
331
52
102
}
  0
BLOCK_RECORD
  5
5C
330
1
100
AcDbSymbolTableRecord
100
AcDbBlockTableRecord
  2
SE
340
0
102
{BLKREFS
331
5D
102
}
  0
BLOCK_RECORD
  5
14F
330
1
100
AcDbSymbolTableRecord
100
AcDbBlockTableRecord
  2
SE1
340
0
102
{BLKREFS
331
150
102
}
  0
BLOCK_RECORD
  5
1EF
330
1
100
AcDbSymbolTableRecord
100
AcDbBlockTableRecord
  2
SE2
340
0
102
{BLKREFS
331
1F0
102
}
  0
BLOCK_RECORD
  5
2C1
330
1
100
AcDbSymbolTableRecord
100
AcDbBlockTableRecord
  2
GDimGGroup
340
0
102
{BLKREFS
331
2C2
102
}
  0
BLOCK_RECORD
  5
2CD
330
1
100
AcDbSymbolTableRecord
100
AcDbBlockTableRecord
  2
GDimGGroup1
340
0
102
{BLKREFS
331
2CE
102
}
  0
BLOCK_RECORD
  5
2DA
330
1
100
AcDbSymbolTableRecord
100
AcDbBlockTableRecord
  2
GDimGGroup2
340
0
102
{BLKREFS
331
2DB
102
}
  0
BLOCK_RECORD
  5
2E5
330
1
100
AcDbSymbolTableRecord
100
AcDbBlockTableRecord
  2
GDimGGroup3
340
0
102
{BLKREFS
331
2E6
102
}
  0
BLOCK_RECORD
  5
2F1
330
1
100
AcDbSymbolTableRecord
100
AcDbBlockTableRecord
  2
GDimGGroup4
340
0
102
{BLKREFS
331
2F2
102
}
  0
BLOCK_RECORD
  5
2FD
330
1
100
AcDbSymbolTableRecord
100
AcDbBlockTableRecord
  2
GDimGGroup5
340
0
102
{BLKREFS
331
2FE
102
}
  0
BLOCK_RECORD
  5
309
330
1
100
AcDbSymbolTableRecord
100
AcDbBlockTableRecord
  2
GDimGGroup6
340
0
102
{BLKREFS
331
30A
102
}
  0
BLOCK_RECORD
  5
315
330
1
100
AcDbSymbolTableRecord
100
AcDbBlockTableRecord
  2
GDimGGroup7
340
0
102
{BLKREFS
331
316
102
}
  0
BLOCK_RECORD
  5
321
330
1
100
AcDbSymbolTableRecord
100
AcDbBlockTableRecord
  2
GDimGGroup8
340
0
102
{BLKREFS
331
322
102
}
  0
BLOCK_RECORD
  5
32D
330
1
100
AcDbSymbolTableRecord
100
AcDbBlockTableRecord
  2
GDimGGroup9
340
0
102
{BLKREFS
331
32E
102
}
  0
BLOCK_RECORD
  5
339
330
1
100
AcDbSymbolTableRecord
100
AcDbBlockTableRecord
  2
GDimGGroup10
340
0
102
{BLKREFS
331
33A
102
}
  0
BLOCK_RECORD
  5
346
330
1
100
AcDbSymbolTableRecord
100
AcDbBlockTableRecord
  2
GDimGGroup11
340
0
102
{BLKREFS
331
347
102
}
  0
BLOCK_RECORD
  5
354
330
1
100
AcDbSymbolTableRecord
100
AcDbBlockTableRecord
  2
GDimGGroup12
340
0
102
{BLKREFS
331
355
102
}
  0
BLOCK_RECORD
  5
361
330
1
100
AcDbSymbolTableRecord
100
AcDbBlockTableRecord
  2
GDimGGroup13
340
0
102
{BLKREFS
331
362
102
}
  0
BLOCK_RECORD
  5
36E
330
1
100
AcDbSymbolTableRecord
100
AcDbBlockTableRecord
  2
GDimGGroup14
340
0
102
{BLKREFS
331
36F
102
}
  0
BLOCK_RECORD
  5
37B
330
1
100
AcDbSymbolTableRecord
100
AcDbBlockTableRecord
  2
GDimGGroup15
340
0
102
{BLKREFS
331
37C
102
}
  0
BLOCK_RECORD
  5
386
330
1
100
AcDbSymbolTableRecord
100
AcDbBlockTableRecord
  2
GDimGGroup16
340
0
102
{BLKREFS
331
387
102
}
  0
BLOCK_RECORD
  5
392
330
1
100
AcDbSymbolTableRecord
100
AcDbBlockTableRecord
  2
GDimGGroup17
340
0
102
{BLKREFS
331
393
102
}
  0
BLOCK_RECORD
  5
39E
330
1
100
AcDbSymbolTableRecord
100
AcDbBlockTableRecord
  2
GDimGGroup18
340
0
102
{BLKREFS
331
39F
102
}
  0
BLOCK_RECORD
  5
3AA
330
1
100
AcDbSymbolTableRecord
100
AcDbBlockTableRecord
  2
GDimGGroup19
340
0
102
{BLKREFS
331
3AB
102
}
  0
BLOCK_RECORD
  5
3B6
330
1
100
AcDbSymbolTableRecord
100
AcDbBlockTableRecord
  2
GDimGGroup20
340
0
102
{BLKREFS
331
3B7
102
}
  0
BLOCK_RECORD
  5
3C4
330
1
100
AcDbSymbolTableRecord
100
AcDbBlockTableRecord
  2
GDimGGroup21
340
0
102
{BLKREFS
331
3C5
102
}
  0
BLOCK_RECORD
  5
3D2
330
1
100
AcDbSymbolTableRecord
100
AcDbBlockTableRecord
  2
GDimGGroup22
340
0
102
{BLKREFS
331
3D3
102
}
  0
BLOCK_RECORD
  5
3DE
330
1
100
AcDbSymbolTableRecord
100
AcDbBlockTableRecord
  2
GDimGGroup23
340
0
102
{BLKREFS
331
3DF
102
}
  0
BLOCK_RECORD
  5
3E9
330
1
100
AcDbSymbolTableRecord
100
AcDbBlockTableRecord
  2
GDimGGroup24
340
0
102
{BLKREFS
331
3EA
102
}
  0
BLOCK_RECORD
  5
3F5
330
1
100
AcDbSymbolTableRecord
100
AcDbBlockTableRecord
  2
GDimGGroup25
340
0
102
{BLKREFS
331
3F6
102
}
  0
BLOCK_RECORD
  5
402
330
1
100
AcDbSymbolTableRecord
100
AcDbBlockTableRecord
  2
GDimGGroup26
340
0
102
{BLKREFS
331
403
102
}
  0
BLOCK_RECORD
  5
40E
330
1
100
AcDbSymbolTableRecord
100
AcDbBlockTableRecord
  2
GDimGGroup27
340
0
102
{BLKREFS
331
40F
102
}
  0
BLOCK_RECORD
  5
418
330
1
100
AcDbSymbolTableRecord
100
AcDbBlockTableRecord
  2
GDimGGroup28
340
0
102
{BLKREFS
331
419
102
}
  0
BLOCK_RECORD
  5
426
330
1
100
AcDbSymbolTableRecord
100
AcDbBlockTableRecord
  2
GDimGGroup29
340
0
102
{BLKREFS
331
427
102
}
  0
BLOCK_RECORD
  5
431
330
1
100
AcDbSymbolTableRecord
100
AcDbBlockTableRecord
  2
GDimGGroup30
340
0
102
{BLKREFS
331
432
102
}
  0
BLOCK_RECORD
  5
43D
330
1
100
AcDbSymbolTableRecord
100
AcDbBlockTableRecord
  2
GDimGGroup31
340
0
102
{BLKREFS
331
43E
102
}
  0
BLOCK_RECORD
  5
449
330
1
100
AcDbSymbolTableRecord
100
AcDbBlockTableRecord
  2
GDimGGroup32
340
0
102
{BLKREFS
331
44A
102
}
  0
ENDTAB
  0
ENDSEC
  0
SECTION
  2
BLOCKS
  0
BLOCK
  5
20
330
1F
100
AcDbEntity
  8
0
100
AcDbBlockBegin
  2
*Model_Space
 70
     0
 71
     0
 10
0.0
 20
0.0
 30
0.0
  3
*Model_Space
  1

  0
ENDBLK
  5
21
330
1F
100
AcDbEntity
  8
0
100
AcDbBlockEnd
  0
BLOCK
  5
1C
330
1B
100
AcDbEntity
 67
     1
  8
0
100
AcDbBlockBegin
  2
*Paper_Space
 70
     0
 71
     0
 10
0.0
 20
0.0
 30
0.0
  3
*Paper_Space
  1

  0
ENDBLK
  5
1D
330
1B
100
AcDbEntity
 67
     1
  8
0
100
AcDbBlockEnd
  0
BLOCK
  5
34
330
2B
100
AcDbEntity
  8
0
100
AcDbBlockBegin
  2
SEANNOT_GROUP
 70
     0
 71
     0
 10
0.0
 20
0.0
 30
0.0
  3
SEANNOT_GROUP
  1

  0
LWPOLYLINE
  5
2D
330
2B
100
AcDbEntity
  8
Default
  6
Continuous
 62
     7
 48
25.4
100
AcDbPolyline
 90
        2
 70
     0
 43
0.0
 10
247.2081333805
 20
399.6399420031
 10
211.8510234857
 20
384.3147936543
  0
HATCH
  5
2E
330
2B
100
AcDbEntity
  8
Default
  6
Continuous
 62
     7
 48
25.4
100
AcDbHatch
 10
0.0
 20
0.0
 30
0.0
210
0.0
220
0.0
230
1.0
  2
SOLID
 70
     1
 71
     0
 91
        1
 92
        1
 93
        3
 72
     1
 10
215.2559787174271
 20
386.5172300043722
 11
211.8510234856517
 21
384.3147936542844
 72
     1
 10
211.8510234856517
 20
384.3147936542844
 11
215.7862307643866
 21
385.2938695859538
 72
     1
 10
215.7862307643866
 20
385.2938695859538
 11
215.2559787174271
 21
386.5172300043722
 97
        0
 75
     0
 76
     1
 98
        0
  0
LWPOLYLINE
  5
2F
330
2B
100
AcDbEntity
  8
Default
  6
Continuous
 62
     7
 48
25.4
370
    20
100
AcDbPolyline
 90
        4
 70
     1
 43
0.00025
 10
215.2559787174
 20
386.5172300044
 10
211.8510234857
 20
384.3147936543
 10
215.7862307644
 20
385.293869586
 10
215.2559787174
 20
386.5172300044
  0
LINE
  5
30
330
2B
100
AcDbEntity
  8
Default
  6
Continuous
 62
     7
 48
25.4
100
AcDbLine
 10
247.2081333805
 20
399.6399420031
 30
0.0
 11
319.0487130906
 21
399.6399420031
 31
0.0
  0
TEXT
  5
32
330
2B
100
AcDbEntity
  8
Default
  6
Continuous
 62
     7
 48
25.4
100
AcDbText
 10
247.2081333805
 20
400.6399420031
 30
0.0
 40
4.0
  1
SERRATION PITCH 1.5X60
  7
SEACAD_arial_ttf
 11
247.2081333805
 21
404.6399420031
 31
0.0
100
AcDbText
 73
     3
  0
TEXT
  5
33
330
2B
100
AcDbEntity
  8
Default
  6
Continuous
 62
     7
 48
25.4
100
AcDbText
 10
317.3820464239
 20
400.6399420031
 30
0.0
 40
4.0
  1
°
  7
SEACAD_arial_ttf
 11
317.3820464239
 21
404.6399420031
 31
0.0
100
AcDbText
 73
     3
  0
ENDBLK
  5
35
330
2B
100
AcDbEntity
  8
0
100
AcDbBlockEnd
  0
BLOCK
  5
3D
330
36
100
AcDbEntity
  8
0
100
AcDbBlockBegin
  2
SEANNOT_GROUP1
 70
     0
 71
     0
 10
0.0
 20
0.0
 30
0.0
  3
SEANNOT_GROUP1
  1

  0
LWPOLYLINE
  5
38
330
36
100
AcDbEntity
  8
Default
  6
Continuous
 62
     7
 48
25.4
100
AcDbPolyline
 90
        2
 70
     0
 43
0.0
 10
353.8609816802
 20
343.606480142
 10
380.7288761333
 20
306.8748117029
  0
HATCH
  5
39
330
36
100
AcDbEntity
  8
Default
  6
Continuous
 62
     7
 48
25.4
100
AcDbHatch
 10
0.0
 20
0.0
 30
0.0
210
0.0
220
0.0
230
1.0
  2
SOLID
 70
     1
 71
     0
 91
        1
 92
        1
 93
        3
 72
     1
 10
377.8292650029579
 20
309.7097193379755
 11
380.7288761333007
 21
306.874811702906
 72
     1
 10
380.7288761333007
 20
306.874811702906
 11
378.9054302429989
 21
310.4968955080829
 72
     1
 10
378.9054302429989
 20
310.4968955080829
 11
377.8292650029579
 21
309.7097193379755
 97
        0
 75
     0
 76
     1
 98
        0
  0
LWPOLYLINE
  5
3A
330
36
100
AcDbEntity
  8
Default
  6
Continuous
 62
     7
 48
25.4
370
    20
100
AcDbPolyline
 90
        4
 70
     1
 43
0.00025
 10
377.829265003
 20
309.709719338
 10
380.7288761333
 20
306.8748117029
 10
378.905430243
 20
310.4968955081
 10
377.829265003
 20
309.709719338
  0
LINE
  5
3B
330
36
100
AcDbEntity
  8
Default
  6
Continuous
 62
     7
 48
25.4
100
AcDbLine
 10
353.8609816802
 20
343.606480142
 30
0.0
 11
338.0348947236
 21
343.606480142
 31
0.0
  0
TEXT
  5
3C
330
36
100
AcDbEntity
  8
Default
  6
Continuous
 62
     7
 48
25.4
100
AcDbText
 10
338.0348947236
 20
344.606480142
 30
0.0
 40
4.0
  1
3-M12
  7
SEACAD_arial_ttf
 11
338.0348947236
 21
348.606480142
 31
0.0
100
AcDbText
 73
     3
  0
ENDBLK
  5
3E
330
36
100
AcDbEntity
  8
0
100
AcDbBlockEnd
  0
BLOCK
  5
46
330
3F
100
AcDbEntity
  8
0
100
AcDbBlockBegin
  2
SEANNOT_GROUP2
 70
     0
 71
     0
 10
0.0
 20
0.0
 30
0.0
  3
SEANNOT_GROUP2
  1

  0
LWPOLYLINE
  5
41
330
3F
100
AcDbEntity
  8
Default
  6
Continuous
 62
     7
 48
25.4
100
AcDbPolyline
 90
        2
 70
     0
 43
0.0
 10
113.4743531767
 20
212.5551775574
 10
146.8170657169
 20
232.3620249605
  0
HATCH
  5
42
330
3F
100
AcDbEntity
  8
Default
  6
Continuous
 62
     7
 48
25.4
100
AcDbHatch
 10
0.0
 20
0.0
 30
0.0
210
0.0
220
0.0
230
1.0
  2
SOLID
 70
     1
 71
     0
 91
        1
 92
        1
 93
        3
 72
     1
 10
143.7185631959165
 20
229.745972947558
 11
146.8170657168568
 21
232.3620249604794
 72
     1
 10
146.8170657168568
 20
232.3620249604794
 11
143.0376005171821
 21
230.8923009009939
 72
     1
 10
143.0376005171821
 20
230.8923009009939
 11
143.7185631959165
 21
229.745972947558
 97
        0
 75
     0
 76
     1
 98
        0
  0
LWPOLYLINE
  5
43
330
3F
100
AcDbEntity
  8
Default
  6
Continuous
 62
     7
 48
25.4
370
    20
100
AcDbPolyline
 90
        4
 70
     1
 43
0.00025
 10
143.7185631959
 20
229.7459729476
 10
146.8170657169
 20
232.3620249605
 10
143.0376005172
 20
230.892300901
 10
143.7185631959
 20
229.7459729476
  0
LINE
  5
44
330
3F
100
AcDbEntity
  8
Default
  6
Continuous
 62
     7
 48
25.4
100
AcDbLine
 10
113.4743531767
 20
212.5551775574
 30
0.0
 11
97.6482662202
 21
212.5551775574
 31
0.0
  0
TEXT
  5
45
330
3F
100
AcDbEntity
  8
Default
  6
Continuous
 62
     7
 48
25.4
100
AcDbText
 10
97.6482662202
 20
213.5551775574
 30
0.0
 40
4.0
  1
6-M22
  7
SEACAD_arial_ttf
 11
97.6482662202
 21
217.5551775574
 31
0.0
100
AcDbText
 73
     3
  0
ENDBLK
  5
47
330
3F
100
AcDbEntity
  8
0
100
AcDbBlockEnd
  0
BLOCK
  5
4F
330
48
100
AcDbEntity
  8
0
100
AcDbBlockBegin
  2
SEANNOT_GROUP3
 70
     0
 71
     0
 10
0.0
 20
0.0
 30
0.0
  3
SEANNOT_GROUP3
  1

  0
LWPOLYLINE
  5
4A
330
48
100
AcDbEntity
  8
Default
  6
Continuous
 62
     7
 48
25.4
100
AcDbPolyline
 90
        2
 70
     0
 43
0.0
 10
154.4827614102
 20
331.9137743797
 10
169.8474244515
 20
321.1220249605
  0
HATCH
  5
4B
330
48
100
AcDbEntity
  8
Default
  6
Continuous
 62
     7
 48
25.4
100
AcDbHatch
 10
0.0
 20
0.0
 30
0.0
210
0.0
220
0.0
230
1.0
  2
SOLID
 70
     1
 71
     0
 91
        1
 92
        1
 93
        3
 72
     1
 10
166.1909752089916
 20
322.8755428371254
 11
169.8474244514761
 21
321.1220249604795
 72
     1
 10
169.8474244514761
 20
321.1220249604795
 11
166.9573296145246
 21
323.9666335170314
 72
     1
 10
166.9573296145245
 20
323.9666335170314
 11
166.1909752089916
 21
322.8755428371254
 97
        0
 75
     0
 76
     1
 98
        0
  0
LWPOLYLINE
  5
4C
330
48
100
AcDbEntity
  8
Default
  6
Continuous
 62
     7
 48
25.4
370
    20
100
AcDbPolyline
 90
        4
 70
     1
 43
0.00025
 10
166.190975209
 20
322.8755428371
 10
169.8474244515
 20
321.1220249605
 10
166.9573296145
 20
323.966633517
 10
166.190975209
 20
322.8755428371
  0
LINE
  5
4D
330
48
100
AcDbEntity
  8
Default
  6
Continuous
 62
     7
 48
25.4
100
AcDbLine
 10
154.4827614102
 20
331.9137743797
 30
0.0
 11
112.1380058796
 21
331.9137743797
 31
0.0
  0
TEXT
  5
4E
330
48
100
AcDbEntity
  8
Default
  6
Continuous
 62
     7
 48
25.4
100
AcDbText
 10
112.1380058796
 20
332.9137743797
 30
0.0
 40
4.0
  1
MAX M155X3.0
  7
SEACAD_arial_ttf
 11
112.1380058796
 21
336.9137743797
 31
0.0
100
AcDbText
 73
     3
  0
ENDBLK
  5
50
330
48
100
AcDbEntity
  8
0
100
AcDbBlockEnd
  0
BLOCK
  5
5A
330
51
100
AcDbEntity
  8
0
100
AcDbBlockBegin
  2
SEANNOT_GROUP4
 70
     0
 71
     0
 10
0.0
 20
0.0
 30
0.0
  3
SEANNOT_GROUP4
  1

  0
LWPOLYLINE
  5
53
330
51
100
AcDbEntity
  8
Default
  6
Continuous
 62
     7
 48
25.4
100
AcDbPolyline
 90
        2
 70
     0
 43
0.0
 10
231.6425126203
 20
258.3912862098
 10
231.6425126203
 20
236.2120249605
  0
HATCH
  5
54
330
51
100
AcDbEntity
  8
Default
  6
Continuous
 62
     7
 48
25.4
100
AcDbHatch
 10
0.0
 20
0.0
 30
0.0
210
0.0
220
0.0
230
1.0
  2
SOLID
 70
     1
 71
     0
 91
        1
 92
        1
 93
        3
 72
     1
 10
230.9758459219918
 20
240.2120251504692
 11
231.6425126203234
 21
236.2120249604794
 72
     1
 10
231.6425126203234
 20
236.2120249604794
 11
232.3091793186551
 21
240.2120251504692
 72
     1
 10
232.3091793186551
 20
240.2120251504692
 11
230.9758459219918
 21
240.2120251504692
 97
        0
 75
     0
 76
     1
 98
        0
  0
LWPOLYLINE
  5
55
330
51
100
AcDbEntity
  8
Default
  6
Continuous
 62
     7
 48
25.4
370
    20
100
AcDbPolyline
 90
        4
 70
     1
 43
0.00025
 10
230.975845922
 20
240.2120251505
 10
231.6425126203
 20
236.2120249605
 10
232.3091793187
 20
240.2120251505
 10
230.975845922
 20
240.2120251505
  0
LINE
  5
56
330
51
100
AcDbEntity
  8
Default
  6
Continuous
 62
     7
 48
25.4
100
AcDbLine
 10
215.3297954348
 20
236.2120249605
 30
0.0
 11
233.6425126203
 21
236.2120249605
 31
0.0
  0
TEXT
  5
58
330
51
100
AcDbEntity
  8
Default
  6
Continuous
 62
     7
 48
25.4
100
AcDbText
 10
233.0425126203
 20
256.3912862098
 30
0.0
 40
4.0
  1
O
  7
SEACAD_semeca1_ttf
 11
233.0425126203
 21
260.3912862098
 31
0.0
100
AcDbText
 73
     3
  0
TEXT
  5
59
330
51
100
AcDbEntity
  8
Default
  6
Continuous
 62
     7
 48
25.4
100
AcDbText
 10
237.6039161291
 20
256.3912862098
 30
0.0
 40
4.0
  1
330.2
  7
SEACAD_arial_ttf
 11
237.6039161291
 21
260.3912862098
 31
0.0
100
AcDbText
 73
     3
  0
ENDBLK
  5
5B
330
51
100
AcDbEntity
  8
0
100
AcDbBlockEnd
  0
BLOCK
  5
14D
330
5C
100
AcDbEntity
  8
0
100
AcDbBlockBegin
  2
SE
 70
     0
 71
     0
 10
0.0
 20
0.0
 30
0.0
  3
SE
  1

  0
LINE
  5
60
330
5C
100
AcDbEntity
  8
DV1_Default
  6
CENTER2
 62
     7
 48
25.4
100
AcDbLine
 10
143.3390021872
 20
293.9970249605
 30
0.0
 11
229.158729312
 21
293.9970249605
 31
0.0
  0
LINE
  5
61
330
5C
100
AcDbEntity
  8
DV1_Default
  6
Continuous
 62
     7
 48
25.4
100
AcDbLine
 10
209.0510234857
 20
201.2470249605
 30
0.0
 11
162.1510234857
 21
201.2470249605
 31
0.0
  0
LINE
  5
62
330
5C
100
AcDbEntity
  8
DV1_Default
  6
Continuous
 62
     7
 48
25.4
100
AcDbLine
 10
210.1010234857
 20
202.2970249605
 30
0.0
 11
210.1010234857
 21
293.9970249605
 31
0.0
  0
LINE
  5
63
330
5C
100
AcDbEntity
  8
DV1_Default
  6
Continuous
 62
     7
 48
25.4
100
AcDbLine
 10
163.2010234857
 20
240.0620249605
 30
0.0
 11
163.2010234857
 21
293.9970249605
 31
0.0
  0
LINE
  5
64
330
5C
100
AcDbEntity
  8
DV1_Default
  6
Continuous
 62
     7
 48
25.4
100
AcDbLine
 10
153.7510234857
 20
240.0620249605
 30
0.0
 11
153.7510234857
 21
293.9970249605
 31
0.0
  0
LINE
  5
65
330
5C
100
AcDbEntity
  8
DV1_Default
  6
CENTER2
 62
     7
 48
25.4
100
AcDbLine
 10
215.3297954348
 20
236.2120249605
 30
0.0
 11
138.8501561714
 21
236.2120249605
 31
0.0
  0
LINE
  5
66
330
5C
100
AcDbEntity
  8
DV1_Default
  6
Continuous
 62
     7
 48
25.4
100
AcDbLine
 10
201.3510234857
 20
229.9120249605
 30
0.0
 11
210.1010234857
 21
229.9120249605
 31
0.0
  0
LINE
  5
67
330
5C
100
AcDbEntity
  8
DV1_Default
  6
Continuous
 62
     7
 48
25.4
100
AcDbLine
 10
201.3510234857
 20
229.9120249605
 30
0.0
 11
201.3510234857
 21
236.2120249605
 31
0.0
  0
LINE
  5
68
330
5C
100
AcDbEntity
  8
DV1_Default
  6
Continuous
 62
     7
 48
25.4
100
AcDbLine
 10
201.3510234857
 20
232.3620249605
 30
0.0
 11
141.8510234857
 21
232.3620249605
 31
0.0
  0
LINE
  5
69
330
5C
100
AcDbEntity
  8
DV1_Default
  6
Continuous
 62
     7
 48
25.4
100
AcDbLine
 10
201.3510234857
 20
232.0120249605
 30
0.0
 11
163.2010234857
 21
232.0120249605
 31
0.0
  0
LINE
  5
6A
330
5C
100
AcDbEntity
  8
DV1_Default
  6
Continuous
 62
     7
 48
25.4
100
AcDbLine
 10
171.9510234857
 20
232.3620249605
 30
0.0
 11
171.9510234857
 21
236.2120249605
 31
0.0
  0
LINE
  5
6B
330
5C
100
AcDbEntity
  8
DV1_Default
  6
Continuous
 62
     7
 48
25.4
100
AcDbLine
 10
208.7010234857
 20
230.4370249605
 30
0.0
 11
201.3510234857
 21
230.4370249605
 31
0.0
  0
LINE
  5
6C
330
5C
100
AcDbEntity
  8
DV1_Default
  6
Continuous
 62
     7
 48
25.4
100
AcDbLine
 10
209.0510234857
 20
230.7870249605
 30
0.0
 11
209.0510234857
 21
236.2120249605
 31
0.0
  0
LINE
  5
6D
330
5C
100
AcDbEntity
  8
DV1_Default
  6
Continuous
 62
     7
 48
25.4
100
AcDbLine
 10
208.7010234857
 20
230.4370249605
 30
0.0
 11
209.0510234857
 21
230.7870249605
 31
0.0
  0
LINE
  5
6E
330
5C
100
AcDbEntity
  8
DV1_Default
  6
Continuous
 62
     7
 48
25.4
100
AcDbLine
 10
208.7010234857
 20
230.4370249605
 30
0.0
 11
208.7010234857
 21
236.2120249605
 31
0.0
  0
LINE
  5
6F
330
5C
100
AcDbEntity
  8
DV1_Default
  6
Continuous
 62
     7
 48
25.4
100
AcDbLine
 10
201.3510234857
 20
242.5120249605
 30
0.0
 11
210.1010234857
 21
242.5120249605
 31
0.0
  0
LINE
  5
70
330
5C
100
AcDbEntity
  8
DV1_Default
  6
Continuous
 62
     7
 48
25.4
100
AcDbLine
 10
201.3510234857
 20
242.5120249605
 30
0.0
 11
201.3510234857
 21
236.2120249605
 31
0.0
  0
LINE
  5
71
330
5C
100
AcDbEntity
  8
DV1_Default
  6
Continuous
 62
     7
 48
25.4
100
AcDbLine
 10
201.3510234857
 20
240.0620249605
 30
0.0
 11
141.8510234857
 21
240.0620249605
 31
0.0
  0
LINE
  5
72
330
5C
100
AcDbEntity
  8
DV1_Default
  6
Continuous
 62
     7
 48
25.4
100
AcDbLine
 10
201.3510234857
 20
240.4120249605
 30
0.0
 11
163.2010234857
 21
240.4120249605
 31
0.0
  0
LINE
  5
73
330
5C
100
AcDbEntity
  8
DV1_Default
  6
Continuous
 62
     7
 48
25.4
100
AcDbLine
 10
171.9510234857
 20
240.0620249605
 30
0.0
 11
171.9510234857
 21
236.2120249605
 31
0.0
  0
LINE
  5
74
330
5C
100
AcDbEntity
  8
DV1_Default
  6
Continuous
 62
     7
 48
25.4
100
AcDbLine
 10
208.7010234857
 20
241.9870249605
 30
0.0
 11
201.3510234857
 21
241.9870249605
 31
0.0
  0
LINE
  5
75
330
5C
100
AcDbEntity
  8
DV1_Default
  6
Continuous
 62
     7
 48
25.4
100
AcDbLine
 10
209.0510234857
 20
241.6370249605
 30
0.0
 11
209.0510234857
 21
236.2120249605
 31
0.0
  0
LINE
  5
76
330
5C
100
AcDbEntity
  8
DV1_Default
  6
Continuous
 62
     7
 48
25.4
100
AcDbLine
 10
208.7010234857
 20
241.9870249605
 30
0.0
 11
209.0510234857
 21
241.6370249605
 31
0.0
  0
LINE
  5
77
330
5C
100
AcDbEntity
  8
DV1_Default
  6
Continuous
 62
     7
 48
25.4
100
AcDbLine
 10
208.7010234857
 20
241.9870249605
 30
0.0
 11
208.7010234857
 21
236.2120249605
 31
0.0
  0
LINE
  5
78
330
5C
100
AcDbEntity
  8
DV1_Default
  6
Continuous
 62
     7
 48
25.4
100
AcDbLine
 10
153.7510234857
 20
228.1970249605
 30
0.0
 11
153.7510234857
 21
232.3620249605
 31
0.0
  0
LINE
  5
79
330
5C
100
AcDbEntity
  8
DV1_Default
  6
Continuous
 62
     7
 48
25.4
100
AcDbLine
 10
163.2010234857
 20
228.1970249605
 30
0.0
 11
163.2010234857
 21
232.3620249605
 31
0.0
  0
LINE
  5
7A
330
5C
100
AcDbEntity
  8
DV1_Default
  6
Continuous
 62
     7
 48
25.4
100
AcDbLine
 10
181.1257561667
 20
386.7470249605
 30
0.0
 11
162.1510234857
 21
386.7470249605
 31
0.0
  0
LINE
  5
7B
330
5C
100
AcDbEntity
  8
DV1_Default
  6
Continuous
 62
     7
 48
25.4
100
AcDbLine
 10
210.1010234857
 20
328.4720249605
 30
0.0
 11
210.1010234857
 21
293.9970249605
 31
0.0
  0
LINE
  5
7C
330
5C
100
AcDbEntity
  8
DV1_Default
  6
Continuous
 62
     7
 48
25.4
100
AcDbLine
 10
153.7510234857
 20
293.9970249605
 30
0.0
 11
153.7510234857
 21
359.7970249605
 31
0.0
  0
LINE
  5
7D
330
5C
100
AcDbEntity
  8
DV1_Default
  6
Continuous
 62
     7
 48
25.4
100
AcDbLine
 10
163.2010234857
 20
293.9970249605
 30
0.0
 11
163.2010234857
 21
349.6820249605
 31
0.0
  0
LINE
  5
7E
330
5C
100
AcDbEntity
  8
DV1_Default
  6
Continuous
 62
     7
 48
25.4
100
AcDbLine
 10
167.0510234857
 20
293.9970249605
 30
0.0
 11
167.0510234857
 21
264.2470249605
 31
0.0
  0
LINE
  5
7F
330
5C
100
AcDbEntity
  8
DV1_Default
  6
Continuous
 62
     7
 48
25.4
100
AcDbLine
 10
167.0510234857
 20
293.9970249605
 30
0.0
 11
167.0510234857
 21
279.9970249605
 31
0.0
  0
LINE
  5
80
330
5C
100
AcDbEntity
  8
DV1_Default
  6
Continuous
 62
     7
 48
25.4
100
AcDbLine
 10
167.0510234857
 20
279.9970249605
 30
0.0
 11
178.6010234857
 21
279.9970249605
 31
0.0
  0
LINE
  5
81
330
5C
100
AcDbEntity
  8
DV1_Default
  6
Continuous
 62
     7
 48
25.4
100
AcDbLine
 10
178.6010234857
 20
293.9970249605
 30
0.0
 11
178.6010234857
 21
266.8720249605
 31
0.0
  0
LINE
  5
82
330
5C
100
AcDbEntity
  8
DV1_Default
  6
Continuous
 62
     7
 48
25.4
100
AcDbLine
 10
180.7010234857
 20
266.8720249605
 30
0.0
 11
180.7010234857
 21
293.9970249605
 31
0.0
  0
LINE
  5
83
330
5C
100
AcDbEntity
  8
DV1_Default
  6
Continuous
 62
     7
 48
25.4
100
AcDbLine
 10
178.6010234857
 20
266.8720249605
 30
0.0
 11
167.0510234857
 21
266.8720249605
 31
0.0
  0
LINE
  5
84
330
5C
100
AcDbEntity
  8
DV1_Default
  6
Continuous
 62
     7
 48
25.4
100
AcDbLine
 10
171.2510234857
 20
264.2470249605
 30
0.0
 11
171.2510234857
 21
247.3073567006
 31
0.0
  0
LINE
  5
85
330
5C
100
AcDbEntity
  8
DV1_Default
  6
Continuous
 62
     7
 48
25.4
100
AcDbLine
 10
163.2010234857
 20
247.3073567006
 30
0.0
 11
188.4757561667
 21
247.3073567006
 31
0.0
  0
LINE
  5
86
330
5C
100
AcDbEntity
  8
DV1_Default
  6
Continuous
 62
     7
 48
25.4
100
AcDbLine
 10
180.7010234857
 20
266.8720249605
 30
0.0
 11
180.7010234857
 21
264.2470249605
 31
0.0
  0
LINE
  5
87
330
5C
100
AcDbEntity
  8
DV1_Default
  6
Continuous
 62
     7
 48
25.4
100
AcDbLine
 10
167.0510234857
 20
264.2470249605
 30
0.0
 11
176.9101801158
 21
264.2470249605
 31
0.0
  0
LINE
  5
88
330
5C
100
AcDbEntity
  8
DV1_Default
  6
Continuous
 62
     7
 48
25.4
100
AcDbLine
 10
182.4510234857
 20
264.2470249605
 30
0.0
 11
182.4510234857
 21
293.9970249605
 31
0.0
  0
LINE
  5
89
330
5C
100
AcDbEntity
  8
DV1_Default
  6
Continuous
 62
     7
 48
25.4
100
AcDbLine
 10
182.4510234857
 20
269.4970249605
 30
0.0
 11
182.4510234857
 21
268.7970249605
 31
0.0
  0
LINE
  5
8A
330
5C
100
AcDbEntity
  8
DV1_Default
  6
Continuous
 62
     7
 48
25.4
100
AcDbLine
 10
185.2867931591
 20
269.4970249605
 30
0.0
 11
210.1010234857
 21
269.4970249605
 31
0.0
  0
LINE
  5
8B
330
5C
100
AcDbEntity
  8
DV1_Default
  6
Continuous
 62
     7
 48
25.4
100
AcDbLine
 10
180.4101801158
 20
264.2470249605
 30
0.0
 11
182.4510234857
 21
264.2470249605
 31
0.0
  0
LINE
  5
8C
330
5C
100
AcDbEntity
  8
DV1_Default
  6
Continuous
 62
     7
 48
25.4
100
AcDbLine
 10
182.4510234857
 20
269.4970249605
 30
0.0
 11
182.4510234857
 21
268.4470249605
 31
0.0
  0
LINE
  5
8D
330
5C
100
AcDbEntity
  8
DV1_Default
  6
Continuous
 62
     7
 48
25.4
100
AcDbLine
 10
206.6010234857
 20
268.0970249605
 30
0.0
 11
206.6010234857
 21
263.0220249605
 31
0.0
  0
LINE
  5
8E
330
5C
100
AcDbEntity
  8
DV1_Default
  6
Continuous
 62
     7
 48
25.4
100
AcDbLine
 10
206.6010234857
 20
259.5220249605
 30
0.0
 11
210.1010234857
 21
259.5220249605
 31
0.0
  0
LINE
  5
8F
330
5C
100
AcDbEntity
  8
DV1_Default
  6
Continuous
 62
     7
 48
25.4
100
AcDbLine
 10
183.8510234857
 20
269.4970249605
 30
0.0
 11
183.8510234857
 21
293.9970249605
 31
0.0
  0
LINE
  5
90
330
5C
100
AcDbEntity
  8
DV1_Default
  6
Continuous
 62
     7
 48
25.4
100
AcDbLine
 10
176.9101801158
 20
264.2470249605
 30
0.0
 11
176.9101801158
 21
261.7970249605
 31
0.0
  0
LINE
  5
91
330
5C
100
AcDbEntity
  8
DV1_Default
  6
Continuous
 62
     7
 48
25.4
100
AcDbLine
 10
176.9101801158
 20
261.7970249605
 30
0.0
 11
180.4101801158
 21
261.7970249605
 31
0.0
  0
LINE
  5
92
330
5C
100
AcDbEntity
  8
DV1_Default
  6
Continuous
 62
     7
 48
25.4
100
AcDbLine
 10
180.4101801158
 20
261.7970249605
 30
0.0
 11
180.4101801158
 21
264.2470249605
 31
0.0
  0
LINE
  5
93
330
5C
100
AcDbEntity
  8
DV1_Default
  6
Continuous
 62
     7
 48
25.4
100
AcDbLine
 10
167.0510234857
 20
293.9970249605
 30
0.0
 11
167.0510234857
 21
323.7470249605
 31
0.0
  0
LINE
  5
94
330
5C
100
AcDbEntity
  8
DV1_Default
  6
Continuous
 62
     7
 48
25.4
100
AcDbLine
 10
167.0510234857
 20
293.9970249605
 30
0.0
 11
167.0510234857
 21
307.9970249605
 31
0.0
  0
LINE
  5
95
330
5C
100
AcDbEntity
  8
DV1_Default
  6
Continuous
 62
     7
 48
25.4
100
AcDbLine
 10
167.0510234857
 20
307.9970249605
 30
0.0
 11
178.6010234857
 21
307.9970249605
 31
0.0
  0
LINE
  5
96
330
5C
100
AcDbEntity
  8
DV1_Default
  6
Continuous
 62
     7
 48
25.4
100
AcDbLine
 10
178.6010234857
 20
293.9970249605
 30
0.0
 11
178.6010234857
 21
321.1220249605
 31
0.0
  0
LINE
  5
97
330
5C
100
AcDbEntity
  8
DV1_Default
  6
Continuous
 62
     7
 48
25.4
100
AcDbLine
 10
180.7010234857
 20
321.1220249605
 30
0.0
 11
180.7010234857
 21
293.9970249605
 31
0.0
  0
LINE
  5
98
330
5C
100
AcDbEntity
  8
DV1_Default
  6
Continuous
 62
     7
 48
25.4
100
AcDbLine
 10
178.6010234857
 20
321.1220249605
 30
0.0
 11
167.0510234857
 21
321.1220249605
 31
0.0
  0
LINE
  5
99
330
5C
100
AcDbEntity
  8
DV1_Default
  6
Continuous
 62
     7
 48
25.4
100
AcDbLine
 10
171.2510234857
 20
323.7470249605
 30
0.0
 11
171.2510234857
 21
340.6866932204
 31
0.0
  0
LINE
  5
9A
330
5C
100
AcDbEntity
  8
DV1_Default
  6
Continuous
 62
     7
 48
25.4
100
AcDbLine
 10
163.2010234857
 20
340.6866932204
 30
0.0
 11
188.4757561667
 21
340.6866932204
 31
0.0
  0
LINE
  5
9B
330
5C
100
AcDbEntity
  8
DV1_Default
  6
Continuous
 62
     7
 48
25.4
100
AcDbLine
 10
180.7010234857
 20
321.1220249605
 30
0.0
 11
180.7010234857
 21
323.7470249605
 31
0.0
  0
LINE
  5
9C
330
5C
100
AcDbEntity
  8
DV1_Default
  6
Continuous
 62
     7
 48
25.4
100
AcDbLine
 10
167.0510234857
 20
323.7470249605
 30
0.0
 11
176.9101801158
 21
323.7470249605
 31
0.0
  0
LINE
  5
9D
330
5C
100
AcDbEntity
  8
DV1_Default
  6
Continuous
 62
     7
 48
25.4
100
AcDbLine
 10
182.4510234857
 20
323.7470249605
 30
0.0
 11
182.4510234857
 21
293.9970249605
 31
0.0
  0
LINE
  5
9E
330
5C
100
AcDbEntity
  8
DV1_Default
  6
Continuous
 62
     7
 48
25.4
100
AcDbLine
 10
182.4510234857
 20
318.4970249605
 30
0.0
 11
182.4510234857
 21
319.1970249605
 31
0.0
  0
LINE
  5
9F
330
5C
100
AcDbEntity
  8
DV1_Default
  6
Continuous
 62
     7
 48
25.4
100
AcDbLine
 10
185.2867931591
 20
318.4970249605
 30
0.0
 11
210.1010234857
 21
318.4970249605
 31
0.0
  0
LINE
  5
A0
330
5C
100
AcDbEntity
  8
DV1_Default
  6
Continuous
 62
     7
 48
25.4
100
AcDbLine
 10
180.4101801158
 20
323.7470249605
 30
0.0
 11
182.4510234857
 21
323.7470249605
 31
0.0
  0
LINE
  5
A1
330
5C
100
AcDbEntity
  8
DV1_Default
  6
Continuous
 62
     7
 48
25.4
100
AcDbLine
 10
182.4510234857
 20
318.4970249605
 30
0.0
 11
182.4510234857
 21
319.5470249605
 31
0.0
  0
LINE
  5
A2
330
5C
100
AcDbEntity
  8
DV1_Default
  6
Continuous
 62
     7
 48
25.4
100
AcDbLine
 10
206.6010234857
 20
319.8970249605
 30
0.0
 11
206.6010234857
 21
328.4720249605
 31
0.0
  0
LINE
  5
A3
330
5C
100
AcDbEntity
  8
DV1_Default
  6
Continuous
 62
     7
 48
25.4
100
AcDbLine
 10
206.6010234857
 20
328.4720249605
 30
0.0
 11
210.1010234857
 21
328.4720249605
 31
0.0
  0
LINE
  5
A4
330
5C
100
AcDbEntity
  8
DV1_Default
  6
Continuous
 62
     7
 48
25.4
100
AcDbLine
 10
183.8510234857
 20
318.4970249605
 30
0.0
 11
183.8510234857
 21
293.9970249605
 31
0.0
  0
LINE
  5
A5
330
5C
100
AcDbEntity
  8
DV1_Default
  6
Continuous
 62
     7
 48
25.4
100
AcDbLine
 10
176.9101801158
 20
323.7470249605
 30
0.0
 11
176.9101801158
 21
326.1970249605
 31
0.0
  0
LINE
  5
A6
330
5C
100
AcDbEntity
  8
DV1_Default
  6
Continuous
 62
     7
 48
25.4
100
AcDbLine
 10
176.9101801158
 20
326.1970249605
 30
0.0
 11
180.4101801158
 21
326.1970249605
 31
0.0
  0
LINE
  5
A7
330
5C
100
AcDbEntity
  8
DV1_Default
  6
Continuous
 62
     7
 48
25.4
100
AcDbLine
 10
180.4101801158
 20
326.1970249605
 30
0.0
 11
180.4101801158
 21
323.7470249605
 31
0.0
  0
LINE
  5
A8
330
5C
100
AcDbEntity
  8
DV1_Default
  6
CENTER2
 62
     7
 48
25.4
100
AcDbLine
 10
153.7510234857
 20
351.7820249605
 30
0.0
 11
173.2410529187
 21
351.7820249605
 31
0.0
  0
LINE
  5
A9
330
5C
100
AcDbEntity
  8
DV1_Default
  6
Continuous
 62
     7
 48
25.4
100
AcDbLine
 10
159.0010234857
 20
353.8820249605
 30
0.0
 11
171.9510234857
 21
353.8820249605
 31
0.0
  0
LINE
  5
AA
330
5C
100
AcDbEntity
  8
DV1_Default
  6
Continuous
 62
     7
 48
25.4
100
AcDbLine
 10
171.9510234857
 20
349.6820249605
 30
0.0
 11
159.0010234857
 21
349.6820249605
 31
0.0
  0
LINE
  5
AB
330
5C
100
AcDbEntity
  8
DV1_Default
  6
Continuous
 62
     7
 48
25.4
100
AcDbLine
 10
171.9510234857
 20
349.6820249605
 30
0.0
 11
171.9510234857
 21
353.8820249605
 31
0.0
  0
LINE
  5
AC
330
5C
100
AcDbEntity
  8
DV1_Default
  6
Continuous
 62
     7
 48
25.4
100
AcDbLine
 10
159.0010234857
 20
355.2820249605
 30
0.0
 11
159.0010234857
 21
348.2820249605
 31
0.0
  0
LINE
  5
AD
330
5C
100
AcDbEntity
  8
DV1_Default
  6
Continuous
 62
     7
 48
25.4
100
AcDbLine
 10
159.0010234857
 20
348.2820249605
 30
0.0
 11
153.7510234857
 21
348.2820249605
 31
0.0
  0
LINE
  5
AE
330
5C
100
AcDbEntity
  8
DV1_Default
  6
Continuous
 62
     7
 48
25.4
100
AcDbLine
 10
159.0010234857
 20
355.2820249605
 30
0.0
 11
153.7510234857
 21
355.2820249605
 31
0.0
  0
LINE
  5
AF
330
5C
100
AcDbEntity
  8
DV1_Default
  6
Continuous
 62
     7
 48
25.4
100
AcDbLine
 10
159.0010234857
 20
354.9320249605
 30
0.0
 11
155.1510234857
 21
354.9320249605
 31
0.0
  0
LINE
  5
B0
330
5C
100
AcDbEntity
  8
DV1_Default
  6
Continuous
 62
     7
 48
25.4
100
AcDbLine
 10
154.8010234857
 20
354.5820249605
 30
0.0
 11
154.8010234857
 21
348.9820249605
 31
0.0
  0
LINE
  5
B1
330
5C
100
AcDbEntity
  8
DV1_Default
  6
Continuous
 62
     7
 48
25.4
100
AcDbLine
 10
155.1510234857
 20
348.6320249605
 30
0.0
 11
159.0010234857
 21
348.6320249605
 31
0.0
  0
LINE
  5
B2
330
5C
100
AcDbEntity
  8
DV1_Default
  6
Continuous
 62
     7
 48
25.4
100
AcDbLine
 10
154.8010234857
 20
354.5820249605
 30
0.0
 11
155.1510234857
 21
354.9320249605
 31
0.0
  0
LINE
  5
B3
330
5C
100
AcDbEntity
  8
DV1_Default
  6
Continuous
 62
     7
 48
25.4
100
AcDbLine
 10
155.1510234857
 20
348.6320249605
 30
0.0
 11
154.8010234857
 21
348.9820249605
 31
0.0
  0
LINE
  5
B4
330
5C
100
AcDbEntity
  8
DV1_Default
  6
Continuous
 62
     7
 48
25.4
100
AcDbLine
 10
155.1510234857
 20
354.9320249605
 30
0.0
 11
155.1510234857
 21
348.6320249605
 31
0.0
  0
LINE
  5
B5
330
5C
100
AcDbEntity
  8
DV1_Default
  6
Continuous
 62
     7
 48
25.4
100
AcDbLine
 10
159.0010234857
 20
353.5320249605
 30
0.0
 11
171.9510234857
 21
353.5320249605
 31
0.0
  0
LINE
  5
B6
330
5C
100
AcDbEntity
  8
DV1_Default
  6
Continuous
 62
     7
 48
25.4
100
AcDbLine
 10
159.0010234857
 20
350.0320249605
 30
0.0
 11
171.9510234857
 21
350.0320249605
 31
0.0
  0
LINE
  5
B7
330
5C
100
AcDbEntity
  8
DV1_Default
  6
Continuous
 62
     7
 48
25.4
100
AcDbLine
 10
163.2010234857
 20
353.8820249605
 30
0.0
 11
163.2010234857
 21
359.7970249605
 31
0.0
  0
LINE
  5
B8
330
5C
100
AcDbEntity
  8
DV1_Default
  6
Continuous
 62
     7
 48
25.4
100
AcDbLine
 10
210.1010234857
 20
385.6970249605
 30
0.0
 11
209.0510234857
 21
386.7470249605
 31
0.0
  0
LINE
  5
B9
330
5C
100
AcDbEntity
  8
DV1_Default
  6
Continuous
 62
     7
 48
25.4
100
AcDbLine
 10
210.1010234857
 20
202.2970249605
 30
0.0
 11
209.0510234857
 21
201.2470249605
 31
0.0
  0
LINE
  5
BA
330
5C
100
AcDbEntity
  8
DV1_Default
  6
CENTER2
 62
     7
 48
25.4
100
AcDbLine
 10
210.9967452904
 20
261.9720249605
 30
0.0
 11
200.043654686
 21
261.9720249605
 31
0.0
  0
LINE
  5
BB
330
5C
100
AcDbEntity
  8
DV1_Default
  6
Continuous
 62
     7
 48
25.4
100
AcDbLine
 10
201.9451277418
 20
263.0220249605
 30
0.0
 11
207.6510234857
 21
263.0220249605
 31
0.0
  0
LINE
  5
BC
330
5C
100
AcDbEntity
  8
DV1_Default
  6
Continuous
 62
     7
 48
25.4
100
AcDbLine
 10
201.9451277418
 20
260.9220249605
 30
0.0
 11
207.6510234857
 21
260.9220249605
 31
0.0
  0
LINE
  5
BD
330
5C
100
AcDbEntity
  8
DV1_Default
  6
Continuous
 62
     7
 48
25.4
100
AcDbLine
 10
201.9451277418
 20
261.0970249605
 30
0.0
 11
207.6510234857
 21
261.0970249605
 31
0.0
  0
LINE
  5
BE
330
5C
100
AcDbEntity
  8
DV1_Default
  6
Continuous
 62
     7
 48
25.4
100
AcDbLine
 10
207.6510234857
 20
262.8470249605
 30
0.0
 11
201.9451277418
 21
262.8470249605
 31
0.0
  0
LINE
  5
BF
330
5C
100
AcDbEntity
  8
DV1_Default
  6
Continuous
 62
     7
 48
25.4
100
AcDbLine
 10
207.6510234857
 20
263.8970249605
 30
0.0
 11
207.6510234857
 21
260.0470249605
 31
0.0
  0
LINE
  5
C0
330
5C
100
AcDbEntity
  8
DV1_Default
  6
Continuous
 62
     7
 48
25.4
100
AcDbLine
 10
207.6510234857
 20
263.8970249605
 30
0.0
 11
210.1010234857
 21
263.8970249605
 31
0.0
  0
LINE
  5
C1
330
5C
100
AcDbEntity
  8
DV1_Default
  6
Continuous
 62
     7
 48
25.4
100
AcDbLine
 10
207.6510234857
 20
263.7220249605
 30
0.0
 11
209.5760234857
 21
263.7220249605
 31
0.0
  0
LINE
  5
C2
330
5C
100
AcDbEntity
  8
DV1_Default
  6
Continuous
 62
     7
 48
25.4
100
AcDbLine
 10
209.7510234857
 20
263.5470249605
 30
0.0
 11
209.7510234857
 21
260.3970249605
 31
0.0
  0
LINE
  5
C3
330
5C
100
AcDbEntity
  8
DV1_Default
  6
Continuous
 62
     7
 48
25.4
100
AcDbLine
 10
209.5760234857
 20
260.2220249605
 30
0.0
 11
207.6510234857
 21
260.2220249605
 31
0.0
  0
LINE
  5
C4
330
5C
100
AcDbEntity
  8
DV1_Default
  6
Continuous
 62
     7
 48
25.4
100
AcDbLine
 10
210.1010234857
 20
260.0470249605
 30
0.0
 11
207.6510234857
 21
260.0470249605
 31
0.0
  0
LINE
  5
C5
330
5C
100
AcDbEntity
  8
DV1_Default
  6
Continuous
 62
     7
 48
25.4
100
AcDbLine
 10
206.6010234857
 20
260.9220249605
 30
0.0
 11
206.6010234857
 21
259.5220249605
 31
0.0
  0
LINE
  5
C6
330
5C
100
AcDbEntity
  8
DV1_Default
  6
Continuous
 62
     7
 48
25.4
100
AcDbLine
 10
209.7510234857
 20
263.5470249605
 30
0.0
 11
209.5760234857
 21
263.7220249605
 31
0.0
  0
LINE
  5
C7
330
5C
100
AcDbEntity
  8
DV1_Default
  6
Continuous
 62
     7
 48
25.4
100
AcDbLine
 10
209.5760234857
 20
260.2220249605
 30
0.0
 11
209.7510234857
 21
260.3970249605
 31
0.0
  0
LINE
  5
C8
330
5C
100
AcDbEntity
  8
DV1_Default
  6
Continuous
 62
     7
 48
25.4
100
AcDbLine
 10
209.5760234857
 20
263.7220249605
 30
0.0
 11
209.5760234857
 21
260.2220249605
 31
0.0
  0
LINE
  5
C9
330
5C
100
AcDbEntity
  8
DV1_Default
  6
Continuous
 62
     7
 48
25.4
100
AcDbLine
 10
201.9451277418
 20
263.0220249605
 30
0.0
 11
201.9451277418
 21
260.9220249605
 31
0.0
  0
LINE
  5
CA
330
5C
100
AcDbEntity
  8
DV1_Default
  6
Continuous
 62
     7
 48
25.4
100
AcDbLine
 10
181.1257561667
 20
383.9558472354
 30
0.0
 11
181.1257561667
 21
386.7470249605
 31
0.0
  0
LINE
  5
CB
330
5C
100
AcDbEntity
  8
DV1_Default
  6
Continuous
 62
     7
 48
25.4
100
AcDbLine
 10
181.1257561667
 20
386.7470249605
 30
0.0
 11
181.1257561667
 21
387.4470249605
 31
0.0
  0
LINE
  5
CC
330
5C
100
AcDbEntity
  8
DV1_Default
  6
Continuous
 62
     7
 48
25.4
100
AcDbLine
 10
211.8510234857
 20
388.4970249605
 30
0.0
 11
235.6510234857
 21
388.4970249605
 31
0.0
  0
LINE
  5
CD
330
5C
100
AcDbEntity
  8
DV1_Default
  6
Continuous
 62
     7
 48
25.4
100
AcDbLine
 10
235.6510234857
 20
388.4970249605
 30
0.0
 11
235.6510234857
 21
325.4970249605
 31
0.0
  0
LINE
  5
CE
330
5C
100
AcDbEntity
  8
DV1_Default
  6
Continuous
 62
     7
 48
25.4
100
AcDbLine
 10
235.6510234857
 20
325.4970249605
 30
0.0
 11
211.8510234857
 21
325.4970249605
 31
0.0
  0
LINE
  5
CF
330
5C
100
AcDbEntity
  8
DV1_Default
  6
Continuous
 62
     7
 48
25.4
100
AcDbLine
 10
211.1510234857
 20
326.1970249605
 30
0.0
 11
211.1510234857
 21
387.7970249605
 31
0.0
  0
LINE
  5
D0
330
5C
100
AcDbEntity
  8
DV1_Default
  6
Continuous
 62
     7
 48
25.4
100
AcDbLine
 10
181.1257561667
 20
387.4470249605
 30
0.0
 11
211.1510234857
 21
387.4470249605
 31
0.0
  0
LINE
  5
D1
330
5C
100
AcDbEntity
  8
DV1_Default
  6
Continuous
 62
     7
 48
25.4
100
AcDbLine
 10
211.1510234857
 20
387.4470249605
 30
0.0
 11
211.1510234857
 21
387.4470249605
 31
0.0
  0
LINE
  5
D2
330
5C
100
AcDbEntity
  8
DV1_Default
  6
Continuous
 62
     7
 48
25.4
100
AcDbLine
 10
211.8510234857
 20
386.7470249605
 30
0.0
 11
211.8510234857
 21
325.4970249605
 31
0.0
  0
LINE
  5
D3
330
5C
100
AcDbEntity
  8
DV1_Default
  6
Continuous
 62
     7
 48
25.4
100
AcDbLine
 10
211.1510234857
 20
326.1970249605
 30
0.0
 11
211.8510234857
 21
325.4970249605
 31
0.0
  0
LINE
  5
D4
330
5C
100
AcDbEntity
  8
DV1_Default
  6
Continuous
 62
     7
 48
25.4
100
AcDbLine
 10
211.8510234857
 20
388.4970249605
 30
0.0
 11
211.1510234857
 21
387.7970249605
 31
0.0
  0
LINE
  5
D5
330
5C
100
AcDbEntity
  8
DV1_Default
  6
Continuous
 62
     7
 48
25.4
100
AcDbLine
 10
211.1510234857
 20
387.4470249605
 30
0.0
 11
211.8510234857
 21
386.7470249605
 31
0.0
  0
LINE
  5
D6
330
5C
100
AcDbEntity
  8
DV1_Default
  6
Continuous
 62
     7
 48
25.4
100
AcDbLine
 10
210.1010234857
 20
328.4720249605
 30
0.0
 11
211.1510234857
 21
328.4720249605
 31
0.0
  0
LINE
  5
D7
330
5C
100
AcDbEntity
  8
DV1_Default
  6
Continuous
 62
     7
 48
25.4
100
AcDbLine
 10
211.1510234857
 20
328.4720249605
 30
0.0
 11
211.8669229545
 21
329.1879244294
 31
0.0
  0
LINE
  5
D8
330
5C
100
AcDbEntity
  8
DV1_Default
  6
CENTER2
 62
     7
 48
25.4
100
AcDbLine
 10
238.600405358
 20
353.4970249605
 30
0.0
 11
203.6431858894
 21
353.4970249605
 31
0.0
  0
LINE
  5
D9
330
5C
100
AcDbEntity
  8
DV1_Default
  6
CENTER2
 62
     7
 48
25.4
100
AcDbLine
 10
239.5079074725
 20
374.4970249605
 30
0.0
 11
202.8491215392
 21
374.4970249605
 31
0.0
  0
LINE
  5
DA
330
5C
100
AcDbEntity
  8
DV1_Default
  6
Continuous
 62
     7
 48
25.4
100
AcDbLine
 10
219.9010234857
 20
374.4970249605
 30
0.0
 11
226.9010234857
 21
374.4970249605
 31
0.0
  0
LINE
  5
DB
330
5C
100
AcDbEntity
  8
DV1_Default
  6
Continuous
 62
     7
 48
25.4
100
AcDbLine
 10
226.9010234857
 20
374.4970249605
 30
0.0
 11
226.9010234857
 21
379.3970249605
 31
0.0
  0
LINE
  5
DC
330
5C
100
AcDbEntity
  8
DV1_Default
  6
Continuous
 62
     7
 48
25.4
100
AcDbLine
 10
226.5510234857
 20
379.7470249605
 30
0.0
 11
219.9010234857
 21
379.7470249605
 31
0.0
  0
LINE
  5
DD
330
5C
100
AcDbEntity
  8
DV1_Default
  6
Continuous
 62
     7
 48
25.4
100
AcDbLine
 10
235.6510234857
 20
380.4470249605
 30
0.0
 11
219.9010234857
 21
380.4470249605
 31
0.0
  0
LINE
  5
DE
330
5C
100
AcDbEntity
  8
DV1_Default
  6
Continuous
 62
     7
 48
25.4
100
AcDbLine
 10
219.9010234857
 20
380.4470249605
 30
0.0
 11
219.9010234857
 21
374.4970249605
 31
0.0
  0
LINE
  5
DF
330
5C
100
AcDbEntity
  8
DV1_Default
  6
Continuous
 62
     7
 48
25.4
100
AcDbLine
 10
219.9010234857
 20
374.4970249605
 30
0.0
 11
219.9010234857
 21
377.9970249605
 31
0.0
  0
LINE
  5
E0
330
5C
100
AcDbEntity
  8
DV1_Default
  6
Continuous
 62
     7
 48
25.4
100
AcDbLine
 10
219.9010234857
 20
377.9970249605
 30
0.0
 11
215.0010234857
 21
377.9970249605
 31
0.0
  0
LINE
  5
E1
330
5C
100
AcDbEntity
  8
DV1_Default
  6
Continuous
 62
     7
 48
25.4
100
AcDbLine
 10
226.5510234857
 20
379.7470249605
 30
0.0
 11
226.9010234857
 21
379.3970249605
 31
0.0
  0
LINE
  5
E2
330
5C
100
AcDbEntity
  8
DV1_Default
  6
Continuous
 62
     7
 48
25.4
100
AcDbLine
 10
226.5510234857
 20
379.7470249605
 30
0.0
 11
226.5510234857
 21
374.4970249605
 31
0.0
  0
LINE
  5
E3
330
5C
100
AcDbEntity
  8
DV1_Default
  6
Continuous
 62
     7
 48
25.4
100
AcDbLine
 10
215.3510234857
 20
378.3470249605
 30
0.0
 11
219.9010234857
 21
378.3470249605
 31
0.0
  0
LINE
  5
E4
330
5C
100
AcDbEntity
  8
DV1_Default
  6
Continuous
 62
     7
 48
25.4
100
AcDbLine
 10
211.8510234857
 20
381.7958905257
 30
0.0
 11
215.0010234857
 21
381.7958905257
 31
0.0
  0
LINE
  5
E5
330
5C
100
AcDbEntity
  8
DV1_Default
  6
Continuous
 62
     7
 48
25.4
100
AcDbLine
 10
215.0010234857
 20
388.4970249605
 30
0.0
 11
215.3510234857
 21
388.4970249605
 31
0.0
  0
LINE
  5
E6
330
5C
100
AcDbEntity
  8
DV1_Default
  6
Continuous
 62
     7
 48
25.4
100
AcDbLine
 10
215.3510234857
 20
388.4970249605
 30
0.0
 11
215.3510234857
 21
378.3470249605
 31
0.0
  0
LINE
  5
E7
330
5C
100
AcDbEntity
  8
DV1_Default
  6
Continuous
 62
     7
 48
25.4
100
AcDbLine
 10
211.1510234857
 20
361.5470249605
 30
0.0
 11
211.1510234857
 21
361.5470249605
 31
0.0
  0
LINE
  5
E8
330
5C
100
AcDbEntity
  8
DV1_Default
  6
Continuous
 62
     7
 48
25.4
100
AcDbLine
 10
219.9010234857
 20
374.4970249605
 30
0.0
 11
226.9010234857
 21
374.4970249605
 31
0.0
  0
LINE
  5
E9
330
5C
100
AcDbEntity
  8
DV1_Default
  6
Continuous
 62
     7
 48
25.4
100
AcDbLine
 10
226.9010234857
 20
374.4970249605
 30
0.0
 11
226.9010234857
 21
369.5970249605
 31
0.0
  0
LINE
  5
EA
330
5C
100
AcDbEntity
  8
DV1_Default
  6
Continuous
 62
     7
 48
25.4
100
AcDbLine
 10
226.5510234857
 20
369.2470249605
 30
0.0
 11
219.9010234857
 21
369.2470249605
 31
0.0
  0
LINE
  5
EB
330
5C
100
AcDbEntity
  8
DV1_Default
  6
Continuous
 62
     7
 48
25.4
100
AcDbLine
 10
235.6510234857
 20
368.5470249605
 30
0.0
 11
219.9010234857
 21
368.5470249605
 31
0.0
  0
LINE
  5
EC
330
5C
100
AcDbEntity
  8
DV1_Default
  6
Continuous
 62
     7
 48
25.4
100
AcDbLine
 10
219.9010234857
 20
368.5470249605
 30
0.0
 11
219.9010234857
 21
374.4970249605
 31
0.0
  0
LINE
  5
ED
330
5C
100
AcDbEntity
  8
DV1_Default
  6
Continuous
 62
     7
 48
25.4
100
AcDbLine
 10
219.9010234857
 20
374.4970249605
 30
0.0
 11
219.9010234857
 21
370.9970249605
 31
0.0
  0
LINE
  5
EE
330
5C
100
AcDbEntity
  8
DV1_Default
  6
Continuous
 62
     7
 48
25.4
100
AcDbLine
 10
219.9010234857
 20
370.9970249605
 30
0.0
 11
215.0010234857
 21
370.9970249605
 31
0.0
  0
LINE
  5
EF
330
5C
100
AcDbEntity
  8
DV1_Default
  6
Continuous
 62
     7
 48
25.4
100
AcDbLine
 10
226.5510234857
 20
369.2470249605
 30
0.0
 11
226.9010234857
 21
369.5970249605
 31
0.0
  0
LINE
  5
F0
330
5C
100
AcDbEntity
  8
DV1_Default
  6
Continuous
 62
     7
 48
25.4
100
AcDbLine
 10
226.5510234857
 20
369.2470249605
 30
0.0
 11
226.5510234857
 21
374.4970249605
 31
0.0
  0
LINE
  5
F1
330
5C
100
AcDbEntity
  8
DV1_Default
  6
Continuous
 62
     7
 48
25.4
100
AcDbLine
 10
215.3510234857
 20
370.6470249605
 30
0.0
 11
219.9010234857
 21
370.6470249605
 31
0.0
  0
LINE
  5
F2
330
5C
100
AcDbEntity
  8
DV1_Default
  6
Continuous
 62
     7
 48
25.4
100
AcDbLine
 10
235.6510234857
 20
374.4970249605
 30
0.0
 11
235.6510234857
 21
363.9970249605
 31
0.0
  0
LINE
  5
F3
330
5C
100
AcDbEntity
  8
DV1_Default
  6
Continuous
 62
     7
 48
25.4
100
AcDbLine
 10
215.3510234857
 20
370.6470249605
 30
0.0
 11
215.3510234857
 21
363.9970249605
 31
0.0
  0
LINE
  5
F4
330
5C
100
AcDbEntity
  8
DV1_Default
  6
Continuous
 62
     7
 48
25.4
100
AcDbLine
 10
215.0010234857
 20
381.7958905257
 30
0.0
 11
215.0010234857
 21
363.9970249605
 31
0.0
  0
LINE
  5
F5
330
5C
100
AcDbEntity
  8
DV1_Default
  6
Continuous
 62
     7
 48
25.4
100
AcDbLine
 10
211.1510234857
 20
340.5470249605
 30
0.0
 11
211.1510234857
 21
340.5470249605
 31
0.0
  0
LINE
  5
F6
330
5C
100
AcDbEntity
  8
DV1_Default
  6
Continuous
 62
     7
 48
25.4
100
AcDbLine
 10
219.9010234857
 20
353.4970249605
 30
0.0
 11
226.9010234857
 21
353.4970249605
 31
0.0
  0
LINE
  5
F7
330
5C
100
AcDbEntity
  8
DV1_Default
  6
Continuous
 62
     7
 48
25.4
100
AcDbLine
 10
226.9010234857
 20
353.4970249605
 30
0.0
 11
226.9010234857
 21
348.5970249605
 31
0.0
  0
LINE
  5
F8
330
5C
100
AcDbEntity
  8
DV1_Default
  6
Continuous
 62
     7
 48
25.4
100
AcDbLine
 10
226.5510234857
 20
348.2470249605
 30
0.0
 11
219.9010234857
 21
348.2470249605
 31
0.0
  0
LINE
  5
F9
330
5C
100
AcDbEntity
  8
DV1_Default
  6
Continuous
 62
     7
 48
25.4
100
AcDbLine
 10
235.6510234857
 20
347.5470249605
 30
0.0
 11
219.9010234857
 21
347.5470249605
 31
0.0
  0
LINE
  5
FA
330
5C
100
AcDbEntity
  8
DV1_Default
  6
Continuous
 62
     7
 48
25.4
100
AcDbLine
 10
219.9010234857
 20
347.5470249605
 30
0.0
 11
219.9010234857
 21
353.4970249605
 31
0.0
  0
LINE
  5
FB
330
5C
100
AcDbEntity
  8
DV1_Default
  6
Continuous
 62
     7
 48
25.4
100
AcDbLine
 10
219.9010234857
 20
353.4970249605
 30
0.0
 11
219.9010234857
 21
349.9970249605
 31
0.0
  0
LINE
  5
FC
330
5C
100
AcDbEntity
  8
DV1_Default
  6
Continuous
 62
     7
 48
25.4
100
AcDbLine
 10
219.9010234857
 20
349.9970249605
 30
0.0
 11
215.0010234857
 21
349.9970249605
 31
0.0
  0
LINE
  5
FD
330
5C
100
AcDbEntity
  8
DV1_Default
  6
Continuous
 62
     7
 48
25.4
100
AcDbLine
 10
226.5510234857
 20
348.2470249605
 30
0.0
 11
226.9010234857
 21
348.5970249605
 31
0.0
  0
LINE
  5
FE
330
5C
100
AcDbEntity
  8
DV1_Default
  6
Continuous
 62
     7
 48
25.4
100
AcDbLine
 10
226.5510234857
 20
348.2470249605
 30
0.0
 11
226.5510234857
 21
353.4970249605
 31
0.0
  0
LINE
  5
FF
330
5C
100
AcDbEntity
  8
DV1_Default
  6
Continuous
 62
     7
 48
25.4
100
AcDbLine
 10
215.3510234857
 20
349.6470249605
 30
0.0
 11
219.9010234857
 21
349.6470249605
 31
0.0
  0
LINE
  5
100
330
5C
100
AcDbEntity
  8
DV1_Default
  6
Continuous
 62
     7
 48
25.4
100
AcDbLine
 10
211.8510234857
 20
346.1981593952
 30
0.0
 11
215.0010234857
 21
346.1981593952
 31
0.0
  0
LINE
  5
101
330
5C
100
AcDbEntity
  8
DV1_Default
  6
Continuous
 62
     7
 48
25.4
100
AcDbLine
 10
211.1510234857
 20
366.4470249605
 30
0.0
 11
211.1510234857
 21
366.4470249605
 31
0.0
  0
LINE
  5
102
330
5C
100
AcDbEntity
  8
DV1_Default
  6
Continuous
 62
     7
 48
25.4
100
AcDbLine
 10
219.9010234857
 20
353.4970249605
 30
0.0
 11
226.9010234857
 21
353.4970249605
 31
0.0
  0
LINE
  5
103
330
5C
100
AcDbEntity
  8
DV1_Default
  6
Continuous
 62
     7
 48
25.4
100
AcDbLine
 10
226.9010234857
 20
353.4970249605
 30
0.0
 11
226.9010234857
 21
358.3970249605
 31
0.0
  0
LINE
  5
104
330
5C
100
AcDbEntity
  8
DV1_Default
  6
Continuous
 62
     7
 48
25.4
100
AcDbLine
 10
226.5510234857
 20
358.7470249605
 30
0.0
 11
219.9010234857
 21
358.7470249605
 31
0.0
  0
LINE
  5
105
330
5C
100
AcDbEntity
  8
DV1_Default
  6
Continuous
 62
     7
 48
25.4
100
AcDbLine
 10
235.6510234857
 20
359.4470249605
 30
0.0
 11
219.9010234857
 21
359.4470249605
 31
0.0
  0
LINE
  5
106
330
5C
100
AcDbEntity
  8
DV1_Default
  6
Continuous
 62
     7
 48
25.4
100
AcDbLine
 10
219.9010234857
 20
359.4470249605
 30
0.0
 11
219.9010234857
 21
353.4970249605
 31
0.0
  0
LINE
  5
107
330
5C
100
AcDbEntity
  8
DV1_Default
  6
Continuous
 62
     7
 48
25.4
100
AcDbLine
 10
219.9010234857
 20
353.4970249605
 30
0.0
 11
219.9010234857
 21
356.9970249605
 31
0.0
  0
LINE
  5
108
330
5C
100
AcDbEntity
  8
DV1_Default
  6
Continuous
 62
     7
 48
25.4
100
AcDbLine
 10
219.9010234857
 20
356.9970249605
 30
0.0
 11
215.0010234857
 21
356.9970249605
 31
0.0
  0
LINE
  5
109
330
5C
100
AcDbEntity
  8
DV1_Default
  6
Continuous
 62
     7
 48
25.4
100
AcDbLine
 10
226.5510234857
 20
358.7470249605
 30
0.0
 11
226.9010234857
 21
358.3970249605
 31
0.0
  0
LINE
  5
10A
330
5C
100
AcDbEntity
  8
DV1_Default
  6
Continuous
 62
     7
 48
25.4
100
AcDbLine
 10
226.5510234857
 20
358.7470249605
 30
0.0
 11
226.5510234857
 21
353.4970249605
 31
0.0
  0
LINE
  5
10B
330
5C
100
AcDbEntity
  8
DV1_Default
  6
Continuous
 62
     7
 48
25.4
100
AcDbLine
 10
215.3510234857
 20
357.3470249605
 30
0.0
 11
219.9010234857
 21
357.3470249605
 31
0.0
  0
LINE
  5
10C
330
5C
100
AcDbEntity
  8
DV1_Default
  6
Continuous
 62
     7
 48
25.4
100
AcDbLine
 10
235.6510234857
 20
353.4970249605
 30
0.0
 11
235.6510234857
 21
363.9970249605
 31
0.0
  0
LINE
  5
10D
330
5C
100
AcDbEntity
  8
DV1_Default
  6
Continuous
 62
     7
 48
25.4
100
AcDbLine
 10
215.3510234857
 20
357.3470249605
 30
0.0
 11
215.3510234857
 21
363.9970249605
 31
0.0
  0
LINE
  5
10E
330
5C
100
AcDbEntity
  8
DV1_Default
  6
Continuous
 62
     7
 48
25.4
100
AcDbLine
 10
215.0010234857
 20
346.1981593952
 30
0.0
 11
215.0010234857
 21
363.9970249605
 31
0.0
  0
LINE
  5
10F
330
5C
100
AcDbEntity
  8
DV1_Default
  6
Continuous
 62
     7
 48
25.4
100
AcDbLine
 10
215.3510234857
 20
349.6470249605
 30
0.0
 11
215.3510234857
 21
325.4970249605
 31
0.0
  0
LINE
  5
110
330
5C
100
AcDbEntity
  8
DV1_Default
  6
Continuous
 62
     7
 48
25.4
100
AcDbLine
 10
215.0010234857
 20
377.9970249605
 30
0.0
 11
215.0010234857
 21
377.8220249605
 31
0.0
  0
LINE
  5
111
330
5C
100
AcDbEntity
  8
DV1_Default
  6
Continuous
 62
     7
 48
25.4
100
AcDbLine
 10
215.0010234857
 20
377.8220249605
 30
0.0
 11
216.0510234857
 21
377.8220249605
 31
0.0
  0
LINE
  5
112
330
5C
100
AcDbEntity
  8
DV1_Default
  6
Continuous
 62
     7
 48
25.4
100
AcDbLine
 10
216.0510234857
 20
371.1720249605
 30
0.0
 11
215.0010234857
 21
371.1720249605
 31
0.0
  0
LINE
  5
113
330
5C
100
AcDbEntity
  8
DV1_Default
  6
Continuous
 62
     7
 48
25.4
100
AcDbLine
 10
216.0510234857
 20
377.8220249605
 30
0.0
 11
216.0510234857
 21
371.1720249605
 31
0.0
  0
LINE
  5
114
330
5C
100
AcDbEntity
  8
DV1_Default
  6
Continuous
 62
     7
 48
25.4
100
AcDbLine
 10
215.0010234857
 20
356.9970249605
 30
0.0
 11
215.0010234857
 21
356.8220249605
 31
0.0
  0
LINE
  5
115
330
5C
100
AcDbEntity
  8
DV1_Default
  6
Continuous
 62
     7
 48
25.4
100
AcDbLine
 10
215.0010234857
 20
356.8220249605
 30
0.0
 11
216.0510234857
 21
356.8220249605
 31
0.0
  0
LINE
  5
116
330
5C
100
AcDbEntity
  8
DV1_Default
  6
Continuous
 62
     7
 48
25.4
100
AcDbLine
 10
216.0510234857
 20
350.1720249605
 30
0.0
 11
215.0010234857
 21
350.1720249605
 31
0.0
  0
LINE
  5
117
330
5C
100
AcDbEntity
  8
DV1_Default
  6
Continuous
 62
     7
 48
25.4
100
AcDbLine
 10
216.0510234857
 20
356.8220249605
 30
0.0
 11
216.0510234857
 21
350.1720249605
 31
0.0
  0
LINE
  5
118
330
5C
100
AcDbEntity
  8
DV1_Default
  6
Continuous
 62
     7
 48
25.4
100
AcDbLine
 10
206.6010234857
 20
324.1797348516
 30
0.0
 11
207.3010234857
 21
324.1797348516
 31
0.0
  0
LINE
  5
119
330
5C
100
AcDbEntity
  8
DV1_Default
  6
Continuous
 62
     7
 48
25.4
100
AcDbLine
 10
207.3010234857
 20
324.1797348516
 30
0.0
 11
210.1010234857
 21
322.5631540979
 31
0.0
  0
LINE
  5
11A
330
5C
100
AcDbEntity
  8
DV1_Default
  6
Continuous
 62
     7
 48
25.4
100
AcDbLine
 10
153.7510234857
 20
293.9970249605
 30
0.0
 11
153.7510234857
 21
344.0076499605
 31
0.0
  0
LINE
  5
11B
330
5C
100
AcDbEntity
  8
DV1_Default
  6
Continuous
 62
     7
 48
25.4
100
AcDbLine
 10
153.7510234857
 20
344.0076499605
 30
0.0
 11
161.1010234857
 21
343.1051834378
 31
0.0
  0
LINE
  5
11C
330
5C
100
AcDbEntity
  8
DV1_Default
  6
Continuous
 62
     7
 48
25.4
100
AcDbLine
 10
161.1010234857
 20
343.1051834378
 30
0.0
 11
163.2010234857
 21
343.1051834378
 31
0.0
  0
LINE
  5
11D
330
5C
100
AcDbEntity
  8
DV1_Default
  6
Continuous
 62
     7
 48
25.4
100
AcDbLine
 10
161.1010234857
 20
343.1051834378
 30
0.0
 11
161.1010234857
 21
293.9970249605
 31
0.0
  0
LINE
  5
11E
330
5C
100
AcDbEntity
  8
DV1_Default
  6
Continuous
 62
     7
 48
25.4
100
AcDbLine
 10
153.7510234857
 20
293.9970249605
 30
0.0
 11
153.7510234857
 21
243.9863999605
 31
0.0
  0
LINE
  5
11F
330
5C
100
AcDbEntity
  8
DV1_Default
  6
Continuous
 62
     7
 48
25.4
100
AcDbLine
 10
153.7510234857
 20
243.9863999605
 30
0.0
 11
161.1010234857
 21
244.8888664831
 31
0.0
  0
LINE
  5
120
330
5C
100
AcDbEntity
  8
DV1_Default
  6
Continuous
 62
     7
 48
25.4
100
AcDbLine
 10
161.1010234857
 20
244.8888664831
 30
0.0
 11
163.2010234857
 21
244.8888664831
 31
0.0
  0
LINE
  5
121
330
5C
100
AcDbEntity
  8
DV1_Default
  6
Continuous
 62
     7
 48
25.4
100
AcDbLine
 10
161.1010234857
 20
244.8888664831
 30
0.0
 11
161.1010234857
 21
293.9970249605
 31
0.0
  0
LINE
  5
122
330
5C
100
AcDbEntity
  8
DV1_Default
  6
Continuous
 62
     7
 48
25.4
100
AcDbLine
 10
178.6010234857
 20
321.1220249605
 30
0.0
 11
178.6010234857
 21
321.4720249605
 31
0.0
  0
LINE
  5
123
330
5C
100
AcDbEntity
  8
DV1_Default
  6
Continuous
 62
     7
 48
25.4
100
AcDbLine
 10
178.6010234857
 20
321.4720249605
 30
0.0
 11
180.7010234857
 21
321.4720249605
 31
0.0
  0
LINE
  5
124
330
5C
100
AcDbEntity
  8
DV1_Default
  6
Continuous
 62
     7
 48
25.4
100
AcDbLine
 10
178.6010234857
 20
266.8720249605
 30
0.0
 11
178.6010234857
 21
266.5220249605
 31
0.0
  0
LINE
  5
125
330
5C
100
AcDbEntity
  8
DV1_Default
  6
Continuous
 62
     7
 48
25.4
100
AcDbLine
 10
178.6010234857
 20
266.5220249605
 30
0.0
 11
180.7010234857
 21
266.5220249605
 31
0.0
  0
LINE
  5
126
330
5C
100
AcDbEntity
  8
DV1_Default
  6
Continuous
 62
     7
 48
25.4
100
AcDbLine
 10
141.8510234857
 20
232.3620249605
 30
0.0
 11
141.8510234857
 21
240.0620249605
 31
0.0
  0
LINE
  5
127
330
5C
100
AcDbEntity
  8
DV1_Default
  6
Continuous
 62
     7
 48
25.4
100
AcDbLine
 10
161.1010234857
 20
360.4970249605
 30
0.0
 11
161.1010234857
 21
385.6970249605
 31
0.0
  0
LINE
  5
128
330
5C
100
AcDbEntity
  8
DV1_Default
  6
Continuous
 62
     7
 48
25.4
100
AcDbLine
 10
161.1010234857
 20
385.6970249605
 30
0.0
 11
162.1510234857
 21
386.7470249605
 31
0.0
  0
LINE
  5
129
330
5C
100
AcDbEntity
  8
DV1_Default
  6
Continuous
 62
     7
 48
25.4
100
AcDbLine
 10
161.1010234857
 20
227.4970249605
 30
0.0
 11
161.1010234857
 21
202.2970249605
 31
0.0
  0
LINE
  5
12A
330
5C
100
AcDbEntity
  8
DV1_Default
  6
Continuous
 62
     7
 48
25.4
100
AcDbLine
 10
154.4510234857
 20
227.4970249605
 30
0.0
 11
162.5010234857
 21
227.4970249605
 31
0.0
  0
LINE
  5
12B
330
5C
100
AcDbEntity
  8
DV1_Default
  6
Continuous
 62
     7
 48
25.4
100
AcDbLine
 10
162.1510234857
 20
201.2470249605
 30
0.0
 11
161.1010234857
 21
202.2970249605
 31
0.0
  0
LINE
  5
12C
330
5C
100
AcDbEntity
  8
DV1_Default
  6
Continuous
 62
     7
 48
25.4
100
AcDbLine
 10
171.9510234857
 20
239.7120249605
 30
0.0
 11
141.8510234857
 21
239.7120249605
 31
0.0
  0
LINE
  5
12D
330
5C
100
AcDbEntity
  8
DV1_Default
  6
Continuous
 62
     7
 48
25.4
100
AcDbLine
 10
171.9510234857
 20
232.7120249605
 30
0.0
 11
141.8510234857
 21
232.7120249605
 31
0.0
  0
LINE
  5
12E
330
5C
100
AcDbEntity
  8
DV1_Default
  6
Continuous
 62
     7
 48
25.4
100
AcDbLine
 10
178.6010234857
 20
267.5720249605
 30
0.0
 11
167.0510234857
 21
267.5720249605
 31
0.0
  0
LINE
  5
12F
330
5C
100
AcDbEntity
  8
DV1_Default
  6
Continuous
 62
     7
 48
25.4
100
AcDbLine
 10
178.6010234857
 20
320.4220249605
 30
0.0
 11
167.0510234857
 21
320.4220249605
 31
0.0
  0
LINE
  5
130
330
5C
100
AcDbEntity
  8
DV1_Default
  6
Continuous
 62
     7
 48
25.4
100
AcDbLine
 10
183.8510234857
 20
319.5470249605
 30
0.0
 11
183.8510234857
 21
319.5470249605
 31
0.0
  0
LINE
  5
131
330
5C
100
AcDbEntity
  8
DV1_Default
  6
Continuous
 62
     7
 48
25.4
100
AcDbLine
 10
183.8510234857
 20
318.4970249605
 30
0.0
 11
183.8510234857
 21
319.5470249605
 31
0.0
  0
LINE
  5
132
330
5C
100
AcDbEntity
  8
DV1_Default
  6
Continuous
 62
     7
 48
25.4
100
AcDbLine
 10
183.8510234857
 20
268.4470249605
 30
0.0
 11
183.8510234857
 21
268.4470249605
 31
0.0
  0
LINE
  5
133
330
5C
100
AcDbEntity
  8
DV1_Default
  6
Continuous
 62
     7
 48
25.4
100
AcDbLine
 10
183.8510234857
 20
269.4970249605
 30
0.0
 11
183.8510234857
 21
268.4470249605
 31
0.0
  0
LINE
  5
134
330
5C
100
AcDbEntity
  8
DV1_Default
  6
Continuous
 62
     7
 48
25.4
100
AcDbLine
 10
153.7510234857
 20
359.7970249605
 30
0.0
 11
154.4510234857
 21
360.4970249605
 31
0.0
  0
LINE
  5
135
330
5C
100
AcDbEntity
  8
DV1_Default
  6
Continuous
 62
     7
 48
25.4
100
AcDbLine
 10
154.4510234857
 20
227.4970249605
 30
0.0
 11
153.7510234857
 21
228.1970249605
 31
0.0
  0
LINE
  5
136
330
5C
100
AcDbEntity
  8
DV1_Default
  6
Continuous
 62
     7
 48
25.4
100
AcDbLine
 10
162.5010234857
 20
360.4970249605
 30
0.0
 11
163.2010234857
 21
359.7970249605
 31
0.0
  0
LINE
  5
137
330
5C
100
AcDbEntity
  8
DV1_Default
  6
Continuous
 62
     7
 48
25.4
100
AcDbLine
 10
154.4510234857
 20
360.4970249605
 30
0.0
 11
162.5010234857
 21
360.4970249605
 31
0.0
  0
LINE
  5
138
330
5C
100
AcDbEntity
  8
DV1_Default
  6
Continuous
 62
     7
 48
25.4
100
AcDbLine
 10
162.5010234857
 20
227.4970249605
 30
0.0
 11
163.2010234857
 21
228.1970249605
 31
0.0
  0
LINE
  5
139
330
5C
100
AcDbEntity
  8
DV1_Default
  6
Continuous
 62
     7
 48
25.4
100
AcDbLine
 10
183.8510234857
 20
319.3259669679
 30
0.0
 11
185.2867931591
 21
318.4970249605
 31
0.0
  0
LINE
  5
13A
330
5C
100
AcDbEntity
  8
DV1_Default
  6
Continuous
 62
     7
 48
25.4
100
AcDbLine
 10
185.2867931591
 20
318.4970249605
 30
0.0
 11
185.2867931591
 21
269.4970249605
 31
0.0
  0
LINE
  5
13B
330
5C
100
AcDbEntity
  8
DV1_Default
  6
Continuous
 62
     7
 48
25.4
100
AcDbLine
 10
185.2867931591
 20
269.4970249605
 30
0.0
 11
183.8510234857
 21
268.668082953
 31
0.0
  0
LINE
  5
13C
330
5C
100
AcDbEntity
  8
DV1_Default
  6
Continuous
 62
     7
 48
25.4
100
AcDbLine
 10
210.1010234857
 20
269.4970249605
 30
0.0
 11
210.1010234857
 21
268.0970249605
 31
0.0
  0
LINE
  5
13D
330
5C
100
AcDbEntity
  8
DV1_Default
  6
Continuous
 62
     7
 48
25.4
100
AcDbLine
 10
210.1010234857
 20
268.0970249605
 30
0.0
 11
182.4510234857
 21
268.0970249605
 31
0.0
  0
LINE
  5
13E
330
5C
100
AcDbEntity
  8
DV1_Default
  6
Continuous
 62
     7
 48
25.4
100
AcDbLine
 10
183.8510234857
 20
268.4470249605
 30
0.0
 11
183.8510234857
 21
268.0970249605
 31
0.0
  0
LINE
  5
13F
330
5C
100
AcDbEntity
  8
DV1_Default
  6
Continuous
 62
     7
 48
25.4
100
AcDbLine
 10
182.4510234857
 20
318.4970249605
 30
0.0
 11
182.4510234857
 21
319.1970249605
 31
0.0
  0
LINE
  5
140
330
5C
100
AcDbEntity
  8
DV1_Default
  6
Continuous
 62
     7
 48
25.4
100
AcDbLine
 10
185.2867931591
 20
318.4970249605
 30
0.0
 11
210.1010234857
 21
318.4970249605
 31
0.0
  0
LINE
  5
141
330
5C
100
AcDbEntity
  8
DV1_Default
  6
Continuous
 62
     7
 48
25.4
100
AcDbLine
 10
182.4510234857
 20
318.4970249605
 30
0.0
 11
182.4510234857
 21
319.5470249605
 31
0.0
  0
LINE
  5
142
330
5C
100
AcDbEntity
  8
DV1_Default
  6
Continuous
 62
     7
 48
25.4
100
AcDbLine
 10
183.8510234857
 20
319.5470249605
 30
0.0
 11
183.8510234857
 21
319.5470249605
 31
0.0
  0
LINE
  5
143
330
5C
100
AcDbEntity
  8
DV1_Default
  6
Continuous
 62
     7
 48
25.4
100
AcDbLine
 10
183.8510234857
 20
318.4970249605
 30
0.0
 11
183.8510234857
 21
319.5470249605
 31
0.0
  0
LINE
  5
144
330
5C
100
AcDbEntity
  8
DV1_Default
  6
Continuous
 62
     7
 48
25.4
100
AcDbLine
 10
185.2867931591
 20
318.4970249605
 30
0.0
 11
183.8510234857
 21
319.3259669679
 31
0.0
  0
LINE
  5
145
330
5C
100
AcDbEntity
  8
DV1_Default
  6
Continuous
 62
     7
 48
25.4
100
AcDbLine
 10
210.1010234857
 20
318.4970249605
 30
0.0
 11
210.1010234857
 21
319.8970249605
 31
0.0
  0
LINE
  5
146
330
5C
100
AcDbEntity
  8
DV1_Default
  6
Continuous
 62
     7
 48
25.4
100
AcDbLine
 10
210.1010234857
 20
319.8970249605
 30
0.0
 11
182.4510234857
 21
319.8970249605
 31
0.0
  0
LINE
  5
147
330
5C
100
AcDbEntity
  8
DV1_Default
  6
Continuous
 62
     7
 48
25.4
100
AcDbLine
 10
183.8510234857
 20
319.5470249605
 30
0.0
 11
183.8510234857
 21
319.8970249605
 31
0.0
  0
LINE
  5
148
330
5C
100
AcDbEntity
  8
DV1_Default
  6
Continuous
 62
     7
 48
25.4
100
AcDbLine
 10
180.7010234857
 20
269.4970249605
 30
0.0
 11
182.4510234857
 21
269.4970249605
 31
0.0
  0
LINE
  5
149
330
5C
100
AcDbEntity
  8
DV1_Default
  6
Continuous
 62
     7
 48
25.4
100
AcDbLine
 10
182.4510234857
 20
318.4970249605
 30
0.0
 11
180.7010234857
 21
318.4970249605
 31
0.0
  0
LINE
  5
14B
330
5C
100
AcDbEntity
  8
DV1_Default
  6
HIDDEN2
 62
     7
 48
25.4
100
AcDbLine
 10
210.1010234857
 20
385.6970249605
 30
0.0
 11
210.1010234857
 21
328.4720249605
 31
0.0
  0
LINE
  5
14C
330
5C
100
AcDbEntity
  8
DV1_Default
  6
HIDDEN2
 62
     7
 48
25.4
100
AcDbLine
 10
181.1257561667
 20
386.7470249605
 30
0.0
 11
209.0510234857
 21
386.7470249605
 31
0.0
  0
ENDBLK
  5
14E
330
5C
100
AcDbEntity
  8
0
100
AcDbBlockEnd
  0
BLOCK
  5
1ED
330
14F
100
AcDbEntity
  8
0
100
AcDbBlockBegin
  2
SE1
 70
     0
 71
     0
 10
0.0
 20
0.0
 30
0.0
  3
SE1
  1

  0
TEXT
  5
151
330
14F
100
AcDbEntity
  8
DV2_Default
  6
Continuous
 62
     7
 48
25.4
100
AcDbText
 10
284.7605424747
 20
33.699626264
 30
0.0
 40
3.0
  1
0
  7
SEACAD_arial_ttf
 11
284.7605424747
 21
36.699626264
 31
0.0
100
AcDbText
 73
     3
  0
TEXT
  5
153
330
14F
100
AcDbEntity
  8
DV2_Default
  6
Continuous
 62
     7
 48
25.4
100
AcDbText
 10
348.8252314085
 20
33.7288168455
 30
0.0
 40
3.0
  1
1000
  7
SEACAD_arial_ttf
 11
348.8252314085
 21
36.7288168455
 31
0.0
100
AcDbText
 73
     3
  0
TEXT
  5
154
330
14F
100
AcDbEntity
  8
DV2_Default
  6
Continuous
 62
     7
 48
25.4
100
AcDbText
 10
401.0304443832
 20
33.4414215326
 30
0.0
 40
3.0
  1
1700
  7
SEACAD_arial_ttf
 11
401.0304443832
 21
36.4414215326
 31
0.0
100
AcDbText
 73
     3
  0
TEXT
  5
155
330
14F
100
AcDbEntity
  8
DV2_Default
  6
Continuous
 62
     7
 48
25.4
100
AcDbText
 10
280.8523547229
 20
45.3785176716
 30
0.0
 40
3.0
  1
20
  7
SEACAD_arial_ttf
 11
280.8523547229
 21
48.3785176716
 31
0.0
100
AcDbText
 73
     3
  0
TEXT
  5
156
330
14F
100
AcDbEntity
  8
DV2_Default
  6
Continuous
 62
     7
 48
25.4
100
AcDbText
 10
280.7546543797
 20
52.7943439904
 30
0.0
 40
3.0
  1
40
  7
SEACAD_arial_ttf
 11
280.7546543797
 21
55.7943439904
 31
0.0
100
AcDbText
 73
     3
  0
TEXT
  5
157
330
14F
100
AcDbEntity
  8
DV2_Default
  6
Continuous
 62
     7
 48
25.4
100
AcDbText
 10
280.7453355943
 20
60.3830833027
 30
0.0
 40
3.0
  1
60
  7
SEACAD_arial_ttf
 11
280.7453355943
 21
63.3830833027
 31
0.0
100
AcDbText
 73
     3
  0
TEXT
  5
158
330
14F
100
AcDbEntity
  8
DV2_Default
  6
Continuous
 62
     7
 48
25.4
100
AcDbText
 10
278.8672713877
 20
76.5166994044
 30
0.0
 40
3.0
  1
100
  7
SEACAD_arial_ttf
 11
278.8672713877
 21
79.5166994044
 31
0.0
100
AcDbText
 73
     3
  0
TEXT
  5
159
330
14F
100
AcDbEntity
  8
DV2_Default
  6
Continuous
 62
     7
 48
25.4
100
AcDbText
 10
280.9520610351
 20
68.4718251035
 30
0.0
 40
3.0
  1
80
  7
SEACAD_arial_ttf
 11
280.9520610351
 21
71.4718251035
 31
0.0
100
AcDbText
 73
     3
  0
TEXT
  5
15A
330
14F
100
AcDbEntity
  8
DV2_Default
  6
Continuous
 62
     7
 48
25.4
100
AcDbText
 10
278.8767515681
 20
83.9579069958
 30
0.0
 40
3.0
  1
120
  7
SEACAD_arial_ttf
 11
278.8767515681
 21
86.9579069958
 31
0.0
100
AcDbText
 73
     3
  0
TEXT
  5
15B
330
14F
100
AcDbEntity
  8
DV2_Default
  6
Continuous
 62
     7
 48
25.4
100
AcDbText
 10
324.927556758
 20
125.6227169555
 30
0.0
 40
3.6
  1
Input Force
  7
SEACAD_arial_ttf
 11
324.927556758
 21
129.2227169555
 31
0.0
100
AcDbText
 73
     3
  0
TEXT
  5
15C
330
14F
100
AcDbEntity
  8
DV2_Default
  6
Continuous
 62
     7
 48
25.4
100
AcDbText
 10
330.0067714008
 20
119.1225598321
 30
0.0
 40
3.0
  1
90KN
  7
SEACAD_arial_ttf
 11
330.0067714008
 21
122.1225598321
 31
0.0
100
AcDbText
 73
     3
  0
TEXT
  5
15D
330
14F
100
AcDbEntity
  8
DV2_Default
  6
Continuous
 62
     7
 48
25.4
100
AcDbText
 10
329.8772826142
 20
103.1453939978
 30
0.0
 40
3.0
  1
73KN
  7
SEACAD_arial_ttf
 11
329.8772826142
 21
106.1453939978
 31
0.0
100
AcDbText
 73
     3
  0
TEXT
  5
15E
330
14F
100
AcDbEntity
  8
DV2_Default
  6
Continuous
 62
     7
 48
25.4
100
AcDbText
 10
330.0894443712
 20
87.4231995339
 30
0.0
 40
3.0
  1
57.7KN
  7
SEACAD_arial_ttf
 11
330.0894443712
 21
90.4231995339
 31
0.0
100
AcDbText
 73
     3
  0
TEXT
  5
15F
330
14F
100
AcDbEntity
  8
DV2_Default
  6
Continuous
 62
     7
 48
25.4
100
AcDbText
 10
330.4677427401
 20
71.4366160228
 30
0.0
 40
3.0
  1
42.3KN
  7
SEACAD_arial_ttf
 11
330.4677427401
 21
74.4366160228
 31
0.0
100
AcDbText
 73
     3
  0
TEXT
  5
160
330
14F
100
AcDbEntity
  8
DV2_Default
  6
Continuous
 62
     7
 48
25.4
100
AcDbText
 10
335.4654449415
 20
22.2775803324
 30
0.0
 40
3.6
  1
Speed in min-
  7
SEACAD_arial_ttf
 11
335.4654449415
 21
25.8775803324
 31
0.0
100
AcDbText
 73
     3
  0
TEXT
  5
161
330
14F
100
AcDbEntity
  8
DV2_Default
  6
Continuous
 62
     7
 48
25.4
100
AcDbText
 10
366.691531898
 20
22.2775803324
 30
0.0
 40
2.7516666667
  1
¹
  7
SEACAD_arial_ttf
 11
366.691531898
 21
25.029246999
 31
0.0
100
AcDbText
 73
     3
  0
TEXT
  5
162
330
14F
100
AcDbEntity
  8
DV2_Default
  6
Continuous
 62
     7
 48
25.4
100
AcDbText
 10
243.0519996013
 20
87.0857315465
 30
0.0
 40
3.6
  1
Total Gripping 
  7
SEACAD_arial_ttf
 11
243.0519996013
 21
90.6857315465
 31
0.0
100
AcDbText
 73
     3
  0
TEXT
  5
163
330
14F
100
AcDbEntity
  8
DV2_Default
  6
Continuous
 62
     7
 48
25.4
100
AcDbText
 10
243.0519996013
 20
81.4509489378
 30
0.0
 40
3.6
  1
Force in KN
  7
SEACAD_arial_ttf
 11
243.0519996013
 21
85.0509489378
 31
0.0
100
AcDbText
 73
     3
  0
TEXT
  5
164
330
14F
100
AcDbEntity
  8
DV2_Default
  6
Continuous
 62
     7
 48
25.4
100
AcDbText
 10
298.1793126088
 20
142.9499111773
 30
0.0
 40
3.6
  1
Gripping Characteristic Graph For B-21A15
  7
SEACAD_arial_ttf
 11
298.1793126088
 21
146.5499111773
 31
0.0
100
AcDbText
 73
     3
  0
LWPOLYLINE
  5
165
330
14F
100
AcDbEntity
  8
DV2_Default
  6
Continuous
 62
     7
 48
25.4
100
AcDbPolyline
 90
        2
 70
     0
 43
0.0
 10
412.6770816674
 20
44.5347598587
 10
380.5473203863
 20
59.5063262343
  0
HATCH
  5
166
330
14F
100
AcDbEntity
  8
DV2_Default
  6
Continuous
 62
     7
 48
25.4
100
AcDbHatch
 10
0.0
 20
0.0
 30
0.0
210
0.0
220
0.0
230
1.0
  2
SOLID
 70
     1
 71
     0
 91
        1
 92
        1
 93
        3
 72
     1
 10
384.0638689198477
 20
58.52965502928091
 11
380.547320386298
 21
59.50632623432063
 72
     1
 10
380.547320386298
 20
59.50632623432063
 11
383.5570269866699
 21
57.44194584029398
 72
     1
 10
383.5570269866699
 20
57.44194584029398
 11
384.0638689198477
 21
58.52965502928091
 97
        0
 75
     0
 76
     1
 98
        0
  0
LWPOLYLINE
  5
167
330
14F
100
AcDbEntity
  8
DV2_Default
  6
Continuous
 62
     7
 48
25.4
370
    20
100
AcDbPolyline
 90
        4
 70
     1
 43
0.00025
 10
384.0638689198
 20
58.5296550293
 10
380.5473203863
 20
59.5063262343
 10
383.5570269867
 20
57.4419458403
 10
384.0638689198
 20
58.5296550293
  0
LINE
  5
168
330
14F
100
AcDbEntity
  8
DV2_Default
  6
Continuous
 62
     7
 48
25.4
100
AcDbLine
 10
412.6770816674
 20
44.5347598587
 30
0.0
 11
464.7205599283
 21
44.5347598587
 31
0.0
  0
TEXT
  5
169
330
14F
100
AcDbEntity
  8
DV2_Default
  6
Continuous
 62
     7
 48
25.4
100
AcDbText
 10
412.6770816674
 20
45.4347598587
 30
0.0
 40
3.6
  1
Revolution Speed Limit
  7
SEACAD_arial_ttf
 11
412.6770816674
 21
49.0347598587
 31
0.0
100
AcDbText
 73
     3
  0
TEXT
  5
16A
330
14F
100
AcDbEntity
  8
DV2_Default
  6
Continuous
 62
     7
 48
25.4
100
AcDbText
 10
19.4185943023
 20
127.0107239226
 30
0.0
 40
3.0
  1
SPINDLE NOSE SIZE
  7
SEACAD_arial_ttf
 11
19.4185943023
 21
130.0107239226
 31
0.0
100
AcDbText
 73
     3
  0
TEXT
  5
16B
330
14F
100
AcDbEntity
  8
DV2_Default
  6
Continuous
 62
     7
 48
25.4
100
AcDbText
 10
108.9349580389
 20
126.911665574
 30
0.0
 40
3.0
  1
A2-15
  7
SEACAD_arial_ttf
 11
108.9349580389
 21
129.911665574
 31
0.0
100
AcDbText
 73
     3
  0
TEXT
  5
16C
330
14F
100
AcDbEntity
  8
DV2_Default
  6
Continuous
 62
     7
 48
25.4
100
AcDbText
 10
19.7555772317
 20
62.5856804492
 30
0.0
 40
3.0
  1
TOTAL GRIPPING FORCE AT MAX. SPEED
  7
SEACAD_arial_ttf
 11
19.7555772317
 21
65.5856804492
 31
0.0
100
AcDbText
 73
     3
  0
TEXT
  5
16D
330
14F
100
AcDbEntity
  8
DV2_Default
  6
Continuous
 62
     7
 48
25.4
100
AcDbText
 10
108.6429144776
 20
19.1747248313
 30
0.0
 40
3.0
  1
SB18A2
  7
SEACAD_arial_ttf
 11
108.6429144776
 21
22.1747248313
 31
0.0
100
AcDbText
 73
     3
  0
LINE
  5
16E
330
14F
100
AcDbEntity
  8
DV2_Default
  6
Continuous
 62
     7
 48
25.4
100
AcDbLine
 10
17.0674745295
 20
24.117310771
 30
0.0
 11
161.0674745295
 21
24.117310771
 31
0.0
  0
LINE
  5
16F
330
14F
100
AcDbEntity
  8
DV2_Default
  6
Continuous
 62
     7
 48
25.4
100
AcDbLine
 10
161.0674745295
 20
132.117310771
 30
0.0
 11
17.0674745295
 21
132.117310771
 31
0.0
  0
LINE
  5
170
330
14F
100
AcDbEntity
  8
DV2_Default
  6
Continuous
 62
     7
 48
25.4
100
AcDbLine
 10
17.0674745295
 20
124.917310771
 30
0.0
 11
161.0674745295
 21
124.917310771
 31
0.0
  0
LINE
  5
171
330
14F
100
AcDbEntity
  8
DV2_Default
  6
Continuous
 62
     7
 48
25.4
100
AcDbLine
 10
161.0674745295
 20
117.717310771
 30
0.0
 11
17.0674745295
 21
117.717310771
 31
0.0
  0
LINE
  5
172
330
14F
100
AcDbEntity
  8
DV2_Default
  6
Continuous
 62
     7
 48
25.4
100
AcDbLine
 10
17.0674745295
 20
110.517310771
 30
0.0
 11
161.0674745295
 21
110.517310771
 31
0.0
  0
LINE
  5
173
330
14F
100
AcDbEntity
  8
DV2_Default
  6
Continuous
 62
     7
 48
25.4
100
AcDbLine
 10
161.0674745295
 20
103.317310771
 30
0.0
 11
17.0674745295
 21
103.317310771
 31
0.0
  0
LINE
  5
174
330
14F
100
AcDbEntity
  8
DV2_Default
  6
Continuous
 62
     7
 48
25.4
100
AcDbLine
 10
17.0674745295
 20
96.117310771
 30
0.0
 11
161.0674745295
 21
96.117310771
 31
0.0
  0
LINE
  5
175
330
14F
100
AcDbEntity
  8
DV2_Default
  6
Continuous
 62
     7
 48
25.4
100
AcDbLine
 10
161.0674745295
 20
88.917310771
 30
0.0
 11
17.0674745295
 21
88.917310771
 31
0.0
  0
LINE
  5
176
330
14F
100
AcDbEntity
  8
DV2_Default
  6
Continuous
 62
     7
 48
25.4
100
AcDbLine
 10
17.0674745295
 20
81.717310771
 30
0.0
 11
161.0674745295
 21
81.717310771
 31
0.0
  0
LINE
  5
177
330
14F
100
AcDbEntity
  8
DV2_Default
  6
Continuous
 62
     7
 48
25.4
100
AcDbLine
 10
161.0674745295
 20
74.517310771
 30
0.0
 11
17.0674745295
 21
74.517310771
 31
0.0
  0
LINE
  5
178
330
14F
100
AcDbEntity
  8
DV2_Default
  6
Continuous
 62
     7
 48
25.4
100
AcDbLine
 10
17.0674745295
 20
67.317310771
 30
0.0
 11
161.0674745295
 21
67.317310771
 31
0.0
  0
LINE
  5
179
330
14F
100
AcDbEntity
  8
DV2_Default
  6
Continuous
 62
     7
 48
25.4
100
AcDbLine
 10
161.0674745295
 20
60.117310771
 30
0.0
 11
17.0674745295
 21
60.117310771
 31
0.0
  0
LINE
  5
17A
330
14F
100
AcDbEntity
  8
DV2_Default
  6
Continuous
 62
     7
 48
25.4
100
AcDbLine
 10
17.0674745295
 20
52.917310771
 30
0.0
 11
161.0674745295
 21
52.917310771
 31
0.0
  0
LINE
  5
17B
330
14F
100
AcDbEntity
  8
DV2_Default
  6
Continuous
 62
     7
 48
25.4
100
AcDbLine
 10
161.0674745295
 20
45.717310771
 30
0.0
 11
17.0674745295
 21
45.717310771
 31
0.0
  0
LINE
  5
17C
330
14F
100
AcDbEntity
  8
DV2_Default
  6
Continuous
 62
     7
 48
25.4
100
AcDbLine
 10
17.0674745295
 20
38.517310771
 30
0.0
 11
161.0674745295
 21
38.517310771
 31
0.0
  0
LINE
  5
17D
330
14F
100
AcDbEntity
  8
DV2_Default
  6
Continuous
 62
     7
 48
25.4
100
AcDbLine
 10
161.0674745295
 20
31.317310771
 30
0.0
 11
17.0674745295
 21
31.317310771
 31
0.0
  0
TEXT
  5
17E
330
14F
100
AcDbEntity
  8
DV2_Default
  6
Continuous
 62
     7
 48
25.4
100
AcDbText
 10
69.5274583244
 20
145.6907412629
 30
0.0
 40
3.6
  1
Specifications
  7
SEACAD_arial_ttf
 11
69.5274583244
 21
149.2907412629
 31
0.0
100
AcDbText
 73
     3
  0
TEXT
  5
17F
330
14F
100
AcDbEntity
  8
DV2_Default
  6
Continuous
 62
     7
 48
25.4
100
AcDbText
 10
19.7748743197
 20
119.5759830105
 30
0.0
 40
3.0
  1
THROUGH HOLE
  7
SEACAD_arial_ttf
 11
19.7748743197
 21
122.5759830105
 31
0.0
100
AcDbText
 73
     3
  0
TEXT
  5
180
330
14F
100
AcDbEntity
  8
DV2_Default
  6
Continuous
 62
     7
 48
25.4
100
AcDbText
 10
108.4755721225
 20
119.818463771
 30
0.0
 40
3.0
  1
140mm
  7
SEACAD_arial_ttf
 11
108.4755721225
 21
122.818463771
 31
0.0
100
AcDbText
 73
     3
  0
TEXT
  5
181
330
14F
100
AcDbEntity
  8
DV2_Default
  6
Continuous
 62
     7
 48
25.4
100
AcDbText
 10
19.385100677
 20
112.4174691256
 30
0.0
 40
3.0
  1
MAX. GRIPPING RANGE
  7
SEACAD_arial_ttf
 11
19.385100677
 21
115.4174691256
 31
0.0
100
AcDbText
 73
     3
  0
TEXT
  5
182
330
14F
100
AcDbEntity
  8
DV2_Default
  6
Continuous
 62
     7
 48
25.4
100
AcDbText
 10
19.4814103109
 20
105.6155069874
 30
0.0
 40
3.0
  1
MIN. GRIPPING RANGE
  7
SEACAD_arial_ttf
 11
19.4814103109
 21
108.6155069874
 31
0.0
100
AcDbText
 73
     3
  0
TEXT
  5
183
330
14F
100
AcDbEntity
  8
DV2_Default
  6
Continuous
 62
     7
 48
25.4
100
AcDbText
 10
19.5016394035
 20
98.2212772311
 30
0.0
 40
3.0
  1
JAW STROKE
  7
SEACAD_arial_ttf
 11
19.5016394035
 21
101.2212772311
 31
0.0
100
AcDbText
 73
     3
  0
TEXT
  5
184
330
14F
100
AcDbEntity
  8
DV2_Default
  6
Continuous
 62
     7
 48
25.4
100
AcDbText
 10
19.4799305363
 20
90.8280899266
 30
0.0
 40
3.0
  1
PLUNGER STROKE
  7
SEACAD_arial_ttf
 11
19.4799305363
 21
93.8280899266
 31
0.0
100
AcDbText
 73
     3
  0
TEXT
  5
185
330
14F
100
AcDbEntity
  8
DV2_Default
  6
Continuous
 62
     7
 48
25.4
100
AcDbText
 10
19.4799305363
 20
83.560884308
 30
0.0
 40
3.0
  1
MAX. DRAW BAR PULL FORCE
  7
SEACAD_arial_ttf
 11
19.4799305363
 21
86.560884308
 31
0.0
100
AcDbText
 73
     3
  0
TEXT
  5
186
330
14F
100
AcDbEntity
  8
DV2_Default
  6
Continuous
 62
     7
 48
25.4
100
AcDbText
 10
19.4568840697
 20
76.519656454
 30
0.0
 40
3.0
  1
MAX. GRIPPING FORCE
  7
SEACAD_arial_ttf
 11
19.4568840697
 21
79.519656454
 31
0.0
100
AcDbText
 73
     3
  0
TEXT
  5
187
330
14F
100
AcDbEntity
  8
DV2_Default
  6
Continuous
 62
     7
 48
25.4
100
AcDbText
 10
19.522910948
 20
69.3426883986
 30
0.0
 40
3.0
  1
MAX. SPEED
  7
SEACAD_arial_ttf
 11
19.522910948
 21
72.3426883986
 31
0.0
100
AcDbText
 73
     3
  0
TEXT
  5
188
330
14F
100
AcDbEntity
  8
DV2_Default
  6
Continuous
 62
     7
 48
25.4
100
AcDbText
 10
19.5788841632
 20
54.9414951363
 30
0.0
 40
3.0
  1
NET WEIGHT WITH SOFT TOP JAWS
  7
SEACAD_arial_ttf
 11
19.5788841632
 21
57.9414951363
 31
0.0
100
AcDbText
 73
     3
  0
TEXT
  5
189
330
14F
100
AcDbEntity
  8
DV2_Default
  6
Continuous
 62
     7
 48
25.4
100
AcDbText
 10
19.4658952809
 20
47.7717633701
 30
0.0
 40
3.0
  1
MOMENT OF INERTIA
  7
SEACAD_arial_ttf
 11
19.4658952809
 21
50.7717633701
 31
0.0
100
AcDbText
 73
     3
  0
TEXT
  5
18A
330
14F
100
AcDbEntity
  8
DV2_Default
  6
Continuous
 62
     7
 48
25.4
100
AcDbText
 10
19.5146322071
 20
40.6460544673
 30
0.0
 40
3.0
  1
MATCHING CYLINDER
  7
SEACAD_arial_ttf
 11
19.5146322071
 21
43.6460544673
 31
0.0
100
AcDbText
 73
     3
  0
TEXT
  5
18B
330
14F
100
AcDbEntity
  8
DV2_Default
  6
Continuous
 62
     7
 48
25.4
100
AcDbText
 10
19.5200935741
 20
33.3348259852
 30
0.0
 40
3.0
  1
MAX. PRESSURE
  7
SEACAD_arial_ttf
 11
19.5200935741
 21
36.3348259852
 31
0.0
100
AcDbText
 73
     3
  0
TEXT
  5
18C
330
14F
100
AcDbEntity
  8
DV2_Default
  6
Continuous
 62
     7
 48
25.4
100
AcDbText
 10
19.4861243736
 20
26.2506177195
 30
0.0
 40
3.0
  1
MATCHING HARD TOP JAW
  7
SEACAD_arial_ttf
 11
19.4861243736
 21
29.2506177195
 31
0.0
100
AcDbText
 73
     3
  0
TEXT
  5
18D
330
14F
100
AcDbEntity
  8
DV2_Default
  6
Continuous
 62
     7
 48
25.4
100
AcDbText
 10
19.4861243736
 20
19.595613664
 30
0.0
 40
3.0
  1
MATCHING SOFT TOP JAW
  7
SEACAD_arial_ttf
 11
19.4861243736
 21
22.595613664
 31
0.0
100
AcDbText
 73
     3
  0
LINE
  5
18E
330
14F
100
AcDbEntity
  8
DV2_Default
  6
Continuous
 62
     7
 48
25.4
100
AcDbLine
 10
17.0674745295
 20
16.917310771
 30
0.0
 11
161.0674745295
 21
16.917310771
 31
0.0
  0
LINE
  5
18F
330
14F
100
AcDbEntity
  8
DV2_Default
  6
Continuous
 62
     7
 48
25.4
100
AcDbLine
 10
106.9577714296
 20
132.117310771
 30
0.0
 11
106.9577714296
 21
16.917310771
 31
0.0
  0
LINE
  5
190
330
14F
100
AcDbEntity
  8
DV2_Default
  6
Continuous
 62
     7
 48
25.4
100
AcDbLine
 10
17.0674745295
 20
132.117310771
 30
0.0
 11
17.0674745295
 21
16.917310771
 31
0.0
  0
LINE
  5
191
330
14F
100
AcDbEntity
  8
DV2_Default
  6
Continuous
 62
     7
 48
25.4
100
AcDbLine
 10
161.0674745295
 20
132.117310771
 30
0.0
 11
161.0674745295
 21
16.917310771
 31
0.0
  0
TEXT
  5
192
330
14F
100
AcDbEntity
  8
DV2_Default
  6
Continuous
 62
     7
 48
25.4
100
AcDbText
 10
108.6627077227
 20
112.6100811484
 30
0.0
 40
3.0
  1
530mm
  7
SEACAD_arial_ttf
 11
108.6627077227
 21
115.6100811484
 31
0.0
100
AcDbText
 73
     3
  0
TEXT
  5
193
330
14F
100
AcDbEntity
  8
DV2_Default
  6
Continuous
 62
     7
 48
25.4
100
AcDbText
 10
108.6654468152
 20
105.4523842105
 30
0.0
 40
3.0
  1
87mm
  7
SEACAD_arial_ttf
 11
108.6654468152
 21
108.4523842105
 31
0.0
100
AcDbText
 73
     3
  0
TEXT
  5
194
330
14F
100
AcDbEntity
  8
DV2_Default
  6
Continuous
 62
     7
 48
25.4
100
AcDbText
 10
108.4031097704
 20
98.1670468127
 30
0.0
 40
3.0
  1
10.6mm
  7
SEACAD_arial_ttf
 11
108.4031097704
 21
101.1670468127
 31
0.0
100
AcDbText
 73
     3
  0
TEXT
  5
195
330
14F
100
AcDbEntity
  8
DV2_Default
  6
Continuous
 62
     7
 48
25.4
100
AcDbText
 10
108.7485928842
 20
90.8959673697
 30
0.0
 40
3.0
  1
23mm
  7
SEACAD_arial_ttf
 11
108.7485928842
 21
93.8959673697
 31
0.0
100
AcDbText
 73
     3
  0
TEXT
  5
196
330
14F
100
AcDbEntity
  8
DV2_Default
  6
Continuous
 62
     7
 48
25.4
100
AcDbText
 10
108.7221265953
 20
83.8011257938
 30
0.0
 40
3.0
  1
90kN
  7
SEACAD_arial_ttf
 11
108.7221265953
 21
86.8011257938
 31
0.0
100
AcDbText
 73
     3
  0
TEXT
  5
197
330
14F
100
AcDbEntity
  8
DV2_Default
  6
Continuous
 62
     7
 48
25.4
100
AcDbText
 10
108.7864056614
 20
76.5118856113
 30
0.0
 40
3.0
  1
234kN
  7
SEACAD_arial_ttf
 11
108.7864056614
 21
79.5118856113
 31
0.0
100
AcDbText
 73
     3
  0
TEXT
  5
198
330
14F
100
AcDbEntity
  8
DV2_Default
  6
Continuous
 62
     7
 48
25.4
100
AcDbText
 10
108.459098944
 20
69.3824235422
 30
0.0
 40
3.0
  1
1700min-
  7
SEACAD_arial_ttf
 11
108.459098944
 21
72.3824235422
 31
0.0
100
AcDbText
 73
     3
  0
TEXT
  5
199
330
14F
100
AcDbEntity
  8
DV2_Default
  6
Continuous
 62
     7
 48
25.4
100
AcDbText
 10
126.0677945962
 20
69.3824235422
 30
0.0
 40
2.7516666667
  1
¹
  7
SEACAD_arial_ttf
 11
126.0677945962
 21
72.1340902088
 31
0.0
100
AcDbText
 73
     3
  0
TEXT
  5
19A
330
14F
100
AcDbEntity
  8
DV2_Default
  6
Continuous
 62
     7
 48
25.4
100
AcDbText
 10
108.726546367
 20
54.9604776491
 30
0.0
 40
3.0
  1
246.0kg
  7
SEACAD_arial_ttf
 11
108.726546367
 21
57.9604776491
 31
0.0
100
AcDbText
 73
     3
  0
TEXT
  5
19B
330
14F
100
AcDbEntity
  8
DV2_Default
  6
Continuous
 62
     7
 48
25.4
100
AcDbText
 10
108.6564656159
 20
47.8996091831
 30
0.0
 40
3.0
  1
9.25kg.m
  7
SEACAD_arial_ttf
 11
108.6564656159
 21
50.8996091831
 31
0.0
100
AcDbText
 73
     3
  0
TEXT
  5
19C
330
14F
100
AcDbEntity
  8
DV2_Default
  6
Continuous
 62
     7
 48
25.4
100
AcDbText
 10
126.1347264854
 20
47.8996091831
 30
0.0
 40
2.7516666667
  1
²
  7
SEACAD_arial_ttf
 11
126.1347264854
 21
50.6512758498
 31
0.0
100
AcDbText
 73
     3
  0
TEXT
  5
19D
330
14F
100
AcDbEntity
  8
DV2_Default
  6
Continuous
 62
     7
 48
25.4
100
AcDbText
 10
108.5121280682
 20
40.5487269262
 30
0.0
 40
3.0
  1
F2511H
  7
SEACAD_arial_ttf
 11
108.5121280682
 21
43.5487269262
 31
0.0
100
AcDbText
 73
     3
  0
TEXT
  5
19E
330
14F
100
AcDbEntity
  8
DV2_Default
  6
Continuous
 62
     7
 48
25.4
100
AcDbText
 10
108.6353606343
 20
33.4158505572
 30
0.0
 40
3.0
  1
3.0MPa
  7
SEACAD_arial_ttf
 11
108.6353606343
 21
36.4158505572
 31
0.0
100
AcDbText
 73
     3
  0
TEXT
  5
19F
330
14F
100
AcDbEntity
  8
DV2_Default
  6
Continuous
 62
     7
 48
25.4
100
AcDbText
 10
108.5728434361
 20
26.3416804927
 30
0.0
 40
3.0
  1
HB18B2
  7
SEACAD_arial_ttf
 11
108.5728434361
 21
29.3416804927
 31
0.0
100
AcDbText
 73
     3
  0
TEXT
  5
1A0
330
14F
100
AcDbEntity
  8
DV2_Default
  6
Continuous
 62
     7
 48
25.4
100
AcDbText
 10
278.7735365799
 20
91.7992578246
 30
0.0
 40
3.0
  1
140
  7
SEACAD_arial_ttf
 11
278.7735365799
 21
94.7992578246
 31
0.0
100
AcDbText
 73
     3
  0
LINE
  5
1A1
330
14F
100
AcDbEntity
  8
DV2_Default
  6
CENTER2
 62
     7
 48
25.4
100
AcDbLine
 10
187.0182849501
 20
132.8952883686
 30
0.0
 11
220.3054535291
 21
132.8952883686
 31
0.0
  0
TEXT
  5
1A2
330
14F
100
AcDbEntity
  8
DV2_Default
  6
Continuous
 62
     7
 48
25.4
100
AcDbText
 10
278.9480785714
 20
99.5094424156
 30
0.0
 40
3.0
  1
160
  7
SEACAD_arial_ttf
 11
278.9480785714
 21
102.5094424156
 31
0.0
100
AcDbText
 73
     3
  0
TEXT
  5
1A3
330
14F
100
AcDbEntity
  8
DV2_Default
  6
Continuous
 62
     7
 48
25.4
100
AcDbText
 10
278.9480785714
 20
107.3328814825
 30
0.0
 40
3.0
  1
180
  7
SEACAD_arial_ttf
 11
278.9480785714
 21
110.3328814825
 31
0.0
100
AcDbText
 73
     3
  0
TEXT
  5
1A4
330
14F
100
AcDbEntity
  8
DV2_Default
  6
Continuous
 62
     7
 48
25.4
100
AcDbText
 10
316.1714977002
 20
33.9932029387
 30
0.0
 40
3.0
  1
500
  7
SEACAD_arial_ttf
 11
316.1714977002
 21
36.9932029387
 31
0.0
100
AcDbText
 73
     3
  0
TEXT
  5
1A5
330
14F
100
AcDbEntity
  8
DV2_Default
  6
Continuous
 62
     7
 48
25.4
100
AcDbText
 10
382.1498806731
 20
33.7288619142
 30
0.0
 40
3.0
  1
1500
  7
SEACAD_arial_ttf
 11
382.1498806731
 21
36.7288619142
 31
0.0
100
AcDbText
 73
     3
  0
TEXT
  5
1A6
330
14F
100
AcDbEntity
  8
DV2_Default
  6
Continuous
 62
     7
 48
25.4
100
AcDbText
 10
108.7106884343
 20
61.9690413393
 30
0.0
 40
3.0
  1
78kN
  7
SEACAD_arial_ttf
 11
108.7106884343
 21
64.9690413393
 31
0.0
100
AcDbText
 73
     3
  0
LINE
  5
1A7
330
14F
100
AcDbEntity
  8
DV2_Default
  6
Continuous
 62
     7
 48
25.4
100
AcDbLine
 10
286.1662777322
 20
38.517310771
 30
0.0
 11
406.1662777322
 21
38.517310771
 31
0.0
  0
LINE
  5
1A8
330
14F
100
AcDbEntity
  8
DV2_Default
  6
Continuous
 62
     7
 48
25.4
100
AcDbLine
 10
286.1662777322
 20
46.317310771
 30
0.0
 11
406.1662777322
 21
46.317310771
 31
0.0
  0
LINE
  5
1A9
330
14F
100
AcDbEntity
  8
DV2_Default
  6
Continuous
 62
     7
 48
25.4
100
AcDbLine
 10
406.1662777322
 20
54.117310771
 30
0.0
 11
286.1662777322
 21
54.117310771
 31
0.0
  0
LINE
  5
1AA
330
14F
100
AcDbEntity
  8
DV2_Default
  6
Continuous
 62
     7
 48
25.4
100
AcDbLine
 10
286.1662777322
 20
61.917310771
 30
0.0
 11
406.1662777322
 21
61.917310771
 31
0.0
  0
LINE
  5
1AB
330
14F
100
AcDbEntity
  8
DV2_Default
  6
Continuous
 62
     7
 48
25.4
100
AcDbLine
 10
406.1662777322
 20
69.717310771
 30
0.0
 11
286.1662777322
 21
69.717310771
 31
0.0
  0
LINE
  5
1AC
330
14F
100
AcDbEntity
  8
DV2_Default
  6
Continuous
 62
     7
 48
25.4
100
AcDbLine
 10
286.1662777322
 20
77.517310771
 30
0.0
 11
406.1662777322
 21
77.517310771
 31
0.0
  0
LINE
  5
1AD
330
14F
100
AcDbEntity
  8
DV2_Default
  6
Continuous
 62
     7
 48
25.4
100
AcDbLine
 10
286.1662777322
 20
132.117310771
 30
0.0
 11
286.1662777322
 21
38.517310771
 31
0.0
  0
LINE
  5
1AE
330
14F
100
AcDbEntity
  8
DV2_Default
  6
Continuous
 62
     7
 48
25.4
100
AcDbLine
 10
406.1662777322
 20
132.117310771
 30
0.0
 11
406.1662777322
 21
38.517310771
 31
0.0
  0
LINE
  5
1AF
330
14F
100
AcDbEntity
  8
DV2_Default
  6
Continuous
 62
     7
 48
25.4
100
AcDbLine
 10
319.7662777322
 20
38.517310771
 30
0.0
 11
319.7662777322
 21
132.117310771
 31
0.0
  0
LINE
  5
1B0
330
14F
100
AcDbEntity
  8
DV2_Default
  6
Continuous
 62
     7
 48
25.4
100
AcDbLine
 10
353.3662777322
 20
38.517310771
 30
0.0
 11
353.3662777322
 21
132.117310771
 31
0.0
  0
LINE
  5
1B1
330
14F
100
AcDbEntity
  8
DV2_Default
  6
Continuous
 62
     7
 48
25.4
100
AcDbLine
 10
386.9662777322
 20
38.517310771
 30
0.0
 11
386.9662777322
 21
132.117310771
 31
0.0
  0
LINE
  5
1B2
330
14F
100
AcDbEntity
  8
DV2_Default
  6
Continuous
 62
     7
 48
25.4
100
AcDbLine
 10
286.1662777322
 20
85.317310771
 30
0.0
 11
406.1662777322
 21
85.317310771
 31
0.0
  0
LINE
  5
1B3
330
14F
100
AcDbEntity
  8
DV2_Default
  6
Continuous
 62
     7
 48
25.4
100
AcDbLine
 10
286.1662777322
 20
93.117310771
 30
0.0
 11
406.1662777322
 21
93.117310771
 31
0.0
  0
LINE
  5
1B4
330
14F
100
AcDbEntity
  8
DV2_Default
  6
Continuous
 62
     7
 48
25.4
100
AcDbLine
 10
406.1662777322
 20
100.917310771
 30
0.0
 11
286.1662777322
 21
100.917310771
 31
0.0
  0
LINE
  5
1B5
330
14F
100
AcDbEntity
  8
DV2_Default
  6
Continuous
 62
     7
 48
25.4
100
AcDbLine
 10
286.1662777322
 20
108.717310771
 30
0.0
 11
406.1662777322
 21
108.717310771
 31
0.0
  0
LINE
  5
1B6
330
14F
100
AcDbEntity
  8
DV2_Default
  6
Continuous
 62
     7
 48
25.4
100
AcDbLine
 10
406.1662777322
 20
116.517310771
 30
0.0
 11
286.1662777322
 21
116.517310771
 31
0.0
  0
LINE
  5
1B7
330
14F
100
AcDbEntity
  8
DV2_Default
  6
Continuous
 62
     7
 48
25.4
100
AcDbLine
 10
286.1662777322
 20
124.317310771
 30
0.0
 11
406.1662777322
 21
124.317310771
 31
0.0
  0
LINE
  5
1B8
330
14F
100
AcDbEntity
  8
DV2_Default
  6
Continuous
 62
     7
 48
25.4
100
AcDbLine
 10
406.1662777322
 20
132.117310771
 30
0.0
 11
286.1662777322
 21
132.117310771
 31
0.0
  0
TEXT
  5
1B9
330
14F
100
AcDbEntity
  8
DV2_Default
  6
Continuous
 62
     7
 48
25.4
100
AcDbText
 10
278.8468182711
 20
114.8261437018
 30
0.0
 40
3.0
  1
200
  7
SEACAD_arial_ttf
 11
278.8468182711
 21
117.8261437018
 31
0.0
100
AcDbText
 73
     3
  0
TEXT
  5
1BA
330
14F
100
AcDbEntity
  8
DV2_Default
  6
Continuous
 62
     7
 48
25.4
100
AcDbText
 10
278.8468182711
 20
122.7244471221
 30
0.0
 40
3.0
  1
220
  7
SEACAD_arial_ttf
 11
278.8468182711
 21
125.7244471221
 31
0.0
100
AcDbText
 73
     3
  0
TEXT
  5
1BB
330
14F
100
AcDbEntity
  8
DV2_Default
  6
Continuous
 62
     7
 48
25.4
100
AcDbText
 10
278.9432658066
 20
126.4588540803
 30
0.0
 40
3.0
  1
234
  7
SEACAD_arial_ttf
 11
278.9432658066
 21
129.4588540803
 31
0.0
100
AcDbText
 73
     3
  0
ARC
  5
1BC
330
14F
100
AcDbEntity
  8
DV2_Default
  6
Continuous
 62
     7
 48
25.4
100
AcDbCircle
 10
274.7346756023
 20
-49.1489763026
 30
0.0
 40
176.3652274342184
100
AcDbArc
 50
42.043408329
 51
86.2836094821
  0
ARC
  5
1BD
330
14F
100
AcDbEntity
  8
DV2_Default
  6
Continuous
 62
     7
 48
25.4
100
AcDbCircle
 10
-24368.6278507799
 20
65960.9691027985
 30
0.0
 40
70395.48613188164
100
AcDbArc
 50
290.5678376192
 51
290.605455493
  0
ARC
  5
1BE
330
14F
100
AcDbEntity
  8
DV2_Default
  6
Continuous
 62
     7
 48
25.4
100
AcDbCircle
 10
277.6501497796
 20
-45.278757216
 30
0.0
 40
156.655431085249
100
AcDbArc
 50
43.8661385813
 51
86.8837413697
  0
ARC
  5
1BF
330
14F
100
AcDbEntity
  8
DV2_Default
  6
Continuous
 62
     7
 48
25.4
100
AcDbCircle
 10
268.9061981138
 20
-74.2428124117
 30
0.0
 40
171.9984653535042
100
AcDbArc
 50
50.5687356693
 51
84.240663361
  0
ARC
  5
1C0
330
14F
100
AcDbEntity
  8
DV2_Default
  6
Continuous
 62
     7
 48
25.4
100
AcDbCircle
 10
271.0071637674
 20
-72.650824106
 30
0.0
 40
155.164056986534
100
AcDbArc
 50
53.8937102057
 51
84.3934121946
  0
LINE
  5
1C1
330
14F
100
AcDbEntity
  8
DV2_Default
  6
Continuous
 62
     7
 48
25.4
100
AcDbLine
 10
216.9969809822
 20
132.8952883686
 30
0.0
 11
216.9969809822
 21
125.3952883686
 31
0.0
  0
LINE
  5
1C2
330
14F
100
AcDbEntity
  8
DV2_Default
  6
Continuous
 62
     7
 48
25.4
100
AcDbLine
 10
212.7969809822
 20
125.3952883686
 30
0.0
 11
201.3969809822
 21
125.3952883686
 31
0.0
  0
LINE
  5
1C3
330
14F
100
AcDbEntity
  8
DV2_Default
  6
Continuous
 62
     7
 48
25.4
100
AcDbLine
 10
189.9969809822
 20
123.4452883686
 30
0.0
 11
189.9969809822
 21
132.8952883686
 31
0.0
  0
LINE
  5
1C4
330
14F
100
AcDbEntity
  8
DV2_Default
  6
Continuous
 62
     7
 48
25.4
100
AcDbLine
 10
204.8685884995
 20
124.7952883686
 30
0.0
 11
201.9969809822
 21
124.7952883686
 31
0.0
  0
LINE
  5
1C5
330
14F
100
AcDbEntity
  8
DV2_Default
  6
Continuous
 62
     7
 48
25.4
100
AcDbLine
 10
189.3969809822
 20
124.0452883686
 30
0.0
 11
189.3969809822
 21
132.8952883686
 31
0.0
  0
LINE
  5
1C6
330
14F
100
AcDbEntity
  8
DV2_Default
  6
Continuous
 62
     7
 48
25.4
100
AcDbLine
 10
212.7969809822
 20
113.3952883686
 30
0.0
 11
200.3937104152
 21
113.3952883686
 31
0.0
  0
LINE
  5
1C7
330
14F
100
AcDbEntity
  8
DV2_Default
  6
Continuous
 62
     7
 48
25.4
100
AcDbLine
 10
213.3969809822
 20
113.9952883686
 30
0.0
 11
213.3969809822
 21
124.7952883686
 31
0.0
  0
LINE
  5
1C8
330
14F
100
AcDbEntity
  8
DV2_Default
  6
Continuous
 62
     7
 48
25.4
100
AcDbLine
 10
200.7969809822
 20
121.6452883686
 30
0.0
 11
191.7969809822
 21
121.6452883686
 31
0.0
  0
LINE
  5
1C9
330
14F
100
AcDbEntity
  8
DV2_Default
  6
Continuous
 62
     7
 48
25.4
100
AcDbLine
 10
201.3969809822
 20
122.2452883686
 30
0.0
 11
201.3969809822
 21
125.3952883686
 31
0.0
  0
LINE
  5
1CA
330
14F
100
AcDbEntity
  8
DV2_Default
  6
Continuous
 62
     7
 48
25.4
100
AcDbLine
 10
200.7969809822
 20
121.0452883686
 30
0.0
 11
192.3969809822
 21
121.0452883686
 31
0.0
  0
LINE
  5
1CB
330
14F
100
AcDbEntity
  8
DV2_Default
  6
Continuous
 62
     7
 48
25.4
100
AcDbLine
 10
201.9969809822
 20
124.7952883686
 30
0.0
 11
201.9969809822
 21
122.2452883686
 31
0.0
  0
LINE
  5
1CC
330
14F
100
AcDbEntity
  8
DV2_Default
  6
Continuous
 62
     7
 48
25.4
100
AcDbLine
 10
191.7969809822
 20
121.6452883686
 30
0.0
 11
189.9969809822
 21
123.4452883686
 31
0.0
  0
ARC
  5
1CD
330
14F
100
AcDbEntity
  8
DV2_Default
  6
Continuous
 62
     7
 48
25.4
100
AcDbCircle
 10
192.3969809822
 20
124.0452883686
 30
0.0
 40
3.0
100
AcDbArc
 50
180.0
 51
270.0
  0
LINE
  5
1CE
330
14F
100
AcDbEntity
  8
DV2_Default
  6
Continuous
 62
     7
 48
25.4
100
AcDbLine
 10
200.7969809822
 20
121.6452883686
 30
0.0
 11
201.3969809822
 21
122.2452883686
 31
0.0
  0
ARC
  5
1CF
330
14F
100
AcDbEntity
  8
DV2_Default
  6
Continuous
 62
     7
 48
25.4
100
AcDbCircle
 10
200.7969809822
 20
122.2452883686
 30
0.0
 40
1.2
100
AcDbArc
 50
270.0
 51
360.0
  0
LINE
  5
1D0
330
14F
100
AcDbEntity
  8
DV2_Default
  6
Continuous
 62
     7
 48
25.4
100
AcDbLine
 10
204.8685884995
 20
124.7952883686
 30
0.0
 11
206.708478277
 21
124.7952883686
 31
0.0
  0
LINE
  5
1D1
330
14F
100
AcDbEntity
  8
DV2_Default
  6
Continuous
 62
     7
 48
25.4
100
AcDbLine
 10
206.708478277
 20
124.7952883686
 30
0.0
 11
206.708478277
 21
125.3952883686
 31
0.0
  0
LINE
  5
1D2
330
14F
100
AcDbEntity
  8
DV2_Default
  6
Continuous
 62
     7
 48
25.4
100
AcDbLine
 10
212.7969809822
 20
125.3952883686
 30
0.0
 11
213.3969809822
 21
124.7952883686
 31
0.0
  0
LINE
  5
1D3
330
14F
100
AcDbEntity
  8
DV2_Default
  6
Continuous
 62
     7
 48
25.4
100
AcDbLine
 10
212.7969809822
 20
113.3952883686
 30
0.0
 11
213.3969809822
 21
113.9952883686
 31
0.0
  0
LINE
  5
1D4
330
14F
100
AcDbEntity
  8
DV2_Default
  6
Continuous
 62
     7
 48
25.4
100
AcDbLine
 10
212.7969809822
 20
125.3952883686
 30
0.0
 11
212.7969809822
 21
113.3952883686
 31
0.0
  0
LINE
  5
1D5
330
14F
100
AcDbEntity
  8
DV2_Default
  6
Continuous
 62
     7
 48
25.4
100
AcDbLine
 10
212.7969809822
 20
125.3952883686
 30
0.0
 11
216.9969809822
 21
125.3952883686
 31
0.0
  0
LINE
  5
1D6
330
14F
100
AcDbEntity
  8
DV2_Default
  6
Continuous
 62
     7
 48
25.4
100
AcDbLine
 10
210.3969809822
 20
113.3952883686
 30
0.0
 11
210.3969809822
 21
101.3952883686
 31
0.0
  0
LINE
  5
1D7
330
14F
100
AcDbEntity
  8
DV2_Default
  6
Continuous
 62
     7
 48
25.4
100
AcDbLine
 10
216.9969809822
 20
132.8952883686
 30
0.0
 11
216.9969809822
 21
140.3952883686
 31
0.0
  0
LINE
  5
1D8
330
14F
100
AcDbEntity
  8
DV2_Default
  6
Continuous
 62
     7
 48
25.4
100
AcDbLine
 10
212.7969809822
 20
140.3952883686
 30
0.0
 11
201.3969809822
 21
140.3952883686
 31
0.0
  0
LINE
  5
1D9
330
14F
100
AcDbEntity
  8
DV2_Default
  6
Continuous
 62
     7
 48
25.4
100
AcDbLine
 10
189.9969809822
 20
142.3452883686
 30
0.0
 11
189.9969809822
 21
132.8952883686
 31
0.0
  0
LINE
  5
1DA
330
14F
100
AcDbEntity
  8
DV2_Default
  6
Continuous
 62
     7
 48
25.4
100
AcDbLine
 10
204.8685884995
 20
140.9952883686
 30
0.0
 11
201.9969809822
 21
140.9952883686
 31
0.0
  0
LINE
  5
1DB
330
14F
100
AcDbEntity
  8
DV2_Default
  6
Continuous
 62
     7
 48
25.4
100
AcDbLine
 10
189.3969809822
 20
141.7452883686
 30
0.0
 11
189.3969809822
 21
132.8952883686
 31
0.0
  0
LINE
  5
1DC
330
14F
100
AcDbEntity
  8
DV2_Default
  6
Continuous
 62
     7
 48
25.4
100
AcDbLine
 10
212.7969809822
 20
152.3952883686
 30
0.0
 11
200.3937104152
 21
152.3952883686
 31
0.0
  0
LINE
  5
1DD
330
14F
100
AcDbEntity
  8
DV2_Default
  6
Continuous
 62
     7
 48
25.4
100
AcDbLine
 10
213.3969809822
 20
151.7952883686
 30
0.0
 11
213.3969809822
 21
140.9952883686
 31
0.0
  0
LINE
  5
1DE
330
14F
100
AcDbEntity
  8
DV2_Default
  6
Continuous
 62
     7
 48
25.4
100
AcDbLine
 10
200.7969809822
 20
144.1452883686
 30
0.0
 11
191.7969809822
 21
144.1452883686
 31
0.0
  0
LINE
  5
1DF
330
14F
100
AcDbEntity
  8
DV2_Default
  6
Continuous
 62
     7
 48
25.4
100
AcDbLine
 10
201.3969809822
 20
143.5452883686
 30
0.0
 11
201.3969809822
 21
140.3952883686
 31
0.0
  0
LINE
  5
1E0
330
14F
100
AcDbEntity
  8
DV2_Default
  6
Continuous
 62
     7
 48
25.4
100
AcDbLine
 10
200.7969809822
 20
144.7452883686
 30
0.0
 11
192.3969809822
 21
144.7452883686
 31
0.0
  0
LINE
  5
1E1
330
14F
100
AcDbEntity
  8
DV2_Default
  6
Continuous
 62
     7
 48
25.4
100
AcDbLine
 10
201.9969809822
 20
140.9952883686
 30
0.0
 11
201.9969809822
 21
143.5452883686
 31
0.0
  0
LINE
  5
1E2
330
14F
100
AcDbEntity
  8
DV2_Default
  6
Continuous
 62
     7
 48
25.4
100
AcDbLine
 10
191.7969809822
 20
144.1452883686
 30
0.0
 11
189.9969809822
 21
142.3452883686
 31
0.0
  0
ARC
  5
1E3
330
14F
100
AcDbEntity
  8
DV2_Default
  6
Continuous
 62
     7
 48
25.4
100
AcDbCircle
 10
192.3969809822
 20
141.7452883686
 30
0.0
 40
3.0
100
AcDbArc
 50
90.0
 51
180.0
  0
LINE
  5
1E4
330
14F
100
AcDbEntity
  8
DV2_Default
  6
Continuous
 62
     7
 48
25.4
100
AcDbLine
 10
200.7969809822
 20
144.1452883686
 30
0.0
 11
201.3969809822
 21
143.5452883686
 31
0.0
  0
ARC
  5
1E5
330
14F
100
AcDbEntity
  8
DV2_Default
  6
Continuous
 62
     7
 48
25.4
100
AcDbCircle
 10
200.7969809822
 20
143.5452883686
 30
0.0
 40
1.2
100
AcDbArc
 50
0.0
 51
90.0
  0
LINE
  5
1E6
330
14F
100
AcDbEntity
  8
DV2_Default
  6
Continuous
 62
     7
 48
25.4
100
AcDbLine
 10
204.8685884995
 20
140.9952883686
 30
0.0
 11
206.708478277
 21
140.9952883686
 31
0.0
  0
LINE
  5
1E7
330
14F
100
AcDbEntity
  8
DV2_Default
  6
Continuous
 62
     7
 48
25.4
100
AcDbLine
 10
206.708478277
 20
140.9952883686
 30
0.0
 11
206.708478277
 21
140.3952883686
 31
0.0
  0
LINE
  5
1E8
330
14F
100
AcDbEntity
  8
DV2_Default
  6
Continuous
 62
     7
 48
25.4
100
AcDbLine
 10
212.7969809822
 20
140.3952883686
 30
0.0
 11
213.3969809822
 21
140.9952883686
 31
0.0
  0
LINE
  5
1E9
330
14F
100
AcDbEntity
  8
DV2_Default
  6
Continuous
 62
     7
 48
25.4
100
AcDbLine
 10
212.7969809822
 20
152.3952883686
 30
0.0
 11
213.3969809822
 21
151.7952883686
 31
0.0
  0
LINE
  5
1EA
330
14F
100
AcDbEntity
  8
DV2_Default
  6
Continuous
 62
     7
 48
25.4
100
AcDbLine
 10
212.7969809822
 20
140.3952883686
 30
0.0
 11
212.7969809822
 21
152.3952883686
 31
0.0
  0
LINE
  5
1EB
330
14F
100
AcDbEntity
  8
DV2_Default
  6
Continuous
 62
     7
 48
25.4
100
AcDbLine
 10
212.7969809822
 20
140.3952883686
 30
0.0
 11
216.9969809822
 21
140.3952883686
 31
0.0
  0
LINE
  5
1EC
330
14F
100
AcDbEntity
  8
DV2_Default
  6
Continuous
 62
     7
 48
25.4
100
AcDbLine
 10
210.3969809822
 20
152.3952883686
 30
0.0
 11
210.3969809822
 21
164.3952883686
 31
0.0
  0
ENDBLK
  5
1EE
330
14F
100
AcDbEntity
  8
0
100
AcDbBlockEnd
  0
BLOCK
  5
2BF
330
1EF
100
AcDbEntity
  8
0
100
AcDbBlockBegin
  2
SE2
 70
     0
 71
     0
 10
0.0
 20
0.0
 30
0.0
  3
SE2
  1

  0
CIRCLE
  5
1F2
330
1EF
100
AcDbEntity
  8
DV3_Default
  6
Continuous
 62
     7
 48
25.4
100
AcDbCircle
 10
438.1073823711
 20
290.5192435773
 30
0.0
 40
14.0
  0
CIRCLE
  5
1F3
330
1EF
100
AcDbEntity
  8
DV3_Default
  6
Continuous
 62
     7
 48
25.4
100
AcDbCircle
 10
438.1073823711
 20
290.5192435773
 30
0.0
 40
24.5
  0
CIRCLE
  5
1F4
330
1EF
100
AcDbEntity
  8
DV3_Default
  6
Continuous
 62
     7
 48
25.4
100
AcDbCircle
 10
380.3223823711
 20
290.5192435773
 30
0.0
 40
6.300000000000001
  0
CIRCLE
  5
1F5
330
1EF
100
AcDbEntity
  8
DV3_Default
  6
Continuous
 62
     7
 48
25.4
100
AcDbCircle
 10
380.3223823711
 20
290.5192435773
 30
0.0
 40
3.85
  0
CIRCLE
  5
1F6
330
1EF
100
AcDbEntity
  8
DV3_Default
  6
Continuous
 62
     7
 48
25.4
100
AcDbCircle
 10
409.2148823711
 20
340.5625215349
 30
0.0
 40
6.300000000000001
  0
CIRCLE
  5
1F7
330
1EF
100
AcDbEntity
  8
DV3_Default
  6
Continuous
 62
     7
 48
25.4
100
AcDbCircle
 10
409.2148823711
 20
340.5625215349
 30
0.0
 40
3.85
  0
CIRCLE
  5
1F8
330
1EF
100
AcDbEntity
  8
DV3_Default
  6
HIDDEN2
 62
     7
 48
25.4
100
AcDbCircle
 10
382.291358499
 20
305.4751020985
 30
0.0
 40
2.1
  0
CIRCLE
  5
1F9
330
1EF
100
AcDbEntity
  8
DV3_Default
  6
HIDDEN2
 62
     7
 48
25.4
100
AcDbCircle
 10
382.291358499
 20
305.4751020985
 30
0.0
 40
1.925
  0
LINE
  5
1FA
330
1EF
100
AcDbEntity
  8
DV3_Default
  6
CENTER2
 62
     7
 48
25.4
100
AcDbLine
 10
412.5573823711
 20
334.7731417107
 30
0.0
 11
406.0648823711
 21
346.0184815788
 31
0.0
  0
LINE
  5
1FB
330
1EF
100
AcDbEntity
  8
DV3_Default
  6
CENTER2
 62
     7
 48
25.4
100
AcDbLine
 10
384.3198027342
 20
304.9315821038
 30
0.0
 11
380.2629142638
 21
306.0186220932
 31
0.0
  0
CIRCLE
  5
1FC
330
1EF
100
AcDbEntity
  8
DV3_Default
  6
Continuous
 62
     7
 48
25.4
100
AcDbCircle
 10
466.9998823711
 20
340.5625215349
 30
0.0
 40
6.300000000000001
  0
CIRCLE
  5
1FD
330
1EF
100
AcDbEntity
  8
DV3_Default
  6
Continuous
 62
     7
 48
25.4
100
AcDbCircle
 10
466.9998823711
 20
340.5625215349
 30
0.0
 40
3.85
  0
CIRCLE
  5
1FE
330
1EF
100
AcDbEntity
  8
DV3_Default
  6
Continuous
 62
     7
 48
25.4
100
AcDbCircle
 10
495.8923823711
 20
290.5192435773
 30
0.0
 40
6.300000000000001
  0
CIRCLE
  5
1FF
330
1EF
100
AcDbEntity
  8
DV3_Default
  6
Continuous
 62
     7
 48
25.4
100
AcDbCircle
 10
495.8923823711
 20
290.5192435773
 30
0.0
 40
3.85
  0
CIRCLE
  5
200
330
1EF
100
AcDbEntity
  8
DV3_Default
  6
HIDDEN2
 62
     7
 48
25.4
100
AcDbCircle
 10
478.967547722
 20
331.3794089281
 30
0.0
 40
2.1
  0
CIRCLE
  5
201
330
1EF
100
AcDbEntity
  8
DV3_Default
  6
HIDDEN2
 62
     7
 48
25.4
100
AcDbCircle
 10
478.967547722
 20
331.3794089281
 30
0.0
 40
1.925
  0
LINE
  5
202
330
1EF
100
AcDbEntity
  8
DV3_Default
  6
CENTER2
 62
     7
 48
25.4
100
AcDbLine
 10
477.4826234815
 20
329.8944846876
 30
0.0
 11
480.4524719624
 21
332.8643331686
 31
0.0
  0
LINE
  5
203
330
1EF
100
AcDbEntity
  8
DV3_Default
  6
CENTER2
 62
     7
 48
25.4
100
AcDbLine
 10
463.6573823711
 20
334.7731417107
 30
0.0
 11
470.1498823711
 21
346.0184815788
 31
0.0
  0
ARC
  5
204
330
1EF
100
AcDbEntity
  8
DV3_Default
  6
CENTER2
 62
     7
 48
25.4
100
AcDbCircle
 10
438.1073823711
 20
290.5192435773
 30
0.0
 40
57.785
100
AcDbArc
 50
42.9176644597
 51
66.2497607299
  0
ARC
  5
205
330
1EF
100
AcDbEntity
  8
DV3_Default
  6
CENTER2
 62
     7
 48
25.4
100
AcDbCircle
 10
438.1073823711
 20
290.5192435773
 30
0.0
 40
57.785
100
AcDbArc
 50
162.9176644597
 51
186.2497607299
  0
ARC
  5
206
330
1EF
100
AcDbEntity
  8
DV3_Default
  6
CENTER2
 62
     7
 48
25.4
100
AcDbCircle
 10
438.1073823711
 20
290.5192435773
 30
0.0
 40
57.785
100
AcDbArc
 50
113.7502392701
 51
126.2497607299
  0
ARC
  5
207
330
1EF
100
AcDbEntity
  8
DV3_Default
  6
CENTER2
 62
     7
 48
25.4
100
AcDbCircle
 10
438.1073823711
 20
290.5192435773
 30
0.0
 40
57.785
100
AcDbArc
 50
353.7502392701
 51
6.2497607299
  0
LINE
  5
208
330
1EF
100
AcDbEntity
  8
DV3_Default
  6
Continuous
 62
     7
 48
25.4
100
AcDbLine
 10
438.0783729588
 20
384.8215624732
 30
0.0
 11
449.4533729588
 21
384.8215624732
 31
0.0
  0
LINE
  5
209
330
1EF
100
AcDbEntity
  8
DV3_Default
  6
Continuous
 62
     7
 48
25.4
100
AcDbLine
 10
449.4533729588
 20
384.8215624732
 30
0.0
 11
449.4533729588
 21
321.8215624732
 31
0.0
  0
LINE
  5
20A
330
1EF
100
AcDbEntity
  8
DV3_Default
  6
Continuous
 62
     7
 48
25.4
100
AcDbLine
 10
449.4533729588
 20
321.8215624732
 30
0.0
 11
426.7033729588
 21
321.8215624732
 31
0.0
  0
LINE
  5
20B
330
1EF
100
AcDbEntity
  8
DV3_Default
  6
Continuous
 62
     7
 48
25.4
100
AcDbLine
 10
426.7033729588
 20
321.8215624732
 30
0.0
 11
426.7033729588
 21
384.8215624732
 31
0.0
  0
LINE
  5
20C
330
1EF
100
AcDbEntity
  8
DV3_Default
  6
Continuous
 62
     7
 48
25.4
100
AcDbLine
 10
426.7033729588
 20
384.8215624732
 30
0.0
 11
438.0783729588
 21
384.8215624732
 31
0.0
  0
CIRCLE
  5
20D
330
1EF
100
AcDbEntity
  8
DV3_Default
  6
Continuous
 62
     7
 48
25.4
100
AcDbCircle
 10
438.1077556562
 20
370.8215624732
 30
0.0
 40
5.25
  0
CIRCLE
  5
20E
330
1EF
100
AcDbEntity
  8
DV3_Default
  6
Continuous
 62
     7
 48
25.4
100
AcDbCircle
 10
438.1073823711
 20
349.8301130955
 30
0.0
 40
5.25
  0
CIRCLE
  5
20F
330
1EF
100
AcDbEntity
  8
DV3_Default
  6
Continuous
 62
     7
 48
25.4
100
AcDbCircle
 10
438.1077556562
 20
370.8215624732
 30
0.0
 40
4.9
  0
CIRCLE
  5
210
330
1EF
100
AcDbEntity
  8
DV3_Default
  6
Continuous
 62
     7
 48
25.4
100
AcDbCircle
 10
438.1073823711
 20
349.8301130955
 30
0.0
 40
4.9
  0
LINE
  5
211
330
1EF
100
AcDbEntity
  8
DV3_Default
  6
Continuous
 62
     7
 48
25.4
100
AcDbLine
 10
438.0783729588
 20
384.8215624732
 30
0.0
 11
449.4533729588
 21
384.8215624732
 31
0.0
  0
LINE
  5
212
330
1EF
100
AcDbEntity
  8
DV3_Default
  6
Continuous
 62
     7
 48
25.4
100
AcDbLine
 10
449.4533729588
 20
384.8215624732
 30
0.0
 11
449.4533729588
 21
383.0715624732
 31
0.0
  0
LINE
  5
213
330
1EF
100
AcDbEntity
  8
DV3_Default
  6
Continuous
 62
     7
 48
25.4
100
AcDbLine
 10
455.2466876784
 20
320.4319472094
 30
0.0
 11
420.9680770638
 21
320.4319472094
 31
0.0
  0
LINE
  5
214
330
1EF
100
AcDbEntity
  8
DV3_Default
  6
Continuous
 62
     7
 48
25.4
100
AcDbLine
 10
449.4533729588
 20
384.8215624732
 30
0.0
 11
449.4533729588
 21
383.7715624732
 31
0.0
  0
LINE
  5
215
330
1EF
100
AcDbEntity
  8
DV3_Default
  6
Continuous
 62
     7
 48
25.4
100
AcDbLine
 10
449.4533729588
 20
383.7715624732
 30
0.0
 11
455.5387056644
 21
382.141002489
 31
0.0
  0
LINE
  5
216
330
1EF
100
AcDbEntity
  8
DV3_Default
  6
Continuous
 62
     7
 48
25.4
100
AcDbLine
 10
455.5387056644
 20
382.141002489
 30
0.0
 11
455.5387056644
 21
381.6165073575
 31
0.0
  0
LINE
  5
217
330
1EF
100
AcDbEntity
  8
DV3_Default
  6
Continuous
 62
     7
 48
25.4
100
AcDbLine
 10
426.7033729588
 20
383.756016376
 30
0.0
 11
420.6760590778
 21
382.141002489
 31
0.0
  0
LINE
  5
218
330
1EF
100
AcDbEntity
  8
DV3_Default
  6
Continuous
 62
     7
 48
25.4
100
AcDbLine
 10
420.6760590778
 20
382.141002489
 30
0.0
 11
420.6760590778
 21
381.6165073575
 31
0.0
  0
LINE
  5
219
330
1EF
100
AcDbEntity
  8
DV3_Default
  6
Continuous
 62
     7
 48
25.4
100
AcDbLine
 10
513.1932642029
 20
234.0671680493
 30
0.0
 11
460.6273931592
 21
264.4160878465
 31
0.0
  0
LINE
  5
21A
330
1EF
100
AcDbEntity
  8
DV3_Default
  6
Continuous
 62
     7
 48
25.4
100
AcDbLine
 10
471.9848310976
 20
284.1283052436
 30
0.0
 11
524.5548008878
 21
253.777019034
 31
0.0
  0
LINE
  5
21B
330
1EF
100
AcDbEntity
  8
DV3_Default
  6
Continuous
 62
     7
 48
25.4
100
AcDbLine
 10
455.4433254928
 20
260.720570597
 30
0.0
 11
472.5819587875
 21
290.4055542356
 31
0.0
  0
LINE
  5
21C
330
1EF
100
AcDbEntity
  8
DV3_Default
  6
Continuous
 62
     7
 48
25.4
100
AcDbLine
 10
513.1932642029
 20
234.0671680493
 30
0.0
 11
508.7384914814
 21
229.6123953278
 31
0.0
  0
LINE
  5
21D
330
1EF
100
AcDbEntity
  8
DV3_Default
  6
Continuous
 62
     7
 48
25.4
100
AcDbLine
 10
508.7384914814
 20
229.6123953278
 30
0.0
 11
508.2842653734
 21
229.8746428936
 31
0.0
  0
LINE
  5
21E
330
1EF
100
AcDbEntity
  8
DV3_Default
  6
Continuous
 62
     7
 48
25.4
100
AcDbLine
 10
524.5392547906
 20
253.7190002093
 30
0.0
 11
526.1698147748
 21
259.804332915
 31
0.0
  0
LINE
  5
21F
330
1EF
100
AcDbEntity
  8
DV3_Default
  6
Continuous
 62
     7
 48
25.4
100
AcDbLine
 10
526.1698147748
 20
259.804332915
 30
0.0
 11
525.7155886667
 21
260.0665804807
 31
0.0
  0
LINE
  5
220
330
1EF
100
AcDbEntity
  8
DV3_Default
  6
Continuous
 62
     7
 48
25.4
100
AcDbLine
 10
513.1932642029
 20
234.0671680493
 30
0.0
 11
518.8662594968
 21
243.8930841293
 31
0.0
  0
LINE
  5
221
330
1EF
100
AcDbEntity
  8
DV3_Default
  6
Continuous
 62
     7
 48
25.4
100
AcDbLine
 10
518.8662594968
 20
243.8930841293
 30
0.0
 11
524.5392547906
 21
253.7190002093
 31
0.0
  0
LINE
  5
222
330
1EF
100
AcDbEntity
  8
DV3_Default
  6
Continuous
 62
     7
 48
25.4
100
AcDbLine
 10
518.8662594968
 20
243.8930841293
 30
0.0
 11
516.6787594968
 21
240.1042229877
 31
0.0
  0
LINE
  5
223
330
1EF
100
AcDbEntity
  8
DV3_Default
  6
Continuous
 62
     7
 48
25.4
100
AcDbLine
 10
460.6273931592
 20
264.4160878465
 30
0.0
 11
471.9733837469
 21
284.0679200066
 31
0.0
  0
LINE
  5
224
330
1EF
100
AcDbEntity
  8
DV3_Default
  6
Continuous
 62
     7
 48
25.4
100
AcDbLine
 10
516.6787594968
 20
240.1042229877
 30
0.0
 11
481.2346616241
 21
260.5678824357
 31
0.0
  0
LINE
  5
225
330
1EF
100
AcDbEntity
  8
DV3_Default
  6
Continuous
 62
     7
 48
25.4
100
AcDbLine
 10
485.6096616241
 20
268.1456047188
 30
0.0
 11
521.0537594968
 21
247.6819452709
 31
0.0
  0
ARC
  5
226
330
1EF
100
AcDbEntity
  8
DV3_Default
  6
Continuous
 62
     7
 48
25.4
100
AcDbCircle
 10
469.3806038403
 20
272.431521691
 30
0.0
 40
4.367914847427554
100
AcDbArc
 50
185.1187569303
 51
245.5844461782
  0
ARC
  5
227
330
1EF
100
AcDbEntity
  8
DV3_Default
  6
Continuous
 62
     7
 48
25.4
100
AcDbCircle
 10
469.3806038403
 20
272.431521691
 30
0.0
 40
4.367914847427554
100
AcDbArc
 50
55.1369660284
 51
114.8812430697
  0
LINE
  5
228
330
1EF
100
AcDbEntity
  8
DV3_Default
  6
Continuous
 62
     7
 48
25.4
100
AcDbLine
 10
467.5751191022
 20
268.4542229877
 30
0.0
 11
464.0896238083
 21
262.4171680493
 31
0.0
  0
LINE
  5
229
330
1EF
100
AcDbEntity
  8
DV3_Default
  6
Continuous
 62
     7
 48
25.4
100
AcDbLine
 10
471.9501191022
 20
276.0319452709
 30
0.0
 11
475.4646238083
 21
282.1192459854
 31
0.0
  0
LINE
  5
22A
330
1EF
100
AcDbEntity
  8
DV3_Default
  6
Continuous
 62
     7
 48
25.4
100
AcDbLine
 10
482.3612805045
 20
264.9692435773
 30
0.0
 11
480.7862805045
 21
262.2412635553
 31
0.0
  0
LINE
  5
22B
330
1EF
100
AcDbEntity
  8
DV3_Default
  6
Continuous
 62
     7
 48
25.4
100
AcDbLine
 10
482.3612805045
 20
264.9692435773
 30
0.0
 11
483.9362805045
 21
267.6972235992
 31
0.0
  0
LINE
  5
22C
330
1EF
100
AcDbEntity
  8
DV3_Default
  6
Continuous
 62
     7
 48
25.4
100
AcDbLine
 10
480.7862805045
 20
262.2412635553
 30
0.0
 11
481.2346616241
 21
260.5678824357
 31
0.0
  0
LINE
  5
22D
330
1EF
100
AcDbEntity
  8
DV3_Default
  6
Continuous
 62
     7
 48
25.4
100
AcDbLine
 10
485.6096616241
 20
268.1456047188
 30
0.0
 11
483.9362805045
 21
267.6972235992
 31
0.0
  0
LINE
  5
22E
330
1EF
100
AcDbEntity
  8
DV3_Default
  6
Continuous
 62
     7
 48
25.4
100
AcDbLine
 10
481.2346616241
 20
260.5678824357
 30
0.0
 11
467.5751191022
 21
268.4542229877
 31
0.0
  0
LINE
  5
22F
330
1EF
100
AcDbEntity
  8
DV3_Default
  6
Continuous
 62
     7
 48
25.4
100
AcDbLine
 10
471.9501191022
 20
276.0319452709
 30
0.0
 11
485.6096616241
 21
268.1456047188
 31
0.0
  0
CIRCLE
  5
230
330
1EF
100
AcDbEntity
  8
DV3_Default
  6
Continuous
 62
     7
 48
25.4
100
AcDbCircle
 10
488.4268753765
 20
261.4601229952
 30
0.0
 40
3.5
  0
CIRCLE
  5
231
330
1EF
100
AcDbEntity
  8
DV3_Default
  6
Continuous
 62
     7
 48
25.4
100
AcDbCircle
 10
503.5879493786
 20
252.7510726916
 30
0.0
 40
3.5
  0
CIRCLE
  5
232
330
1EF
100
AcDbEntity
  8
DV3_Default
  6
Continuous
 62
     7
 48
25.4
100
AcDbCircle
 10
488.4268753765
 20
261.4601229952
 30
0.0
 40
3.15
  0
CIRCLE
  5
233
330
1EF
100
AcDbEntity
  8
DV3_Default
  6
Continuous
 62
     7
 48
25.4
100
AcDbCircle
 10
503.5879493786
 20
252.7510726916
 30
0.0
 40
3.15
  0
LINE
  5
234
330
1EF
100
AcDbEntity
  8
DV3_Default
  6
Continuous
 62
     7
 48
25.4
100
AcDbLine
 10
511.0971696369
 20
244.7412635553
 30
0.0
 11
510.4846696369
 21
243.6803824357
 31
0.0
  0
LINE
  5
235
330
1EF
100
AcDbEntity
  8
DV3_Default
  6
Continuous
 62
     7
 48
25.4
100
AcDbLine
 10
510.4846696369
 20
243.6803824357
 30
0.0
 11
514.8596696369
 21
251.2581047188
 31
0.0
  0
LINE
  5
236
330
1EF
100
AcDbEntity
  8
DV3_Default
  6
Continuous
 62
     7
 48
25.4
100
AcDbLine
 10
351.6755099516
 20
253.7190002093
 30
0.0
 11
404.2413809953
 21
284.0679200066
 31
0.0
  0
LINE
  5
237
330
1EF
100
AcDbEntity
  8
DV3_Default
  6
Continuous
 62
     7
 48
25.4
100
AcDbLine
 10
415.6339430569
 20
264.3759815315
 30
0.0
 11
363.0639732667
 21
234.0246953219
 31
0.0
  0
LINE
  5
238
330
1EF
100
AcDbEntity
  8
DV3_Default
  6
Continuous
 62
     7
 48
25.4
100
AcDbLine
 10
403.6330030103
 20
290.4052129254
 30
0.0
 11
420.7716363049
 21
260.7202292868
 31
0.0
  0
LINE
  5
239
330
1EF
100
AcDbEntity
  8
DV3_Default
  6
Continuous
 62
     7
 48
25.4
100
AcDbLine
 10
351.6755099516
 20
253.7190002093
 30
0.0
 11
350.0449499674
 21
259.804332915
 31
0.0
  0
LINE
  5
23A
330
1EF
100
AcDbEntity
  8
DV3_Default
  6
Continuous
 62
     7
 48
25.4
100
AcDbLine
 10
350.0449499674
 20
259.804332915
 30
0.0
 11
350.4991760755
 21
260.0665804807
 31
0.0
  0
LINE
  5
23B
330
1EF
100
AcDbEntity
  8
DV3_Default
  6
Continuous
 62
     7
 48
25.4
100
AcDbLine
 10
363.0215005393
 20
234.0671680493
 30
0.0
 11
367.4762732607
 21
229.6123953278
 31
0.0
  0
LINE
  5
23C
330
1EF
100
AcDbEntity
  8
DV3_Default
  6
Continuous
 62
     7
 48
25.4
100
AcDbLine
 10
367.4762732607
 20
229.6123953278
 30
0.0
 11
367.9304993688
 21
229.8746428936
 31
0.0
  0
LINE
  5
23D
330
1EF
100
AcDbEntity
  8
DV3_Default
  6
Continuous
 62
     7
 48
25.4
100
AcDbLine
 10
351.6755099516
 20
253.7190002093
 30
0.0
 11
357.3485052454
 21
243.8930841293
 31
0.0
  0
LINE
  5
23E
330
1EF
100
AcDbEntity
  8
DV3_Default
  6
Continuous
 62
     7
 48
25.4
100
AcDbLine
 10
357.3485052454
 20
243.8930841293
 30
0.0
 11
363.0215005393
 21
234.0671680493
 31
0.0
  0
LINE
  5
23F
330
1EF
100
AcDbEntity
  8
DV3_Default
  6
Continuous
 62
     7
 48
25.4
100
AcDbLine
 10
357.3485052454
 20
243.8930841293
 30
0.0
 11
355.1610052454
 21
247.6819452709
 31
0.0
  0
LINE
  5
240
330
1EF
100
AcDbEntity
  8
DV3_Default
  6
Continuous
 62
     7
 48
25.4
100
AcDbLine
 10
404.2413809953
 20
284.0679200066
 30
0.0
 11
415.587371583
 21
264.4160878465
 31
0.0
  0
LINE
  5
241
330
1EF
100
AcDbEntity
  8
DV3_Default
  6
Continuous
 62
     7
 48
25.4
100
AcDbLine
 10
355.1610052454
 20
247.6819452709
 30
0.0
 11
390.6051031181
 21
268.1456047188
 31
0.0
  0
LINE
  5
242
330
1EF
100
AcDbEntity
  8
DV3_Default
  6
Continuous
 62
     7
 48
25.4
100
AcDbLine
 10
394.9801031181
 20
260.5678824357
 30
0.0
 11
359.5360052454
 21
240.1042229877
 31
0.0
  0
ARC
  5
243
330
1EF
100
AcDbEntity
  8
DV3_Default
  6
Continuous
 62
     7
 48
25.4
100
AcDbCircle
 10
406.8063449864
 20
272.4797002699
 30
0.0
 40
4.367914847427554
100
AcDbArc
 50
65.1187569303
 51
125.5844461782
  0
ARC
  5
244
330
1EF
100
AcDbEntity
  8
DV3_Default
  6
Continuous
 62
     7
 48
25.4
100
AcDbCircle
 10
406.8063449864
 20
272.4797002699
 30
0.0
 40
4.367914847427554
100
AcDbArc
 50
295.1369660284
 51
354.8812430697
  0
LINE
  5
245
330
1EF
100
AcDbEntity
  8
DV3_Default
  6
Continuous
 62
     7
 48
25.4
100
AcDbLine
 10
404.26464564
 20
276.0319452709
 30
0.0
 11
400.7791503461
 21
282.0690002093
 31
0.0
  0
LINE
  5
246
330
1EF
100
AcDbEntity
  8
DV3_Default
  6
Continuous
 62
     7
 48
25.4
100
AcDbLine
 10
408.63964564
 20
268.4542229877
 30
0.0
 11
412.1541503461
 21
262.3669222733
 31
0.0
  0
LINE
  5
247
330
1EF
100
AcDbEntity
  8
DV3_Default
  6
Continuous
 62
     7
 48
25.4
100
AcDbLine
 10
393.8534842377
 20
264.9692435773
 30
0.0
 11
392.2784842377
 21
267.6972235992
 31
0.0
  0
LINE
  5
248
330
1EF
100
AcDbEntity
  8
DV3_Default
  6
Continuous
 62
     7
 48
25.4
100
AcDbLine
 10
393.8534842377
 20
264.9692435773
 30
0.0
 11
395.4284842377
 21
262.2412635553
 31
0.0
  0
LINE
  5
249
330
1EF
100
AcDbEntity
  8
DV3_Default
  6
Continuous
 62
     7
 48
25.4
100
AcDbLine
 10
392.2784842377
 20
267.6972235992
 30
0.0
 11
390.6051031181
 21
268.1456047188
 31
0.0
  0
LINE
  5
24A
330
1EF
100
AcDbEntity
  8
DV3_Default
  6
Continuous
 62
     7
 48
25.4
100
AcDbLine
 10
394.9801031181
 20
260.5678824357
 30
0.0
 11
395.4284842377
 21
262.2412635553
 31
0.0
  0
LINE
  5
24B
330
1EF
100
AcDbEntity
  8
DV3_Default
  6
Continuous
 62
     7
 48
25.4
100
AcDbLine
 10
390.6051031181
 20
268.1456047188
 30
0.0
 11
404.26464564
 21
276.0319452709
 31
0.0
  0
LINE
  5
24C
330
1EF
100
AcDbEntity
  8
DV3_Default
  6
Continuous
 62
     7
 48
25.4
100
AcDbLine
 10
408.63964564
 20
268.4542229877
 30
0.0
 11
394.9801031181
 21
260.5678824357
 31
0.0
  0
CIRCLE
  5
24D
330
1EF
100
AcDbEntity
  8
DV3_Default
  6
Continuous
 62
     7
 48
25.4
100
AcDbCircle
 10
387.7825741437
 20
261.4768487689
 30
0.0
 40
3.5
  0
CIRCLE
  5
24E
330
1EF
100
AcDbEntity
  8
DV3_Default
  6
Continuous
 62
     7
 48
25.4
100
AcDbCircle
 10
372.647845022
 20
252.7146482548
 30
0.0
 40
3.5
  0
CIRCLE
  5
24F
330
1EF
100
AcDbEntity
  8
DV3_Default
  6
Continuous
 62
     7
 48
25.4
100
AcDbCircle
 10
387.7825741437
 20
261.4768487689
 30
0.0
 40
3.15
  0
CIRCLE
  5
250
330
1EF
100
AcDbEntity
  8
DV3_Default
  6
Continuous
 62
     7
 48
25.4
100
AcDbCircle
 10
372.647845022
 20
252.7146482548
 30
0.0
 40
3.15
  0
LINE
  5
251
330
1EF
100
AcDbEntity
  8
DV3_Default
  6
Continuous
 62
     7
 48
25.4
100
AcDbLine
 10
361.9675951052
 20
250.1972235992
 30
0.0
 11
361.3550951052
 21
251.2581047188
 31
0.0
  0
LINE
  5
252
330
1EF
100
AcDbEntity
  8
DV3_Default
  6
Continuous
 62
     7
 48
25.4
100
AcDbLine
 10
361.3550951052
 20
251.2581047188
 30
0.0
 11
365.7300951052
 21
243.6803824357
 31
0.0
  0
ARC
  5
253
330
1EF
100
AcDbEntity
  8
DV3_Default
  6
Continuous
 62
     7
 48
25.4
100
AcDbCircle
 10
438.1073823711
 20
290.5192435773
 30
0.0
 40
92.75000000000001
100
AcDbArc
 50
337.0626332958
 51
82.9734801191
  0
ARC
  5
254
330
1EF
100
AcDbEntity
  8
DV3_Default
  6
Continuous
 62
     7
 48
25.4
100
AcDbCircle
 10
438.1073823711
 20
290.5192435773
 30
0.0
 40
51.1
100
AcDbArc
 50
342.8953166613
 51
77.1714110919
  0
ARC
  5
255
330
1EF
100
AcDbEntity
  8
DV3_Default
  6
Continuous
 62
     7
 48
25.4
100
AcDbCircle
 10
438.1073823711
 20
290.5192435773
 30
0.0
 40
42.78750000000001
100
AcDbArc
 50
345.4576868644
 51
74.6229049625
  0
ARC
  5
256
330
1EF
100
AcDbEntity
  8
DV3_Default
  6
Continuous
 62
     7
 48
25.4
100
AcDbCircle
 10
438.1073823711
 20
290.5192435773
 30
0.0
 40
34.47500000000001
100
AcDbArc
 50
349.2146300994
 51
70.7853699006
  0
ARC
  5
257
330
1EF
100
AcDbEntity
  8
DV3_Default
  6
Continuous
 62
     7
 48
25.4
100
AcDbCircle
 10
438.1073823711
 20
290.5192435773
 30
0.0
 40
92.75000000000001
100
AcDbArc
 50
217.0626332958
 51
322.9734801191
  0
ARC
  5
258
330
1EF
100
AcDbEntity
  8
DV3_Default
  6
Continuous
 62
     7
 48
25.4
100
AcDbCircle
 10
438.1073823711
 20
290.5192435773
 30
0.0
 40
34.47500000000001
100
AcDbArc
 50
229.2146300994
 51
310.7853699006
  0
ARC
  5
259
330
1EF
100
AcDbEntity
  8
DV3_Default
  6
Continuous
 62
     7
 48
25.4
100
AcDbCircle
 10
438.1073823711
 20
290.5192435773
 30
0.0
 40
42.78750000000001
100
AcDbArc
 50
225.4576868644
 51
314.6229049625
  0
ARC
  5
25A
330
1EF
100
AcDbEntity
  8
DV3_Default
  6
Continuous
 62
     7
 48
25.4
100
AcDbCircle
 10
438.1073823711
 20
290.5192435773
 30
0.0
 40
51.1
100
AcDbArc
 50
222.8953166613
 51
317.1714110919
  0
LINE
  5
25B
330
1EF
100
AcDbEntity
  8
DV3_Default
  6
CENTER2
 62
     7
 48
25.4
100
AcDbLine
 10
438.1073823711
 20
290.5192435773
 30
0.0
 11
339.5206479061
 21
290.5192435773
 31
0.0
  0
LINE
  5
25C
330
1EF
100
AcDbEntity
  8
DV3_Default
  6
CENTER2
 62
     7
 48
25.4
100
AcDbLine
 10
438.1073823711
 20
290.5192435773
 30
0.0
 11
537.3740253496
 21
290.5192435773
 31
0.0
  0
LINE
  5
25D
330
1EF
100
AcDbEntity
  8
DV3_Default
  6
CENTER2
 62
     7
 48
25.4
100
AcDbLine
 10
438.1073823711
 20
290.5192435773
 30
0.0
 11
523.6552335303
 21
241.1281686819
 31
0.0
  0
LINE
  5
25E
330
1EF
100
AcDbEntity
  8
DV3_Default
  6
CENTER2
 62
     7
 48
25.4
100
AcDbLine
 10
438.1073823711
 20
290.5192435773
 30
0.0
 11
350.7860052454
 21
240.1042229877
 31
0.0
  0
ARC
  5
25F
330
1EF
100
AcDbEntity
  8
DV3_Default
  6
Continuous
 62
     7
 48
25.4
100
AcDbCircle
 10
438.1073823711
 20
290.5192435773
 30
0.0
 40
92.75000000000001
100
AcDbArc
 50
97.0626332958
 51
202.9734801191
  0
ARC
  5
260
330
1EF
100
AcDbEntity
  8
DV3_Default
  6
Continuous
 62
     7
 48
25.4
100
AcDbCircle
 10
438.1073823711
 20
290.5192435773
 30
0.0
 40
51.1
100
AcDbArc
 50
102.8953166613
 51
197.1714110919
  0
ARC
  5
261
330
1EF
100
AcDbEntity
  8
DV3_Default
  6
Continuous
 62
     7
 48
25.4
100
AcDbCircle
 10
438.1073823711
 20
290.5192435773
 30
0.0
 40
42.78750000000001
100
AcDbArc
 50
105.4576868644
 51
194.6229049625
  0
ARC
  5
262
330
1EF
100
AcDbEntity
  8
DV3_Default
  6
Continuous
 62
     7
 48
25.4
100
AcDbCircle
 10
438.1073823711
 20
290.5192435773
 30
0.0
 40
34.47500000000001
100
AcDbArc
 50
109.3167748324
 51
190.7853699006
  0
LINE
  5
263
330
1EF
100
AcDbEntity
  8
DV3_Default
  6
CENTER2
 62
     7
 48
25.4
100
AcDbLine
 10
438.1073823711
 20
290.5192435773
 30
0.0
 11
438.1073823711
 21
393.8442655236
 31
0.0
  0
LINE
  5
264
330
1EF
100
AcDbEntity
  8
DV3_Default
  6
CENTER2
 62
     7
 48
25.4
100
AcDbLine
 10
438.1073823711
 20
290.5192435773
 30
0.0
 11
438.1073823711
 21
190.6017381956
 31
0.0
  0
LINE
  5
265
330
1EF
100
AcDbEntity
  8
DV3_Default
  6
CENTER2
 62
     7
 48
25.4
100
AcDbLine
 10
438.1073823711
 20
262.8692435773
 30
0.0
 11
438.1073823711
 21
258.6692435773
 31
0.0
  0
CIRCLE
  5
266
330
1EF
100
AcDbEntity
  8
DV3_Default
  6
Continuous
 62
     7
 48
25.4
100
AcDbCircle
 10
409.371089039
 20
298.2191101691
 30
0.0
 40
2.275
  0
CIRCLE
  5
267
330
1EF
100
AcDbEntity
  8
DV3_Default
  6
Continuous
 62
     7
 48
25.4
100
AcDbCircle
 10
409.371089039
 20
298.2191101691
 30
0.0
 40
2.45
  0
LINE
  5
268
330
1EF
100
AcDbEntity
  8
DV3_Default
  6
Continuous
 62
     7
 48
25.4
100
AcDbLine
 10
410.3853111566
 20
297.9473501717
 30
0.0
 11
410.1135511592
 21
298.9615722893
 31
0.0
  0
LINE
  5
269
330
1EF
100
AcDbEntity
  8
DV3_Default
  6
Continuous
 62
     7
 48
25.4
100
AcDbLine
 10
410.1135511592
 20
298.9615722893
 30
0.0
 11
409.0993290416
 21
299.2333322867
 31
0.0
  0
LINE
  5
26A
330
1EF
100
AcDbEntity
  8
DV3_Default
  6
Continuous
 62
     7
 48
25.4
100
AcDbLine
 10
409.0993290416
 20
299.2333322867
 30
0.0
 11
408.3568669214
 21
298.4908701664
 31
0.0
  0
LINE
  5
26B
330
1EF
100
AcDbEntity
  8
DV3_Default
  6
Continuous
 62
     7
 48
25.4
100
AcDbLine
 10
408.3568669214
 20
298.4908701664
 30
0.0
 11
408.6286269187
 21
297.4766480488
 31
0.0
  0
LINE
  5
26C
330
1EF
100
AcDbEntity
  8
DV3_Default
  6
Continuous
 62
     7
 48
25.4
100
AcDbLine
 10
408.6286269187
 20
297.4766480488
 30
0.0
 11
409.6428490363
 21
297.2048880515
 31
0.0
  0
LINE
  5
26D
330
1EF
100
AcDbEntity
  8
DV3_Default
  6
Continuous
 62
     7
 48
25.4
100
AcDbLine
 10
409.6428490363
 20
297.2048880515
 30
0.0
 11
410.3853111566
 21
297.9473501717
 31
0.0
  0
LINE
  5
26E
330
1EF
100
AcDbEntity
  8
DV3_Default
  6
CENTER2
 62
     7
 48
25.4
100
AcDbLine
 10
411.3995332742
 20
297.6755901744
 30
0.0
 11
407.3426448038
 21
298.7626301638
 31
0.0
  0
CIRCLE
  5
26F
330
1EF
100
AcDbEntity
  8
DV3_Default
  6
Continuous
 62
     7
 48
25.4
100
AcDbCircle
 10
417.0709556308
 20
311.5556703176
 30
0.0
 40
2.275
  0
CIRCLE
  5
270
330
1EF
100
AcDbEntity
  8
DV3_Default
  6
Continuous
 62
     7
 48
25.4
100
AcDbCircle
 10
417.0709556308
 20
311.5556703176
 30
0.0
 40
2.45
  0
LINE
  5
271
330
1EF
100
AcDbEntity
  8
DV3_Default
  6
Continuous
 62
     7
 48
25.4
100
AcDbLine
 10
417.813417751
 20
310.8132081973
 30
0.0
 11
418.0851777484
 21
311.8274303149
 31
0.0
  0
LINE
  5
272
330
1EF
100
AcDbEntity
  8
DV3_Default
  6
Continuous
 62
     7
 48
25.4
100
AcDbLine
 10
418.0851777484
 20
311.8274303149
 30
0.0
 11
417.3427156281
 21
312.5698924352
 31
0.0
  0
LINE
  5
273
330
1EF
100
AcDbEntity
  8
DV3_Default
  6
Continuous
 62
     7
 48
25.4
100
AcDbLine
 10
417.3427156281
 20
312.5698924352
 30
0.0
 11
416.3284935105
 21
312.2981324378
 31
0.0
  0
LINE
  5
274
330
1EF
100
AcDbEntity
  8
DV3_Default
  6
Continuous
 62
     7
 48
25.4
100
AcDbLine
 10
416.3284935105
 20
312.2981324378
 30
0.0
 11
416.0567335132
 21
311.2839103202
 31
0.0
  0
LINE
  5
275
330
1EF
100
AcDbEntity
  8
DV3_Default
  6
Continuous
 62
     7
 48
25.4
100
AcDbLine
 10
416.0567335132
 20
311.2839103202
 30
0.0
 11
416.7991956334
 21
310.5414482
 31
0.0
  0
LINE
  5
276
330
1EF
100
AcDbEntity
  8
DV3_Default
  6
Continuous
 62
     7
 48
25.4
100
AcDbLine
 10
416.7991956334
 20
310.5414482
 30
0.0
 11
417.813417751
 21
310.8132081973
 31
0.0
  0
LINE
  5
277
330
1EF
100
AcDbEntity
  8
DV3_Default
  6
CENTER2
 62
     7
 48
25.4
100
AcDbLine
 10
418.5558798713
 20
310.0707460771
 30
0.0
 11
415.5860313903
 21
313.0405945581
 31
0.0
  0
CIRCLE
  5
278
330
1EF
100
AcDbEntity
  8
DV3_Default
  6
Continuous
 62
     7
 48
25.4
100
AcDbCircle
 10
466.8436757032
 20
298.2191101691
 30
0.0
 40
2.275
  0
CIRCLE
  5
279
330
1EF
100
AcDbEntity
  8
DV3_Default
  6
Continuous
 62
     7
 48
25.4
100
AcDbCircle
 10
466.8436757032
 20
298.2191101691
 30
0.0
 40
2.45
  0
LINE
  5
27A
330
1EF
100
AcDbEntity
  8
DV3_Default
  6
Continuous
 62
     7
 48
25.4
100
AcDbLine
 10
465.8294535856
 20
297.9473501717
 30
0.0
 11
466.1012135829
 21
298.9615722893
 31
0.0
  0
LINE
  5
27B
330
1EF
100
AcDbEntity
  8
DV3_Default
  6
Continuous
 62
     7
 48
25.4
100
AcDbLine
 10
466.1012135829
 20
298.9615722893
 30
0.0
 11
467.1154357005
 21
299.2333322867
 31
0.0
  0
LINE
  5
27C
330
1EF
100
AcDbEntity
  8
DV3_Default
  6
Continuous
 62
     7
 48
25.4
100
AcDbLine
 10
467.1154357005
 20
299.2333322867
 30
0.0
 11
467.8578978208
 21
298.4908701664
 31
0.0
  0
LINE
  5
27D
330
1EF
100
AcDbEntity
  8
DV3_Default
  6
Continuous
 62
     7
 48
25.4
100
AcDbLine
 10
467.8578978208
 20
298.4908701664
 30
0.0
 11
467.5861378234
 21
297.4766480488
 31
0.0
  0
LINE
  5
27E
330
1EF
100
AcDbEntity
  8
DV3_Default
  6
Continuous
 62
     7
 48
25.4
100
AcDbLine
 10
467.5861378234
 20
297.4766480488
 30
0.0
 11
466.5719157058
 21
297.2048880515
 31
0.0
  0
LINE
  5
27F
330
1EF
100
AcDbEntity
  8
DV3_Default
  6
Continuous
 62
     7
 48
25.4
100
AcDbLine
 10
466.5719157058
 20
297.2048880515
 30
0.0
 11
465.8294535856
 21
297.9473501717
 31
0.0
  0
LINE
  5
280
330
1EF
100
AcDbEntity
  8
DV3_Default
  6
CENTER2
 62
     7
 48
25.4
100
AcDbLine
 10
464.815231468
 20
297.6755901744
 30
0.0
 11
468.8721199384
 21
298.7626301638
 31
0.0
  0
CIRCLE
  5
281
330
1EF
100
AcDbEntity
  8
DV3_Default
  6
Continuous
 62
     7
 48
25.4
100
AcDbCircle
 10
459.1438091114
 20
311.5556703176
 30
0.0
 40
2.275
  0
CIRCLE
  5
282
330
1EF
100
AcDbEntity
  8
DV3_Default
  6
Continuous
 62
     7
 48
25.4
100
AcDbCircle
 10
459.1438091114
 20
311.5556703176
 30
0.0
 40
2.45
  0
LINE
  5
283
330
1EF
100
AcDbEntity
  8
DV3_Default
  6
Continuous
 62
     7
 48
25.4
100
AcDbLine
 10
458.4013469911
 20
310.8132081973
 30
0.0
 11
458.1295869938
 21
311.8274303149
 31
0.0
  0
LINE
  5
284
330
1EF
100
AcDbEntity
  8
DV3_Default
  6
Continuous
 62
     7
 48
25.4
100
AcDbLine
 10
458.1295869938
 20
311.8274303149
 30
0.0
 11
458.872049114
 21
312.5698924352
 31
0.0
  0
LINE
  5
285
330
1EF
100
AcDbEntity
  8
DV3_Default
  6
Continuous
 62
     7
 48
25.4
100
AcDbLine
 10
458.872049114
 20
312.5698924352
 30
0.0
 11
459.8862712316
 21
312.2981324378
 31
0.0
  0
LINE
  5
286
330
1EF
100
AcDbEntity
  8
DV3_Default
  6
Continuous
 62
     7
 48
25.4
100
AcDbLine
 10
459.8862712316
 20
312.2981324378
 30
0.0
 11
460.158031229
 21
311.2839103202
 31
0.0
  0
LINE
  5
287
330
1EF
100
AcDbEntity
  8
DV3_Default
  6
Continuous
 62
     7
 48
25.4
100
AcDbLine
 10
460.158031229
 20
311.2839103202
 30
0.0
 11
459.4155691087
 21
310.5414482
 31
0.0
  0
LINE
  5
288
330
1EF
100
AcDbEntity
  8
DV3_Default
  6
Continuous
 62
     7
 48
25.4
100
AcDbLine
 10
459.4155691087
 20
310.5414482
 30
0.0
 11
458.4013469911
 21
310.8132081973
 31
0.0
  0
LINE
  5
289
330
1EF
100
AcDbEntity
  8
DV3_Default
  6
CENTER2
 62
     7
 48
25.4
100
AcDbLine
 10
457.6588848709
 20
310.0707460771
 30
0.0
 11
460.6287333519
 21
313.0405945581
 31
0.0
  0
ARC
  5
28A
330
1EF
100
AcDbEntity
  8
DV3_Default
  6
CENTER2
 62
     7
 48
25.4
100
AcDbCircle
 10
438.1073823711
 20
290.5192435773
 30
0.0
 40
29.75000000000001
100
AcDbArc
 50
10.9547518939
 51
19.0452481061
  0
ARC
  5
28B
330
1EF
100
AcDbEntity
  8
DV3_Default
  6
CENTER2
 62
     7
 48
25.4
100
AcDbCircle
 10
438.1073823711
 20
290.5192435773
 30
0.0
 40
29.75000000000001
100
AcDbArc
 50
40.9547518939
 51
49.0452481061
  0
ARC
  5
28C
330
1EF
100
AcDbEntity
  8
DV3_Default
  6
CENTER2
 62
     7
 48
25.4
100
AcDbCircle
 10
438.1073823711
 20
290.5192435773
 30
0.0
 40
29.75000000000001
100
AcDbArc
 50
130.9547518939
 51
139.0452481061
  0
ARC
  5
28D
330
1EF
100
AcDbEntity
  8
DV3_Default
  6
CENTER2
 62
     7
 48
25.4
100
AcDbCircle
 10
438.1073823711
 20
290.5192435773
 30
0.0
 40
29.75000000000001
100
AcDbArc
 50
160.9547518939
 51
169.0452481061
  0
CIRCLE
  5
28E
330
1EF
100
AcDbEntity
  8
DV3_Default
  6
Continuous
 62
     7
 48
25.4
100
AcDbCircle
 10
466.9998823711
 20
240.4759656196
 30
0.0
 40
6.300000000000001
  0
CIRCLE
  5
28F
330
1EF
100
AcDbEntity
  8
DV3_Default
  6
Continuous
 62
     7
 48
25.4
100
AcDbCircle
 10
466.9998823711
 20
240.4759656196
 30
0.0
 40
3.85
  0
CIRCLE
  5
290
330
1EF
100
AcDbEntity
  8
DV3_Default
  6
Continuous
 62
     7
 48
25.4
100
AcDbCircle
 10
409.2148823711
 20
240.4759656196
 30
0.0
 40
6.300000000000001
  0
CIRCLE
  5
291
330
1EF
100
AcDbEntity
  8
DV3_Default
  6
Continuous
 62
     7
 48
25.4
100
AcDbCircle
 10
409.2148823711
 20
240.4759656196
 30
0.0
 40
3.85
  0
CIRCLE
  5
292
330
1EF
100
AcDbEntity
  8
DV3_Default
  6
HIDDEN2
 62
     7
 48
25.4
100
AcDbCircle
 10
453.0632408923
 20
234.7032197052
 30
0.0
 40
2.1
  0
CIRCLE
  5
293
330
1EF
100
AcDbEntity
  8
DV3_Default
  6
HIDDEN2
 62
     7
 48
25.4
100
AcDbCircle
 10
453.0632408923
 20
234.7032197052
 30
0.0
 40
1.925
  0
LINE
  5
294
330
1EF
100
AcDbEntity
  8
DV3_Default
  6
CENTER2
 62
     7
 48
25.4
100
AcDbLine
 10
412.5573823711
 20
246.2653454439
 30
0.0
 11
406.0648823711
 21
235.0200055757
 31
0.0
  0
LINE
  5
295
330
1EF
100
AcDbEntity
  8
DV3_Default
  6
CENTER2
 62
     7
 48
25.4
100
AcDbLine
 10
452.5197208976
 20
236.7316639404
 30
0.0
 11
453.6067608871
 21
232.6747754699
 31
0.0
  0
ARC
  5
296
330
1EF
100
AcDbEntity
  8
DV3_Default
  6
CENTER2
 62
     7
 48
25.4
100
AcDbCircle
 10
438.1073823711
 20
290.5192435773
 30
0.0
 40
57.785
100
AcDbArc
 50
282.9176644597
 51
306.2497607299
  0
ARC
  5
297
330
1EF
100
AcDbEntity
  8
DV3_Default
  6
CENTER2
 62
     7
 48
25.4
100
AcDbCircle
 10
438.1073823711
 20
290.5192435773
 30
0.0
 40
57.785
100
AcDbArc
 50
233.7502392701
 51
246.2497607299
  0
CIRCLE
  5
298
330
1EF
100
AcDbEntity
  8
DV3_Default
  6
Continuous
 62
     7
 48
25.4
100
AcDbCircle
 10
445.8072489629
 20
261.7829502452
 30
0.0
 40
2.275
  0
CIRCLE
  5
299
330
1EF
100
AcDbEntity
  8
DV3_Default
  6
Continuous
 62
     7
 48
25.4
100
AcDbCircle
 10
445.8072489629
 20
261.7829502452
 30
0.0
 40
2.45
  0
LINE
  5
29A
330
1EF
100
AcDbEntity
  8
DV3_Default
  6
Continuous
 62
     7
 48
25.4
100
AcDbLine
 10
445.5354889655
 20
262.7971723628
 30
0.0
 11
444.7930268453
 21
262.0547102425
 31
0.0
  0
LINE
  5
29B
330
1EF
100
AcDbEntity
  8
DV3_Default
  6
Continuous
 62
     7
 48
25.4
100
AcDbLine
 10
444.7930268453
 20
262.0547102425
 30
0.0
 11
445.0647868426
 21
261.0404881249
 31
0.0
  0
LINE
  5
29C
330
1EF
100
AcDbEntity
  8
DV3_Default
  6
Continuous
 62
     7
 48
25.4
100
AcDbLine
 10
445.0647868426
 20
261.0404881249
 30
0.0
 11
446.0790089602
 21
260.7687281276
 31
0.0
  0
LINE
  5
29D
330
1EF
100
AcDbEntity
  8
DV3_Default
  6
Continuous
 62
     7
 48
25.4
100
AcDbLine
 10
446.0790089602
 20
260.7687281276
 30
0.0
 11
446.8214710805
 21
261.5111902478
 31
0.0
  0
LINE
  5
29E
330
1EF
100
AcDbEntity
  8
DV3_Default
  6
Continuous
 62
     7
 48
25.4
100
AcDbLine
 10
446.8214710805
 20
261.5111902478
 30
0.0
 11
446.5497110831
 21
262.5254123654
 31
0.0
  0
LINE
  5
29F
330
1EF
100
AcDbEntity
  8
DV3_Default
  6
Continuous
 62
     7
 48
25.4
100
AcDbLine
 10
446.5497110831
 20
262.5254123654
 30
0.0
 11
445.5354889655
 21
262.7971723628
 31
0.0
  0
LINE
  5
2A0
330
1EF
100
AcDbEntity
  8
DV3_Default
  6
CENTER2
 62
     7
 48
25.4
100
AcDbLine
 10
445.2637289682
 20
263.8113944804
 30
0.0
 11
446.3507689576
 21
259.75450601
 31
0.0
  0
CIRCLE
  5
2A1
330
1EF
100
AcDbEntity
  8
DV3_Default
  6
Continuous
 62
     7
 48
25.4
100
AcDbCircle
 10
430.4075157793
 20
261.7829502452
 30
0.0
 40
2.275
  0
CIRCLE
  5
2A2
330
1EF
100
AcDbEntity
  8
DV3_Default
  6
Continuous
 62
     7
 48
25.4
100
AcDbCircle
 10
430.4075157793
 20
261.7829502452
 30
0.0
 40
2.45
  0
LINE
  5
2A3
330
1EF
100
AcDbEntity
  8
DV3_Default
  6
Continuous
 62
     7
 48
25.4
100
AcDbLine
 10
430.6792757766
 20
262.7971723628
 30
0.0
 11
429.665053659
 21
262.5254123654
 31
0.0
  0
LINE
  5
2A4
330
1EF
100
AcDbEntity
  8
DV3_Default
  6
Continuous
 62
     7
 48
25.4
100
AcDbLine
 10
429.665053659
 20
262.5254123654
 30
0.0
 11
429.3932936617
 21
261.5111902478
 31
0.0
  0
LINE
  5
2A5
330
1EF
100
AcDbEntity
  8
DV3_Default
  6
Continuous
 62
     7
 48
25.4
100
AcDbLine
 10
429.3932936617
 20
261.5111902478
 30
0.0
 11
430.1357557819
 21
260.7687281276
 31
0.0
  0
LINE
  5
2A6
330
1EF
100
AcDbEntity
  8
DV3_Default
  6
Continuous
 62
     7
 48
25.4
100
AcDbLine
 10
430.1357557819
 20
260.7687281276
 30
0.0
 11
431.1499778995
 21
261.0404881249
 31
0.0
  0
LINE
  5
2A7
330
1EF
100
AcDbEntity
  8
DV3_Default
  6
Continuous
 62
     7
 48
25.4
100
AcDbLine
 10
431.1499778995
 20
261.0404881249
 30
0.0
 11
431.4217378969
 21
262.0547102425
 31
0.0
  0
LINE
  5
2A8
330
1EF
100
AcDbEntity
  8
DV3_Default
  6
Continuous
 62
     7
 48
25.4
100
AcDbLine
 10
431.4217378969
 20
262.0547102425
 30
0.0
 11
430.6792757766
 21
262.7971723628
 31
0.0
  0
LINE
  5
2A9
330
1EF
100
AcDbEntity
  8
DV3_Default
  6
CENTER2
 62
     7
 48
25.4
100
AcDbLine
 10
430.951035774
 20
263.8113944804
 30
0.0
 11
429.8639957846
 21
259.75450601
 31
0.0
  0
ARC
  5
2AA
330
1EF
100
AcDbEntity
  8
DV3_Default
  6
CENTER2
 62
     7
 48
25.4
100
AcDbCircle
 10
438.1073823711
 20
290.5192435773
 30
0.0
 40
29.75000000000001
100
AcDbArc
 50
250.9547518939
 51
259.0452481061
  0
ARC
  5
2AB
330
1EF
100
AcDbEntity
  8
DV3_Default
  6
CENTER2
 62
     7
 48
25.4
100
AcDbCircle
 10
438.1073823711
 20
290.5192435773
 30
0.0
 40
29.75000000000001
100
AcDbArc
 50
280.9547518939
 51
289.0452481061
  0
LINE
  5
2AC
330
1EF
100
AcDbEntity
  8
DV3_Default
  6
Continuous
 62
     7
 48
25.4
100
AcDbLine
 10
449.4533729588
 20
384.8215624732
 30
0.0
 11
449.4533729588
 21
370.8215624732
 31
0.0
  0
LINE
  5
2AD
330
1EF
100
AcDbEntity
  8
DV3_Default
  6
Continuous
 62
     7
 48
25.4
100
AcDbLine
 10
435.3797756343
 20
372.3965624732
 30
0.0
 11
435.3797756343
 21
369.2465624732
 31
0.0
  0
LINE
  5
2AE
330
1EF
100
AcDbEntity
  8
DV3_Default
  6
Continuous
 62
     7
 48
25.4
100
AcDbLine
 10
440.8357356781
 20
369.2465624732
 30
0.0
 11
440.8357356781
 21
372.3965624732
 31
0.0
  0
LINE
  5
2AF
330
1EF
100
AcDbEntity
  8
DV3_Default
  6
Continuous
 62
     7
 48
25.4
100
AcDbLine
 10
435.3797756343
 20
372.3965624732
 30
0.0
 11
438.1073823711
 21
373.9715624732
 31
0.0
  0
LINE
  5
2B0
330
1EF
100
AcDbEntity
  8
DV3_Default
  6
Continuous
 62
     7
 48
25.4
100
AcDbLine
 10
438.1073823711
 20
373.9715624732
 30
0.0
 11
440.8357356781
 21
372.3965624732
 31
0.0
  0
LINE
  5
2B1
330
1EF
100
AcDbEntity
  8
DV3_Default
  6
Continuous
 62
     7
 48
25.4
100
AcDbLine
 10
435.3797756343
 20
369.2465624732
 30
0.0
 11
438.1073823711
 21
367.6715624732
 31
0.0
  0
LINE
  5
2B2
330
1EF
100
AcDbEntity
  8
DV3_Default
  6
Continuous
 62
     7
 48
25.4
100
AcDbLine
 10
438.1073823711
 20
367.6715624732
 30
0.0
 11
440.8357356781
 21
369.2465624732
 31
0.0
  0
LINE
  5
2B3
330
1EF
100
AcDbEntity
  8
DV3_Default
  6
CENTER2
 62
     7
 48
25.4
100
AcDbLine
 10
430.4862275954
 20
370.8215624732
 30
0.0
 11
446.1634884593
 21
370.8215624732
 31
0.0
  0
LINE
  5
2B4
330
1EF
100
AcDbEntity
  8
DV3_Default
  6
CENTER2
 62
     7
 48
25.4
100
AcDbLine
 10
430.6087061959
 20
349.8301130955
 30
0.0
 11
445.7960526578
 21
349.8301130955
 31
0.0
  0
LINE
  5
2B5
330
1EF
100
AcDbEntity
  8
DV3_Default
  6
Continuous
 62
     7
 48
25.4
100
AcDbLine
 10
435.3797756343
 20
348.2636637145
 30
0.0
 11
435.3797756343
 21
351.4136637145
 31
0.0
  0
LINE
  5
2B6
330
1EF
100
AcDbEntity
  8
DV3_Default
  6
Continuous
 62
     7
 48
25.4
100
AcDbLine
 10
440.8357356781
 20
351.4136637145
 30
0.0
 11
440.8357356781
 21
348.2636637145
 31
0.0
  0
LINE
  5
2B7
330
1EF
100
AcDbEntity
  8
DV3_Default
  6
Continuous
 62
     7
 48
25.4
100
AcDbLine
 10
435.3797756343
 20
348.2636637145
 30
0.0
 11
438.1073823711
 21
346.6886637145
 31
0.0
  0
LINE
  5
2B8
330
1EF
100
AcDbEntity
  8
DV3_Default
  6
Continuous
 62
     7
 48
25.4
100
AcDbLine
 10
438.1073823711
 20
346.6886637145
 30
0.0
 11
440.8357356781
 21
348.2636637145
 31
0.0
  0
LINE
  5
2B9
330
1EF
100
AcDbEntity
  8
DV3_Default
  6
Continuous
 62
     7
 48
25.4
100
AcDbLine
 10
435.3797756343
 20
351.4136637145
 30
0.0
 11
438.1073823711
 21
352.9886637145
 31
0.0
  0
LINE
  5
2BA
330
1EF
100
AcDbEntity
  8
DV3_Default
  6
Continuous
 62
     7
 48
25.4
100
AcDbLine
 10
438.1073823711
 20
352.9886637145
 30
0.0
 11
440.8357356781
 21
351.4136637145
 31
0.0
  0
LINE
  5
2BB
330
1EF
100
AcDbEntity
  8
DV3_Default
  6
CENTER2
 62
     7
 48
25.4
100
AcDbLine
 10
385.0566943995
 20
266.1906914419
 30
0.0
 11
390.3199092862
 21
257.0745358469
 31
0.0
  0
LINE
  5
2BC
330
1EF
100
AcDbEntity
  8
DV3_Default
  6
CENTER2
 62
     7
 48
25.4
100
AcDbLine
 10
369.9197748387
 20
257.4398044188
 30
0.0
 11
375.139184569
 21
248.3995215804
 31
0.0
  0
LINE
  5
2BD
330
1EF
100
AcDbEntity
  8
DV3_Default
  6
CENTER2
 62
     7
 48
25.4
100
AcDbLine
 10
491.1317475776
 20
266.1300599968
 30
0.0
 11
485.8685326909
 21
257.0139044018
 31
0.0
  0
LINE
  5
2BE
330
1EF
100
AcDbEntity
  8
DV3_Default
  6
CENTER2
 62
     7
 48
25.4
100
AcDbLine
 10
506.2742965742
 20
257.4201226701
 30
0.0
 11
501.0548868439
 21
248.3798398318
 31
0.0
  0
ENDBLK
  5
2C0
330
1EF
100
AcDbEntity
  8
0
100
AcDbBlockEnd
  0
BLOCK
  5
2CB
330
2C1
100
AcDbEntity
  8
0
100
AcDbBlockBegin
  2
GDimGGroup
 70
     0
 71
     0
 10
0.0
 20
0.0
 30
0.0
  3
GDimGGroup
  1

  0
HATCH
  5
2C3
330
2C1
100
AcDbEntity
  8
Default
  6
Continuous
 62
     7
 48
25.4
100
AcDbHatch
 10
0.0
 20
0.0
 30
0.0
210
0.0
220
0.0
230
1.0
  2
SOLID
 70
     1
 71
     0
 91
        1
 92
        1
 93
        3
 72
     1
 10
246.7673831209442
 20
117.3952885585786
 11
245.434049724281
 21
117.3952885585786
 72
     1
 10
245.434049724281
 20
117.3952885585786
 11
246.1007164226126
 21
113.3952883685888
 72
     1
 10
246.1007164226126
 20
113.3952883685888
 11
246.7673831209442
 21
117.3952885585786
 97
        0
 75
     0
 76
     1
 98
        0
  0
LWPOLYLINE
  5
2C4
330
2C1
100
AcDbEntity
  8
Default
  6
Continuous
 62
     7
 48
25.4
370
    20
100
AcDbPolyline
 90
        4
 70
     1
 43
0.00025
 10
246.7673831209
 20
117.3952885586
 10
246.1007164226
 20
113.3952883686
 10
245.4340497243
 20
117.3952885586
 10
246.7673831209
 20
117.3952885586
  0
HATCH
  5
2C5
330
2C1
100
AcDbEntity
  8
Default
  6
Continuous
 62
     7
 48
25.4
100
AcDbHatch
 10
0.0
 20
0.0
 30
0.0
210
0.0
220
0.0
230
1.0
  2
SOLID
 70
     1
 71
     0
 91
        1
 92
        1
 93
        3
 72
     1
 10
246.7673831209442
 20
148.3952889832617
 11
246.1007164226126
 21
152.3952891732515
 72
     1
 10
246.1007164226126
 20
152.3952891732515
 11
245.434049724281
 21
148.3952889832617
 72
     1
 10
245.434049724281
 20
148.3952889832617
 11
246.7673831209442
 21
148.3952889832617
 97
        0
 75
     0
 76
     1
 98
        0
  0
LWPOLYLINE
  5
2C6
330
2C1
100
AcDbEntity
  8
Default
  6
Continuous
 62
     7
 48
25.4
370
    20
100
AcDbPolyline
 90
        4
 70
     1
 43
0.00025
 10
246.7673831209
 20
148.3952889833
 10
246.1007164226
 20
152.3952891733
 10
245.4340497243
 20
148.3952889833
 10
246.7673831209
 20
148.3952889833
  0
LINE
  5
2C7
330
2C1
100
AcDbEntity
  8
Default
  6
Continuous
 62
     7
 48
25.4
100
AcDbLine
 10
212.7969806449
 20
113.3952883686
 30
0.0
 11
248.1007165176
 21
113.3952883686
 31
0.0
  0
LINE
  5
2C8
330
2C1
100
AcDbEntity
  8
Default
  6
Continuous
 62
     7
 48
25.4
100
AcDbLine
 10
212.7969806449
 20
152.3952883686
 30
0.0
 11
248.1007165176
 21
152.3952883686
 31
0.0
  0
LINE
  5
2C9
330
2C1
100
AcDbEntity
  8
Default
  6
Continuous
 62
     7
 48
25.4
100
AcDbLine
 10
246.1007164226
 20
113.3952883686
 30
0.0
 11
246.1007164226
 21
152.3952891733
 31
0.0
  0
TEXT
  5
2CA
330
2C1
100
AcDbEntity
  8
Default
  6
Continuous
 62
     7
 48
25.4
100
AcDbText
 10
245.1007164226
 20
129.7648539883
 30
0.0
 40
4.0
  1
65
 50
90.0
  7
SEACAD_arial_ttf
 11
241.1007164226
 21
129.7648539883
 31
0.0
100
AcDbText
 73
     3
  0
ENDBLK
  5
2CC
330
2C1
100
AcDbEntity
  8
0
100
AcDbBlockEnd
  0
BLOCK
  5
2D8
330
2CD
100
AcDbEntity
  8
0
100
AcDbBlockBegin
  2
GDimGGroup1
 70
     0
 71
     0
 10
0.0
 20
0.0
 30
0.0
  3
GDimGGroup1
  1

  0
HATCH
  5
2CF
330
2CD
100
AcDbEntity
  8
Default
  6
Continuous
 62
     7
 48
25.4
100
AcDbHatch
 10
0.0
 20
0.0
 30
0.0
210
0.0
220
0.0
230
1.0
  2
SOLID
 70
     1
 71
     0
 91
        1
 92
        1
 93
        3
 72
     1
 10
231.7458730360106
 20
129.3952885585786
 11
230.4125396393473
 21
129.3952885585786
 72
     1
 10
230.4125396393473
 20
129.3952885585786
 11
231.079206337679
 21
125.3952883685888
 72
     1
 10
231.079206337679
 20
125.3952883685888
 11
231.7458730360106
 21
129.3952885585786
 97
        0
 75
     0
 76
     1
 98
        0
  0
LWPOLYLINE
  5
2D0
330
2CD
100
AcDbEntity
  8
Default
  6
Continuous
 62
     7
 48
25.4
370
    20
100
AcDbPolyline
 90
        4
 70
     1
 43
0.00025
 10
231.745873036
 20
129.3952885586
 10
231.0792063377
 20
125.3952883686
 10
230.4125396393
 20
129.3952885586
 10
231.745873036
 20
129.3952885586
  0
HATCH
  5
2D1
330
2CD
100
AcDbEntity
  8
Default
  6
Continuous
 62
     7
 48
25.4
100
AcDbHatch
 10
0.0
 20
0.0
 30
0.0
210
0.0
220
0.0
230
1.0
  2
SOLID
 70
     1
 71
     0
 91
        1
 92
        1
 93
        3
 72
     1
 10
231.7458730360106
 20
136.3952878433229
 11
231.079206337679
 21
140.3952880333127
 72
     1
 10
231.079206337679
 20
140.3952880333127
 11
230.4125396393473
 21
136.3952878433229
 72
     1
 10
230.4125396393473
 20
136.3952878433229
 11
231.7458730360106
 21
136.3952878433229
 97
        0
 75
     0
 76
     1
 98
        0
  0
LWPOLYLINE
  5
2D2
330
2CD
100
AcDbEntity
  8
Default
  6
Continuous
 62
     7
 48
25.4
370
    20
100
AcDbPolyline
 90
        4
 70
     1
 43
0.00025
 10
231.745873036
 20
136.3952878433
 10
231.0792063377
 20
140.3952880333
 10
230.4125396393
 20
136.3952878433
 10
231.745873036
 20
136.3952878433
  0
LINE
  5
2D3
330
2CD
100
AcDbEntity
  8
Default
  6
Continuous
 62
     7
 48
25.4
100
AcDbLine
 10
212.7969809822
 20
125.3952883686
 30
0.0
 11
233.0792064327
 21
125.3952883686
 31
0.0
  0
LINE
  5
2D4
330
2CD
100
AcDbEntity
  8
Default
  6
Continuous
 62
     7
 48
25.4
100
AcDbLine
 10
212.7969809822
 20
140.3952883686
 30
0.0
 11
233.0792064327
 21
140.3952883686
 31
0.0
  0
LINE
  5
2D5
330
2CD
100
AcDbEntity
  8
Default
  6
Continuous
 62
     7
 48
25.4
100
AcDbLine
 10
231.0792063377
 20
85.6363863255
 30
0.0
 11
231.0792063377
 21
140.3952880333
 31
0.0
  0
TEXT
  5
2D6
330
2CD
100
AcDbEntity
  8
Default
  6
Continuous
 62
     7
 48
25.4
100
AcDbText
 10
230.0792063377
 20
87.0363863958
 30
0.0
 40
4.0
  1
25
 50
90.0
  7
SEACAD_arial_ttf
 11
226.0792063377
 21
87.0363863958
 31
0.0
100
AcDbText
 73
     3
  0
TEXT
  5
2D7
330
2CD
100
AcDbEntity
  8
Default
  6
Continuous
 62
     7
 48
25.4
100
AcDbText
 10
230.0792063377
 20
95.6972559611
 30
0.0
 40
4.0
  1
H8/h8
 50
90.0
  7
SEACAD_arial_ttf
 11
226.0792063377
 21
95.6972559611
 31
0.0
100
AcDbText
 73
     3
  0
ENDBLK
  5
2D9
330
2CD
100
AcDbEntity
  8
0
100
AcDbBlockEnd
  0
BLOCK
  5
2E3
330
2DA
100
AcDbEntity
  8
0
100
AcDbBlockBegin
  2
GDimGGroup2
 70
     0
 71
     0
 10
0.0
 20
0.0
 30
0.0
  3
GDimGGroup2
  1

  0
HATCH
  5
2DC
330
2DA
100
AcDbEntity
  8
Default
  6
Continuous
 62
     7
 48
25.4
100
AcDbHatch
 10
0.0
 20
0.0
 30
0.0
210
0.0
220
0.0
230
1.0
  2
SOLID
 70
     1
 71
     0
 91
        1
 92
        1
 93
        3
 72
     1
 10
206.3969807921832
 20
163.0424995148193
 11
206.3969807921832
 21
161.7091661181561
 72
     1
 10
206.3969807921832
 20
161.7091661181561
 11
210.396980982173
 21
162.3758328164877
 72
     1
 10
210.396980982173
 20
162.3758328164877
 11
206.3969807921832
 21
163.0424995148193
 97
        0
 75
     0
 76
     1
 98
        0
  0
LWPOLYLINE
  5
2DD
330
2DA
100
AcDbEntity
  8
Default
  6
Continuous
 62
     7
 48
25.4
370
    20
100
AcDbPolyline
 90
        4
 70
     1
 43
0.00025
 10
206.3969807922
 20
163.0424995148
 10
210.3969809822
 20
162.3758328165
 10
206.3969807922
 20
161.7091661182
 10
206.3969807922
 20
163.0424995148
  0
HATCH
  5
2DE
330
2DA
100
AcDbEntity
  8
Default
  6
Continuous
 62
     7
 48
25.4
100
AcDbHatch
 10
0.0
 20
0.0
 30
0.0
210
0.0
220
0.0
230
1.0
  2
SOLID
 70
     1
 71
     0
 91
        1
 92
        1
 93
        3
 72
     1
 10
217.3969811721628
 20
163.0424995148193
 11
213.396980982173
 21
162.3758328164877
 72
     1
 10
213.396980982173
 20
162.3758328164877
 11
217.3969811721628
 21
161.7091661181561
 72
     1
 10
217.3969811721628
 20
161.7091661181561
 11
217.3969811721628
 21
163.0424995148193
 97
        0
 75
     0
 76
     1
 98
        0
  0
LWPOLYLINE
  5
2DF
330
2DA
100
AcDbEntity
  8
Default
  6
Continuous
 62
     7
 48
25.4
370
    20
100
AcDbPolyline
 90
        4
 70
     1
 43
0.00025
 10
217.3969811722
 20
163.0424995148
 10
213.3969809822
 20
162.3758328165
 10
217.3969811722
 20
161.7091661182
 10
217.3969811722
 20
163.0424995148
  0
LINE
  5
2E0
330
2DA
100
AcDbEntity
  8
Default
  6
Continuous
 62
     7
 48
25.4
100
AcDbLine
 10
213.3969809822
 20
140.9952883686
 30
0.0
 11
213.3969809822
 21
164.3758329115
 31
0.0
  0
LINE
  5
2E1
330
2DA
100
AcDbEntity
  8
Default
  6
Continuous
 62
     7
 48
25.4
100
AcDbLine
 10
199.799976427
 20
162.3758328165
 30
0.0
 11
221.3969809226
 21
162.3758328165
 31
0.0
  0
TEXT
  5
2E2
330
2DA
100
AcDbEntity
  8
Default
  6
Continuous
 62
     7
 48
25.4
100
AcDbText
 10
201.1999760912
 20
163.3758328165
 30
0.0
 40
4.0
  1
5
  7
SEACAD_arial_ttf
 11
201.1999760912
 21
167.3758328165
 31
0.0
100
AcDbText
 73
     3
  0
ENDBLK
  5
2E4
330
2DA
100
AcDbEntity
  8
0
100
AcDbBlockEnd
  0
BLOCK
  5
2EF
330
2E5
100
AcDbEntity
  8
0
100
AcDbBlockBegin
  2
GDimGGroup3
 70
     0
 71
     0
 10
0.0
 20
0.0
 30
0.0
  3
GDimGGroup3
  1

  0
HATCH
  5
2E7
330
2E5
100
AcDbEntity
  8
Default
  6
Continuous
 62
     7
 48
25.4
100
AcDbHatch
 10
0.0
 20
0.0
 30
0.0
210
0.0
220
0.0
230
1.0
  2
SOLID
 70
     1
 71
     0
 91
        1
 92
        1
 93
        3
 72
     1
 10
220.9969811721628
 20
163.0424996191275
 11
216.996980982173
 21
162.3758329207958
 72
     1
 10
216.996980982173
 20
162.3758329207958
 11
220.9969811721628
 21
161.7091662224642
 72
     1
 10
220.9969811721628
 20
161.7091662224642
 11
220.9969811721628
 21
163.0424996191275
 97
        0
 75
     0
 76
     1
 98
        0
  0
LWPOLYLINE
  5
2E8
330
2E5
100
AcDbEntity
  8
Default
  6
Continuous
 62
     7
 48
25.4
370
    20
100
AcDbPolyline
 90
        4
 70
     1
 43
0.00025
 10
220.9969811722
 20
163.0424996191
 10
216.9969809822
 20
162.3758329208
 10
220.9969811722
 20
161.7091662225
 10
220.9969811722
 20
163.0424996191
  0
HATCH
  5
2E9
330
2E5
100
AcDbEntity
  8
Default
  6
Continuous
 62
     7
 48
25.4
100
AcDbHatch
 10
0.0
 20
0.0
 30
0.0
210
0.0
220
0.0
230
1.0
  2
SOLID
 70
     1
 71
     0
 91
        1
 92
        1
 93
        3
 72
     1
 10
209.3969807921832
 20
163.0424996191275
 11
209.3969807921832
 21
161.7091662224642
 72
     1
 10
209.3969807921832
 20
161.7091662224642
 11
213.396980982173
 21
162.3758329207958
 72
     1
 10
213.396980982173
 20
162.3758329207958
 11
209.3969807921832
 21
163.0424996191275
 97
        0
 75
     0
 76
     1
 98
        0
  0
LWPOLYLINE
  5
2EA
330
2E5
100
AcDbEntity
  8
Default
  6
Continuous
 62
     7
 48
25.4
370
    20
100
AcDbPolyline
 90
        4
 70
     1
 43
0.00025
 10
209.3969807922
 20
163.0424996191
 10
213.3969809822
 20
162.3758329208
 10
209.3969807922
 20
161.7091662225
 10
209.3969807922
 20
163.0424996191
  0
LINE
  5
2EB
330
2E5
100
AcDbEntity
  8
Default
  6
Continuous
 62
     7
 48
25.4
100
AcDbLine
 10
216.9969809822
 20
140.3952883686
 30
0.0
 11
216.9969809822
 21
164.3758330158
 31
0.0
  0
LINE
  5
2EC
330
2E5
100
AcDbEntity
  8
Default
  6
Continuous
 62
     7
 48
25.4
100
AcDbLine
 10
213.3969809822
 20
151.7952883686
 30
0.0
 11
213.3969809822
 21
164.3758330158
 31
0.0
  0
LINE
  5
2ED
330
2E5
100
AcDbEntity
  8
Default
  6
Continuous
 62
     7
 48
25.4
100
AcDbLine
 10
226.3068167142
 20
162.3758329208
 30
0.0
 11
205.3969811297
 21
162.3758329208
 31
0.0
  0
TEXT
  5
2EE
330
2E5
100
AcDbEntity
  8
Default
  6
Continuous
 62
     7
 48
25.4
100
AcDbText
 10
221.7763820345
 20
163.3758329208
 30
0.0
 40
4.0
  1
6
  7
SEACAD_arial_ttf
 11
221.7763820345
 21
167.3758329208
 31
0.0
100
AcDbText
 73
     3
  0
ENDBLK
  5
2F0
330
2E5
100
AcDbEntity
  8
0
100
AcDbBlockEnd
  0
BLOCK
  5
2FB
330
2F1
100
AcDbEntity
  8
0
100
AcDbBlockBegin
  2
GDimGGroup4
 70
     0
 71
     0
 10
0.0
 20
0.0
 30
0.0
  3
GDimGGroup4
  1

  0
HATCH
  5
2F3
330
2F1
100
AcDbEntity
  8
Default
  6
Continuous
 62
     7
 48
25.4
100
AcDbHatch
 10
0.0
 20
0.0
 30
0.0
210
0.0
220
0.0
230
1.0
  2
SOLID
 70
     1
 71
     0
 91
        1
 92
        1
 93
        3
 72
     1
 10
486.0825376981488
 20
381.5874210049955
 11
489.9067281326245
 21
380.2383422350761
 72
     1
 10
489.9067281326245
 20
380.2383422350761
 11
486.7267897551213
 21
382.754775806992
 72
     1
 10
486.7267897551212
 20
382.754775806992
 11
486.0825376981487
 21
381.5874210049955
 97
        0
 75
     0
 76
     1
 98
        0
  0
LWPOLYLINE
  5
2F4
330
2F1
100
AcDbEntity
  8
Default
  6
Continuous
 62
     7
 48
25.4
370
    20
100
AcDbPolyline
 90
        4
 70
     1
 43
0.00025
 10
486.0825376981
 20
381.587421005
 10
489.9067281326
 20
380.2383422351
 10
486.7267897551
 20
382.754775807
 10
486.0825376981
 20
381.587421005
  0
HATCH
  5
2F5
330
2F1
100
AcDbEntity
  8
Default
  6
Continuous
 62
     7
 48
25.4
100
AcDbHatch
 10
0.0
 20
0.0
 30
0.0
210
0.0
220
0.0
230
1.0
  2
SOLID
 70
     1
 71
     0
 91
        1
 92
        1
 93
        3
 72
     1
 10
442.1195050569044
 20
394.7072613665838
 11
438.107380861606
 21
394.1179351003406
 72
     1
 10
438.107380861606
 20
394.1179351003406
 11
442.0937663218861
 21
393.3741764239874
 72
     1
 10
442.0937663218861
 20
393.3741764239874
 11
442.1195050569044
 21
394.7072613665838
 97
        0
 75
     0
 76
     1
 98
        0
  0
LWPOLYLINE
  5
2F6
330
2F1
100
AcDbEntity
  8
Default
  6
Continuous
 62
     7
 48
25.4
370
    20
100
AcDbPolyline
 90
        4
 70
     1
 43
0.00025
 10
442.1195050569
 20
394.7072613666
 10
438.1073808616
 20
394.1179351003
 10
442.0937663219
 20
393.374176424
 10
442.1195050569
 20
394.7072613666
  0
LINE
  5
2F7
330
2F1
100
AcDbEntity
  8
Default
  6
Continuous
 62
     7
 48
25.4
100
AcDbLine
 10
466.9998826971
 20
340.5625220997
 30
0.0
 11
490.9067264339
 21
381.9703901004
 31
0.0
  0
LINE
  5
2F8
330
2F1
100
AcDbEntity
  8
Default
  6
Continuous
 62
     7
 48
25.4
100
AcDbLine
 10
438.1073823711
 20
290.5192435773
 30
0.0
 11
438.1073823711
 21
396.1179317029
 31
0.0
  0
ARC
  5
2F9
330
2F1
100
AcDbEntity
  8
Default
  6
Continuous
 62
     7
 48
25.4
100
AcDbCircle
 10
438.1073823711
 20
290.5192435773
 30
0.0
 40
103.5986915230765
100
AcDbArc
 50
60.0
 51
90.0000008348
  0
TEXT
  5
2FA
330
2F1
100
AcDbEntity
  8
Default
  6
Continuous
 62
     7
 48
25.4
100
AcDbText
 10
461.0638318746
 20
392.6566153076
 30
0.0
 40
4.0
  1
30°
 50
345.0
  7
SEACAD_arial_ttf
 11
462.099108055
 21
396.5203186128
 31
0.0
100
AcDbText
 73
     3
  0
ENDBLK
  5
2FC
330
2F1
100
AcDbEntity
  8
0
100
AcDbBlockEnd
  0
BLOCK
  5
307
330
2FD
100
AcDbEntity
  8
0
100
AcDbBlockBegin
  2
GDimGGroup5
 70
     0
 71
     0
 10
0.0
 20
0.0
 30
0.0
  3
GDimGGroup5
  1

  0
HATCH
  5
2FF
330
2FD
100
AcDbEntity
  8
Default
  6
Continuous
 62
     7
 48
25.4
100
AcDbHatch
 10
0.0
 20
0.0
 30
0.0
210
0.0
220
0.0
230
1.0
  2
SOLID
 70
     1
 71
     0
 91
        1
 92
        1
 93
        3
 72
     1
 10
508.0180026427975
 20
366.0674642173898
 11
511.3627196691066
 21
363.7745808752852
 72
     1
 10
511.3627196691066
 20
363.7745808752852
 11
508.9424359984157
 21
367.0282976668898
 72
     1
 10
508.9424359984157
 20
367.0282976668898
 11
508.0180026427975
 21
366.0674642173898
 97
        0
 75
     0
 76
     1
 98
        0
  0
LWPOLYLINE
  5
300
330
2FD
100
AcDbEntity
  8
Default
  6
Continuous
 62
     7
 48
25.4
370
    20
100
AcDbPolyline
 90
        4
 70
     1
 43
0.00025
 10
508.0180026428
 20
366.0674642174
 10
511.3627196691
 20
363.7745808753
 10
508.9424359984
 20
367.0282976669
 10
508.0180026428
 20
366.0674642174
  0
HATCH
  5
301
330
2FD
100
AcDbEntity
  8
Default
  6
Continuous
 62
     7
 48
25.4
100
AcDbHatch
 10
0.0
 20
0.0
 30
0.0
210
0.0
220
0.0
230
1.0
  2
SOLID
 70
     1
 71
     0
 91
        1
 92
        1
 93
        3
 72
     1
 10
493.6759920774918
 20
378.7426520050212
 11
489.9067274790001
 21
380.2383426124463
 72
     1
 10
489.9067274790001
 20
380.2383426124463
 11
492.9871591994896
 21
377.6010359518576
 72
     1
 10
492.9871591994896
 20
377.6010359518576
 11
493.6759920774918
 21
378.7426520050212
 97
        0
 75
     0
 76
     1
 98
        0
  0
LWPOLYLINE
  5
302
330
2FD
100
AcDbEntity
  8
Default
  6
Continuous
 62
     7
 48
25.4
370
    20
100
AcDbPolyline
 90
        4
 70
     1
 43
0.00025
 10
493.6759920775
 20
378.742652005
 10
489.906727479
 20
380.2383426124
 10
492.9871591995
 20
377.6010359519
 10
493.6759920775
 20
378.742652005
  0
LINE
  5
303
330
2FD
100
AcDbEntity
  8
Default
  6
Continuous
 62
     7
 48
25.4
100
AcDbLine
 10
478.967548183
 20
331.3794093892
 30
0.0
 11
512.7769308291
 21
365.1887920353
 31
0.0
  0
LINE
  5
304
330
2FD
100
AcDbEntity
  8
Default
  6
Continuous
 62
     7
 48
25.4
100
AcDbLine
 10
466.9998826971
 20
340.5625220997
 30
0.0
 11
490.9067264339
 21
381.9703901004
 31
0.0
  0
ARC
  5
305
330
2FD
100
AcDbEntity
  8
Default
  6
Continuous
 62
     7
 48
25.4
100
AcDbCircle
 10
438.1073823711
 20
290.5192435773
 30
0.0
 40
103.5986915230787
100
AcDbArc
 50
45.0
 51
60.0000004174
  0
TEXT
  5
306
330
2FD
100
AcDbEntity
  8
Default
  6
Continuous
 62
     7
 48
25.4
100
AcDbText
 10
498.402656193
 20
376.0968179325
 30
0.0
 40
4.0
  1
15°
 50
322.5
  7
SEACAD_arial_ttf
 11
500.837701909
 21
379.2702312937
 31
0.0
100
AcDbText
 73
     3
  0
ENDBLK
  5
308
330
2FD
100
AcDbEntity
  8
0
100
AcDbBlockEnd
  0
BLOCK
  5
313
330
309
100
AcDbEntity
  8
0
100
AcDbBlockBegin
  2
GDimGGroup6
 70
     0
 71
     0
 10
0.0
 20
0.0
 30
0.0
  3
GDimGGroup6
  1

  0
HATCH
  5
30B
330
309
100
AcDbEntity
  8
Default
  6
Continuous
 62
     7
 48
25.4
100
AcDbHatch
 10
0.0
 20
0.0
 30
0.0
210
0.0
220
0.0
230
1.0
  2
SOLID
 70
     1
 71
     0
 91
        1
 92
        1
 93
        3
 72
     1
 10
536.4258658407779
 20
320.9906117264696
 11
538.1760340829795
 21
317.3325579911382
 72
     1
 10
538.1760340829795
 20
317.3325579911382
 11
537.706865335599
 21
321.3605012247332
 72
     1
 10
537.706865335599
 20
321.3605012247332
 11
536.4258658407779
 21
320.9906117264696
 97
        0
 75
     0
 76
     1
 98
        0
  0
LWPOLYLINE
  5
30C
330
309
100
AcDbEntity
  8
Default
  6
Continuous
 62
     7
 48
25.4
370
    20
100
AcDbPolyline
 90
        4
 70
     1
 43
0.00025
 10
536.4258658408
 20
320.9906117265
 10
538.176034083
 20
317.3325579911
 10
537.7068653356
 20
321.3605012247
 10
536.4258658408
 20
320.9906117265
  0
HATCH
  5
30D
330
309
100
AcDbEntity
  8
Default
  6
Continuous
 62
     7
 48
25.4
100
AcDbHatch
 10
0.0
 20
0.0
 30
0.0
210
0.0
220
0.0
230
1.0
  2
SOLID
 70
     1
 71
     0
 91
        1
 92
        1
 93
        3
 72
     1
 10
514.6164354263926
 20
361.3542983163831
 11
511.3627186017426
 21
363.7745819426493
 72
     1
 10
511.3627186017425
 20
363.7745819426493
 11
513.6556019895144
 21
360.4298649476461
 72
     1
 10
513.6556019895144
 20
360.4298649476461
 11
514.6164354263926
 21
361.3542983163831
 97
        0
 75
     0
 76
     1
 98
        0
  0
LWPOLYLINE
  5
30E
330
309
100
AcDbEntity
  8
Default
  6
Continuous
 62
     7
 48
25.4
370
    20
100
AcDbPolyline
 90
        4
 70
     1
 43
0.00025
 10
514.6164354264
 20
361.3542983164
 10
511.3627186017
 20
363.7745819426
 10
513.6556019895
 20
360.4298649476
 10
514.6164354264
 20
361.3542983164
  0
LINE
  5
30F
330
309
100
AcDbEntity
  8
Default
  6
Continuous
 62
     7
 48
25.4
100
AcDbLine
 10
466.8436763653
 20
298.2191103465
 30
0.0
 11
540.1078824539
 21
317.850195202
 31
0.0
  0
LINE
  5
310
330
309
100
AcDbEntity
  8
Default
  6
Continuous
 62
     7
 48
25.4
100
AcDbLine
 10
478.967548183
 20
331.3794093892
 30
0.0
 11
512.7769308291
 21
365.1887920353
 31
0.0
  0
ARC
  5
311
330
309
100
AcDbEntity
  8
Default
  6
Continuous
 62
     7
 48
25.4
100
AcDbCircle
 10
438.1073823711
 20
290.5192435773
 30
0.0
 40
103.598691523075
100
AcDbArc
 50
15.0
 51
45.0000008348
  0
TEXT
  5
312
330
309
100
AcDbEntity
  8
Default
  6
Continuous
 62
     7
 48
25.4
100
AcDbText
 10
526.5620716501
 20
346.5086106245
 30
0.0
 40
4.0
  1
30°
 50
300.0
  7
SEACAD_arial_ttf
 11
530.0261732652
 21
348.5086106245
 31
0.0
100
AcDbText
 73
     3
  0
ENDBLK
  5
314
330
309
100
AcDbEntity
  8
0
100
AcDbBlockEnd
  0
BLOCK
  5
31F
330
315
100
AcDbEntity
  8
0
100
AcDbBlockBegin
  2
GDimGGroup7
 70
     0
 71
     0
 10
0.0
 20
0.0
 30
0.0
  3
GDimGGroup7
  1

  0
HATCH
  5
317
330
315
100
AcDbEntity
  8
Default
  6
Continuous
 62
     7
 48
25.4
100
AcDbHatch
 10
0.0
 20
0.0
 30
0.0
210
0.0
220
0.0
230
1.0
  2
SOLID
 70
     1
 71
     0
 91
        1
 92
        1
 93
        3
 72
     1
 10
540.9623151633806
 20
294.5056290273905
 11
541.7060738941621
 21
290.5192435772654
 72
     1
 10
541.7060738941621
 20
290.5192435772654
 11
542.2954001056256
 21
294.5313677806102
 72
     1
 10
542.2954001056256
 20
294.5313677806102
 11
540.9623151633806
 21
294.5056290273906
 97
        0
 75
     0
 76
     1
 98
        0
  0
LWPOLYLINE
  5
318
330
315
100
AcDbEntity
  8
Default
  6
Continuous
 62
     7
 48
25.4
370
    20
100
AcDbPolyline
 90
        4
 70
     1
 43
0.00025
 10
540.9623151634
 20
294.5056290274
 10
541.7060738942
 20
290.5192435773
 10
542.2954001056
 20
294.5313677806
 10
540.9623151634
 20
294.5056290274
  0
HATCH
  5
319
330
315
100
AcDbEntity
  8
Default
  6
Continuous
 62
     7
 48
25.4
100
AcDbHatch
 10
0.0
 20
0.0
 30
0.0
210
0.0
220
0.0
230
1.0
  2
SOLID
 70
     1
 71
     0
 91
        1
 92
        1
 93
        3
 72
     1
 10
539.7836934742509
 20
313.6096731914143
 11
538.1760338876384
 21
317.3325587201616
 72
     1
 10
538.1760338876384
 20
317.3325587201616
 11
538.4893706224079
 21
313.2895071378507
 72
     1
 10
538.4893706224078
 20
313.2895071378507
 11
539.7836934742508
 21
313.6096731914143
 97
        0
 75
     0
 76
     1
 98
        0
  0
LWPOLYLINE
  5
31A
330
315
100
AcDbEntity
  8
Default
  6
Continuous
 62
     7
 48
25.4
370
    20
100
AcDbPolyline
 90
        4
 70
     1
 43
0.00025
 10
539.7836934743
 20
313.6096731914
 10
538.1760338876
 20
317.3325587202
 10
538.4893706224
 20
313.2895071379
 10
539.7836934743
 20
313.6096731914
  0
LINE
  5
31B
330
315
100
AcDbEntity
  8
Default
  6
Continuous
 62
     7
 48
25.4
100
AcDbLine
 10
495.8923830232
 20
290.5192435773
 30
0.0
 11
543.7060704967
 21
290.5192435773
 31
0.0
  0
LINE
  5
31C
330
315
100
AcDbEntity
  8
Default
  6
Continuous
 62
     7
 48
25.4
100
AcDbLine
 10
466.8436763653
 20
298.2191103465
 30
0.0
 11
540.1078824539
 21
317.850195202
 31
0.0
  0
ARC
  5
31D
330
315
100
AcDbEntity
  8
Default
  6
Continuous
 62
     7
 48
25.4
100
AcDbCircle
 10
438.1073823711
 20
290.5192435773
 30
0.0
 40
103.5986915230815
100
AcDbArc
 50
0.0
 51
15.0000004174
  0
TEXT
  5
31E
330
315
100
AcDbEntity
  8
Default
  6
Continuous
 62
     7
 48
25.4
100
AcDbText
 10
541.2550625082
 20
308.3965297284
 30
0.0
 40
4.0
  1
15°
 50
277.5
  7
SEACAD_arial_ttf
 11
545.2208419537
 21
308.9186344973
 31
0.0
100
AcDbText
 73
     3
  0
ENDBLK
  5
320
330
315
100
AcDbEntity
  8
0
100
AcDbBlockEnd
  0
BLOCK
  5
32B
330
321
100
AcDbEntity
  8
0
100
AcDbBlockBegin
  2
GDimGGroup8
 70
     0
 71
     0
 10
0.0
 20
0.0
 30
0.0
  3
GDimGGroup8
  1

  0
HATCH
  5
323
330
321
100
AcDbEntity
  8
Default
  6
Continuous
 62
     7
 48
25.4
100
AcDbHatch
 10
0.0
 20
0.0
 30
0.0
210
0.0
220
0.0
230
1.0
  2
SOLID
 70
     1
 71
     0
 91
        1
 92
        1
 93
        3
 72
     1
 10
529.1704485391969
 20
242.534387125186
 11
527.8209623899442
 21
238.7103404283532
 72
     1
 10
527.8209623899442
 20
238.7103404283532
 11
530.3377347030749
 21
241.8900107147888
 72
     1
 10
530.3377347030748
 20
241.8900107147888
 11
529.1704485391967
 21
242.534387125186
 97
        0
 75
     0
 76
     1
 98
        0
  0
LWPOLYLINE
  5
324
330
321
100
AcDbEntity
  8
Default
  6
Continuous
 62
     7
 48
25.4
370
    20
100
AcDbPolyline
 90
        4
 70
     1
 43
0.00025
 10
529.1704485392
 20
242.5343871252
 10
527.8209623899
 20
238.7103404284
 10
530.3377347031
 20
241.8900107148
 10
529.1704485392
 20
242.5343871252
  0
HATCH
  5
325
330
321
100
AcDbEntity
  8
Default
  6
Continuous
 62
     7
 48
25.4
100
AcDbHatch
 10
0.0
 20
0.0
 30
0.0
210
0.0
220
0.0
230
1.0
  2
SOLID
 70
     1
 71
     0
 91
        1
 92
        1
 93
        3
 72
     1
 10
542.2954000984215
 20
286.5071192818373
 11
541.7060738941621
 21
290.5192434862402
 72
     1
 10
541.7060738941621
 20
290.5192434862402
 11
540.9623151562226
 21
286.5328580374506
 72
     1
 10
540.9623151562226
 20
286.5328580374505
 11
542.2954000984215
 21
286.5071192818372
 97
        0
 75
     0
 76
     1
 98
        0
  0
LWPOLYLINE
  5
326
330
321
100
AcDbEntity
  8
Default
  6
Continuous
 62
     7
 48
25.4
370
    20
100
AcDbPolyline
 90
        4
 70
     1
 43
0.00025
 10
542.2954000984
 20
286.5071192818
 10
541.7060738942
 20
290.5192434862
 10
540.9623151562
 20
286.5328580375
 10
542.2954000984
 20
286.5071192818
  0
LINE
  5
327
330
321
100
AcDbEntity
  8
Default
  6
Continuous
 62
     7
 48
25.4
100
AcDbLine
 10
488.4268766893
 20
261.4601222371
 30
0.0
 11
529.5529037166
 21
237.7101576195
 31
0.0
  0
LINE
  5
328
330
321
100
AcDbEntity
  8
Default
  6
Continuous
 62
     7
 48
25.4
100
AcDbLine
 10
495.8923830232
 20
290.5192435773
 30
0.0
 11
543.7060704967
 21
290.5192435773
 31
0.0
  0
ARC
  5
329
330
321
100
AcDbEntity
  8
Default
  6
Continuous
 62
     7
 48
25.4
100
AcDbCircle
 10
438.1073823711
 20
290.5192435773
 30
0.0
 40
103.5986915230752
100
AcDbArc
 50
329.9938963408
 51
359.9999999497
  0
TEXT
  5
32A
330
321
100
AcDbEntity
  8
Default
  6
Continuous
 62
     7
 48
25.4
100
AcDbText
 10
536.1056802945
 20
259.8438443816
 30
0.0
 40
4.0
  1
30°
 50
74.9969481704
  7
SEACAD_arial_ttf
 11
532.2420321383
 21
260.8793263587
 31
0.0
100
AcDbText
 73
     3
  0
ENDBLK
  5
32C
330
321
100
AcDbEntity
  8
0
100
AcDbBlockEnd
  0
BLOCK
  5
337
330
32D
100
AcDbEntity
  8
0
100
AcDbBlockBegin
  2
GDimGGroup9
 70
     0
 71
     0
 10
0.0
 20
0.0
 30
0.0
  3
GDimGGroup9
  1

  0
HATCH
  5
32F
330
32D
100
AcDbEntity
  8
Default
  6
Continuous
 62
     7
 48
25.4
100
AcDbHatch
 10
0.0
 20
0.0
 30
0.0
210
0.0
220
0.0
230
1.0
  2
SOLID
 70
     1
 71
     0
 91
        1
 92
        1
 93
        3
 72
     1
 10
430.7033731487701
 20
401.6236572723428
 11
426.7033729587803
 21
400.9569905740112
 72
     1
 10
426.7033729587803
 20
400.9569905740112
 11
430.7033731487701
 21
400.2903238756795
 72
     1
 10
430.7033731487701
 20
400.2903238756795
 11
430.7033731487701
 21
401.6236572723428
 97
        0
 75
     0
 76
     1
 98
        0
  0
LWPOLYLINE
  5
330
330
32D
100
AcDbEntity
  8
Default
  6
Continuous
 62
     7
 48
25.4
370
    20
100
AcDbPolyline
 90
        4
 70
     1
 43
0.00025
 10
430.7033731488
 20
401.6236572723
 10
426.7033729588
 20
400.956990574
 10
430.7033731488
 20
400.2903238757
 10
430.7033731488
 20
401.6236572723
  0
HATCH
  5
331
330
32D
100
AcDbEntity
  8
Default
  6
Continuous
 62
     7
 48
25.4
100
AcDbHatch
 10
0.0
 20
0.0
 30
0.0
210
0.0
220
0.0
230
1.0
  2
SOLID
 70
     1
 71
     0
 91
        1
 92
        1
 93
        3
 72
     1
 10
445.4533723068545
 20
401.6236572723428
 11
445.4533723068545
 21
400.2903238756795
 72
     1
 10
445.4533723068545
 20
400.2903238756795
 11
449.4533724968443
 21
400.9569905740112
 72
     1
 10
449.4533724968443
 20
400.9569905740112
 11
445.4533723068545
 21
401.6236572723428
 97
        0
 75
     0
 76
     1
 98
        0
  0
LWPOLYLINE
  5
332
330
32D
100
AcDbEntity
  8
Default
  6
Continuous
 62
     7
 48
25.4
370
    20
100
AcDbPolyline
 90
        4
 70
     1
 43
0.00025
 10
445.4533723069
 20
401.6236572723
 10
449.4533724968
 20
400.956990574
 10
445.4533723069
 20
400.2903238757
 10
445.4533723069
 20
401.6236572723
  0
LINE
  5
333
330
32D
100
AcDbEntity
  8
Default
  6
Continuous
 62
     7
 48
25.4
100
AcDbLine
 10
426.7033729588
 20
384.8215624732
 30
0.0
 11
426.7033729588
 21
402.956990669
 31
0.0
  0
LINE
  5
334
330
32D
100
AcDbEntity
  8
Default
  6
Continuous
 62
     7
 48
25.4
100
AcDbLine
 10
449.4533729588
 20
384.8215624732
 30
0.0
 11
449.4533729588
 21
402.956990669
 31
0.0
  0
LINE
  5
335
330
32D
100
AcDbEntity
  8
Default
  6
Continuous
 62
     7
 48
25.4
100
AcDbLine
 10
426.7033729588
 20
400.956990574
 30
0.0
 11
449.4533724968
 21
400.956990574
 31
0.0
  0
TEXT
  5
336
330
32D
100
AcDbEntity
  8
Default
  6
Continuous
 62
     7
 48
25.4
100
AcDbText
 10
434.9479379452
 20
401.956990574
 30
0.0
 40
4.0
  1
65
  7
SEACAD_arial_ttf
 11
434.9479379452
 21
405.956990574
 31
0.0
100
AcDbText
 73
     3
  0
ENDBLK
  5
338
330
32D
100
AcDbEntity
  8
0
100
AcDbBlockEnd
  0
BLOCK
  5
344
330
339
100
AcDbEntity
  8
0
100
AcDbBlockBegin
  2
GDimGGroup10
 70
     0
 71
     0
 10
0.0
 20
0.0
 30
0.0
  3
GDimGGroup10
  1

  0
HATCH
  5
33B
330
339
100
AcDbEntity
  8
Default
  6
Continuous
 62
     7
 48
25.4
100
AcDbHatch
 10
0.0
 20
0.0
 30
0.0
210
0.0
220
0.0
230
1.0
  2
SOLID
 70
     1
 71
     0
 91
        1
 92
        1
 93
        3
 72
     1
 10
30.40508535158245
 20
205.2470251504692
 11
31.07175204991408
 21
201.2470249604794
 72
     1
 10
31.07175204991408
 20
201.2470249604794
 11
31.73841874824571
 21
205.2470251504692
 72
     1
 10
31.73841874824571
 20
205.2470251504692
 11
30.40508535158245
 21
205.2470251504692
 97
        0
 75
     0
 76
     1
 98
        0
  0
LWPOLYLINE
  5
33C
330
339
100
AcDbEntity
  8
Default
  6
Continuous
 62
     7
 48
25.4
370
    20
100
AcDbPolyline
 90
        4
 70
     1
 43
0.00025
 10
30.4050853516
 20
205.2470251505
 10
31.0717520499
 20
201.2470249605
 10
31.7384187482
 20
205.2470251505
 10
30.4050853516
 20
205.2470251505
  0
HATCH
  5
33D
330
339
100
AcDbEntity
  8
Default
  6
Continuous
 62
     7
 48
25.4
100
AcDbHatch
 10
0.0
 20
0.0
 30
0.0
210
0.0
220
0.0
230
1.0
  2
SOLID
 70
     1
 71
     0
 91
        1
 92
        1
 93
        3
 72
     1
 10
30.40508535158245
 20
382.7470207173737
 11
31.73841874824571
 21
382.7470207173737
 72
     1
 10
31.73841874824571
 20
382.7470207173737
 11
31.07175204991408
 21
386.7470209073636
 72
     1
 10
31.07175204991408
 20
386.7470209073636
 11
30.40508535158245
 21
382.7470207173737
 97
        0
 75
     0
 76
     1
 98
        0
  0
LWPOLYLINE
  5
33E
330
339
100
AcDbEntity
  8
Default
  6
Continuous
 62
     7
 48
25.4
370
    20
100
AcDbPolyline
 90
        4
 70
     1
 43
0.00025
 10
30.4050853516
 20
382.7470207174
 10
31.0717520499
 20
386.7470209074
 10
31.7384187482
 20
382.7470207174
 10
30.4050853516
 20
382.7470207174
  0
LINE
  5
33F
330
339
100
AcDbEntity
  8
Default
  6
Continuous
 62
     7
 48
25.4
100
AcDbLine
 10
162.1510234857
 20
201.2470249605
 30
0.0
 11
29.0717519549
 21
201.2470249605
 31
0.0
  0
LINE
  5
340
330
339
100
AcDbEntity
  8
Default
  6
Continuous
 62
     7
 48
25.4
100
AcDbLine
 10
162.1510234857
 20
386.7470249605
 30
0.0
 11
29.0717519549
 21
386.7470249605
 31
0.0
  0
LINE
  5
341
330
339
100
AcDbEntity
  8
Default
  6
Continuous
 62
     7
 48
25.4
100
AcDbLine
 10
31.0717520499
 20
201.2470249605
 30
0.0
 11
31.0717520499
 21
386.7470209074
 31
0.0
  0
TEXT
  5
342
330
339
100
AcDbEntity
  8
Default
  6
Continuous
 62
     7
 48
25.4
100
AcDbText
 10
30.0717520499
 20
292.9820725144
 30
0.0
 40
4.0
  1
530
 50
90.0
  7
SEACAD_arial_ttf
 11
26.0717520499
 21
292.9820725144
 31
0.0
100
AcDbText
 73
     3
  0
TEXT
  5
343
330
339
100
AcDbEntity
  8
Default
  6
Continuous
 62
     7
 48
25.4
100
AcDbText
 10
30.0717520499
 20
285.6206690056
 30
0.0
 40
4.0
  1
O
 50
90.0
  7
SEACAD_semeca1_ttf
 11
26.0717520499
 21
285.6206690056
 31
0.0
100
AcDbText
 73
     3
  0
ENDBLK
  5
345
330
339
100
AcDbEntity
  8
0
100
AcDbBlockEnd
  0
BLOCK
  5
352
330
346
100
AcDbEntity
  8
0
100
AcDbBlockBegin
  2
GDimGGroup11
 70
     0
 71
     0
 10
0.0
 20
0.0
 30
0.0
  3
GDimGGroup11
  1

  0
HATCH
  5
348
330
346
100
AcDbEntity
  8
Default
  6
Continuous
 62
     7
 48
25.4
100
AcDbHatch
 10
0.0
 20
0.0
 30
0.0
210
0.0
220
0.0
230
1.0
  2
SOLID
 70
     1
 71
     0
 91
        1
 92
        1
 93
        3
 72
     1
 10
54.69375826370326
 20
231.4970251504692
 11
55.36042496203489
 21
227.4970249604794
 72
     1
 10
55.36042496203489
 20
227.4970249604794
 11
56.02709166036652
 21
231.4970251504692
 72
     1
 10
56.02709166036652
 20
231.4970251504692
 11
54.69375826370326
 21
231.4970251504692
 97
        0
 75
     0
 76
     1
 98
        0
  0
LWPOLYLINE
  5
349
330
346
100
AcDbEntity
  8
Default
  6
Continuous
 62
     7
 48
25.4
370
    20
100
AcDbPolyline
 90
        4
 70
     1
 43
0.00025
 10
54.6937582637
 20
231.4970251505
 10
55.360424962
 20
227.4970249605
 10
56.0270916604
 20
231.4970251505
 10
54.6937582637
 20
231.4970251505
  0
HATCH
  5
34A
330
346
100
AcDbEntity
  8
Default
  6
Continuous
 62
     7
 48
25.4
100
AcDbHatch
 10
0.0
 20
0.0
 30
0.0
210
0.0
220
0.0
230
1.0
  2
SOLID
 70
     1
 71
     0
 91
        1
 92
        1
 93
        3
 72
     1
 10
54.69375826370326
 20
356.4970260817918
 11
56.02709166036652
 21
356.4970260817918
 72
     1
 10
56.02709166036652
 20
356.4970260817918
 11
55.36042496203489
 21
360.4970262717816
 72
     1
 10
55.36042496203489
 20
360.4970262717816
 11
54.69375826370326
 21
356.4970260817918
 97
        0
 75
     0
 76
     1
 98
        0
  0
LWPOLYLINE
  5
34B
330
346
100
AcDbEntity
  8
Default
  6
Continuous
 62
     7
 48
25.4
370
    20
100
AcDbPolyline
 90
        4
 70
     1
 43
0.00025
 10
54.6937582637
 20
356.4970260818
 10
55.360424962
 20
360.4970262718
 10
56.0270916604
 20
356.4970260818
 10
54.6937582637
 20
356.4970260818
  0
LINE
  5
34C
330
346
100
AcDbEntity
  8
Default
  6
Continuous
 62
     7
 48
25.4
100
AcDbLine
 10
154.4510234857
 20
227.4970249605
 30
0.0
 11
53.360424867
 21
227.4970249605
 31
0.0
  0
LINE
  5
34D
330
346
100
AcDbEntity
  8
Default
  6
Continuous
 62
     7
 48
25.4
100
AcDbLine
 10
161.1010234857
 20
360.4970249605
 30
0.0
 11
53.360424867
 21
360.4970249605
 31
0.0
  0
LINE
  5
34E
330
346
100
AcDbEntity
  8
Default
  6
Continuous
 62
     7
 48
25.4
100
AcDbLine
 10
55.360424962
 20
227.4970249605
 30
0.0
 11
55.360424962
 21
360.4970262718
 31
0.0
  0
TEXT
  5
34F
330
346
100
AcDbEntity
  8
Default
  6
Continuous
 62
     7
 48
25.4
100
AcDbText
 10
54.360424962
 20
288.2168578053
 30
0.0
 40
4.0
  1
380
 50
90.0
  7
SEACAD_arial_ttf
 11
50.360424962
 21
288.2168578053
 31
0.0
100
AcDbText
 73
     3
  0
TEXT
  5
350
330
346
100
AcDbEntity
  8
Default
  6
Continuous
 62
     7
 48
25.4
100
AcDbText
 10
54.360424962
 20
300.0081621531
 30
0.0
 40
4.0
  1
H6
 50
90.0
  7
SEACAD_arial_ttf
 11
50.360424962
 21
300.0081621531
 31
0.0
100
AcDbText
 73
     3
  0
TEXT
  5
351
330
346
100
AcDbEntity
  8
Default
  6
Continuous
 62
     7
 48
25.4
100
AcDbText
 10
54.360424962
 20
280.8554542965
 30
0.0
 40
4.0
  1
O
 50
90.0
  7
SEACAD_semeca1_ttf
 11
50.360424962
 21
280.8554542965
 31
0.0
100
AcDbText
 73
     3
  0
ENDBLK
  5
353
330
346
100
AcDbEntity
  8
0
100
AcDbBlockEnd
  0
BLOCK
  5
35F
330
354
100
AcDbEntity
  8
0
100
AcDbBlockBegin
  2
GDimGGroup12
 70
     0
 71
     0
 10
0.0
 20
0.0
 30
0.0
  3
GDimGGroup12
  1

  0
HATCH
  5
356
330
354
100
AcDbEntity
  8
Default
  6
Continuous
 62
     7
 48
25.4
100
AcDbHatch
 10
0.0
 20
0.0
 30
0.0
210
0.0
220
0.0
230
1.0
  2
SOLID
 70
     1
 71
     0
 91
        1
 92
        1
 93
        3
 72
     1
 10
77.06667900335397
 20
247.9864001504692
 11
77.73334570168561
 21
243.9863999604794
 72
     1
 10
77.73334570168561
 20
243.9863999604794
 11
78.40001240001725
 21
247.9864001504692
 72
     1
 10
78.40001240001725
 20
247.9864001504692
 11
77.06667900335397
 21
247.9864001504692
 97
        0
 75
     0
 76
     1
 98
        0
  0
LWPOLYLINE
  5
357
330
354
100
AcDbEntity
  8
Default
  6
Continuous
 62
     7
 48
25.4
370
    20
100
AcDbPolyline
 90
        4
 70
     1
 43
0.00025
 10
77.0666790034
 20
247.9864001505
 10
77.7333457017
 20
243.9863999605
 10
78.4000124
 20
247.9864001505
 10
77.0666790034
 20
247.9864001505
  0
HATCH
  5
358
330
354
100
AcDbEntity
  8
Default
  6
Continuous
 62
     7
 48
25.4
100
AcDbHatch
 10
0.0
 20
0.0
 30
0.0
210
0.0
220
0.0
230
1.0
  2
SOLID
 70
     1
 71
     0
 91
        1
 92
        1
 93
        3
 72
     1
 10
77.06667900335397
 20
340.0076503164682
 11
78.40001240001725
 21
340.0076503164682
 72
     1
 10
78.40001240001725
 20
340.0076503164682
 11
77.73334570168561
 21
344.007650506458
 72
     1
 10
77.73334570168561
 20
344.007650506458
 11
77.06667900335397
 21
340.0076503164682
 97
        0
 75
     0
 76
     1
 98
        0
  0
LWPOLYLINE
  5
359
330
354
100
AcDbEntity
  8
Default
  6
Continuous
 62
     7
 48
25.4
370
    20
100
AcDbPolyline
 90
        4
 70
     1
 43
0.00025
 10
77.0666790034
 20
340.0076503165
 10
77.7333457017
 20
344.0076505065
 10
78.4000124
 20
340.0076503165
 10
77.0666790034
 20
340.0076503165
  0
LINE
  5
35A
330
354
100
AcDbEntity
  8
Default
  6
Continuous
 62
     7
 48
25.4
100
AcDbLine
 10
153.7510234857
 20
243.9863999605
 30
0.0
 11
75.7333456067
 21
243.9863999605
 31
0.0
  0
LINE
  5
35B
330
354
100
AcDbEntity
  8
Default
  6
Continuous
 62
     7
 48
25.4
100
AcDbLine
 10
153.7510234857
 20
344.0076499605
 30
0.0
 11
75.7333456067
 21
344.0076499605
 31
0.0
  0
LINE
  5
35C
330
354
100
AcDbEntity
  8
Default
  6
Continuous
 62
     7
 48
25.4
100
AcDbLine
 10
77.7333457017
 20
243.9863999605
 30
0.0
 11
77.7333457017
 21
344.0076505065
 31
0.0
  0
TEXT
  5
35D
330
354
100
AcDbEntity
  8
Default
  6
Continuous
 62
     7
 48
25.4
100
AcDbText
 10
76.7333457017
 20
287.5038139444
 30
0.0
 40
4.0
  1
285.775
 50
90.0
  7
SEACAD_arial_ttf
 11
72.7333457017
 21
287.5038139444
 31
0.0
100
AcDbText
 73
     3
  0
TEXT
  5
35E
330
354
100
AcDbEntity
  8
Default
  6
Continuous
 62
     7
 48
25.4
100
AcDbText
 10
76.7333457017
 20
280.1424104356
 30
0.0
 40
4.0
  1
O
 50
90.0
  7
SEACAD_semeca1_ttf
 11
72.7333457017
 21
280.1424104356
 31
0.0
100
AcDbText
 73
     3
  0
ENDBLK
  5
360
330
354
100
AcDbEntity
  8
0
100
AcDbBlockEnd
  0
BLOCK
  5
36C
330
361
100
AcDbEntity
  8
0
100
AcDbBlockBegin
  2
GDimGGroup13
 70
     0
 71
     0
 10
0.0
 20
0.0
 30
0.0
  3
GDimGGroup13
  1

  0
HATCH
  5
363
330
361
100
AcDbEntity
  8
Default
  6
Continuous
 62
     7
 48
25.4
100
AcDbHatch
 10
0.0
 20
0.0
 30
0.0
210
0.0
220
0.0
230
1.0
  2
SOLID
 70
     1
 71
     0
 91
        1
 92
        1
 93
        3
 72
     1
 10
97.70677198197684
 20
268.2470251504692
 11
98.37343868030848
 21
264.2470249604794
 72
     1
 10
98.37343868030848
 20
264.2470249604794
 11
99.04010537864012
 21
268.2470251504692
 72
     1
 10
99.04010537864012
 20
268.2470251504692
 11
97.70677198197684
 21
268.2470251504692
 97
        0
 75
     0
 76
     1
 98
        0
  0
LWPOLYLINE
  5
364
330
361
100
AcDbEntity
  8
Default
  6
Continuous
 62
     7
 48
25.4
370
    20
100
AcDbPolyline
 90
        4
 70
     1
 43
0.00025
 10
97.706771982
 20
268.2470251505
 10
98.3734386803
 20
264.2470249605
 10
99.0401053786
 20
268.2470251505
 10
97.706771982
 20
268.2470251505
  0
HATCH
  5
365
330
361
100
AcDbEntity
  8
Default
  6
Continuous
 62
     7
 48
25.4
100
AcDbHatch
 10
0.0
 20
0.0
 30
0.0
210
0.0
220
0.0
230
1.0
  2
SOLID
 70
     1
 71
     0
 91
        1
 92
        1
 93
        3
 72
     1
 10
97.70677198197684
 20
319.7470261413964
 11
99.04010537864012
 21
319.7470261413964
 72
     1
 10
99.04010537864012
 20
319.7470261413964
 11
98.37343868030848
 21
323.7470263313862
 72
     1
 10
98.37343868030848
 20
323.7470263313862
 11
97.70677198197684
 21
319.7470261413964
 97
        0
 75
     0
 76
     1
 98
        0
  0
LWPOLYLINE
  5
366
330
361
100
AcDbEntity
  8
Default
  6
Continuous
 62
     7
 48
25.4
370
    20
100
AcDbPolyline
 90
        4
 70
     1
 43
0.00025
 10
97.706771982
 20
319.7470261414
 10
98.3734386803
 20
323.7470263314
 10
99.0401053786
 20
319.7470261414
 10
97.706771982
 20
319.7470261414
  0
LINE
  5
367
330
361
100
AcDbEntity
  8
Default
  6
Continuous
 62
     7
 48
25.4
100
AcDbLine
 10
167.051023321
 20
264.2470249605
 30
0.0
 11
96.3734385853
 21
264.2470249605
 31
0.0
  0
LINE
  5
368
330
361
100
AcDbEntity
  8
Default
  6
Continuous
 62
     7
 48
25.4
100
AcDbLine
 10
167.051023321
 20
323.7470249605
 30
0.0
 11
96.3734385853
 21
323.7470249605
 31
0.0
  0
LINE
  5
369
330
361
100
AcDbEntity
  8
Default
  6
Continuous
 62
     7
 48
25.4
100
AcDbLine
 10
98.3734386803
 20
264.2470249605
 30
0.0
 11
98.3734386803
 21
323.7470263314
 31
0.0
  0
TEXT
  5
36A
330
361
100
AcDbEntity
  8
Default
  6
Continuous
 62
     7
 48
25.4
100
AcDbText
 10
97.3734386803
 20
292.9820752264
 30
0.0
 40
4.0
  1
170
 50
90.0
  7
SEACAD_arial_ttf
 11
93.3734386803
 21
292.9820752264
 31
0.0
100
AcDbText
 73
     3
  0
TEXT
  5
36B
330
361
100
AcDbEntity
  8
Default
  6
Continuous
 62
     7
 48
25.4
100
AcDbText
 10
97.3734386803
 20
285.6206717176
 30
0.0
 40
4.0
  1
O
 50
90.0
  7
SEACAD_semeca1_ttf
 11
93.3734386803
 21
285.6206717176
 31
0.0
100
AcDbText
 73
     3
  0
ENDBLK
  5
36D
330
361
100
AcDbEntity
  8
0
100
AcDbBlockEnd
  0
BLOCK
  5
379
330
36E
100
AcDbEntity
  8
0
100
AcDbBlockBegin
  2
GDimGGroup14
 70
     0
 71
     0
 10
0.0
 20
0.0
 30
0.0
  3
GDimGGroup14
  1

  0
HATCH
  5
370
330
36E
100
AcDbEntity
  8
Default
  6
Continuous
 62
     7
 48
25.4
100
AcDbHatch
 10
0.0
 20
0.0
 30
0.0
210
0.0
220
0.0
230
1.0
  2
SOLID
 70
     1
 71
     0
 91
        1
 92
        1
 93
        3
 72
     1
 10
117.3584859276971
 20
283.9970251504692
 11
118.0251526260288
 21
279.9970249604794
 72
     1
 10
118.0251526260288
 20
279.9970249604794
 11
118.6918193243604
 21
283.9970251504692
 72
     1
 10
118.6918193243604
 20
283.9970251504692
 11
117.3584859276971
 21
283.9970251504692
 97
        0
 75
     0
 76
     1
 98
        0
  0
LWPOLYLINE
  5
371
330
36E
100
AcDbEntity
  8
Default
  6
Continuous
 62
     7
 48
25.4
370
    20
100
AcDbPolyline
 90
        4
 70
     1
 43
0.00025
 10
117.3584859277
 20
283.9970251505
 10
118.025152626
 20
279.9970249605
 10
118.6918193244
 20
283.9970251505
 10
117.3584859277
 20
283.9970251505
  0
HATCH
  5
372
330
36E
100
AcDbEntity
  8
Default
  6
Continuous
 62
     7
 48
25.4
100
AcDbHatch
 10
0.0
 20
0.0
 30
0.0
210
0.0
220
0.0
230
1.0
  2
SOLID
 70
     1
 71
     0
 91
        1
 92
        1
 93
        3
 72
     1
 10
117.3584859276971
 20
303.9970256347569
 11
118.6918193243604
 21
303.9970256347569
 72
     1
 10
118.6918193243604
 20
303.9970256347569
 11
118.0251526260288
 21
307.9970258247467
 72
     1
 10
118.0251526260288
 20
307.9970258247467
 11
117.3584859276971
 21
303.9970256347569
 97
        0
 75
     0
 76
     1
 98
        0
  0
LWPOLYLINE
  5
373
330
36E
100
AcDbEntity
  8
Default
  6
Continuous
 62
     7
 48
25.4
370
    20
100
AcDbPolyline
 90
        4
 70
     1
 43
0.00025
 10
117.3584859277
 20
303.9970256348
 10
118.025152626
 20
307.9970258247
 10
118.6918193244
 20
303.9970256348
 10
117.3584859277
 20
303.9970256348
  0
LINE
  5
374
330
36E
100
AcDbEntity
  8
Default
  6
Continuous
 62
     7
 48
25.4
100
AcDbLine
 10
167.0510234857
 20
279.9970249605
 30
0.0
 11
116.025152531
 21
279.9970249605
 31
0.0
  0
LINE
  5
375
330
36E
100
AcDbEntity
  8
Default
  6
Continuous
 62
     7
 48
25.4
100
AcDbLine
 10
167.0510235482
 20
307.9970249605
 30
0.0
 11
116.025152531
 21
307.9970249605
 31
0.0
  0
LINE
  5
376
330
36E
100
AcDbEntity
  8
Default
  6
Continuous
 62
     7
 48
25.4
100
AcDbLine
 10
118.025152626
 20
279.9970249605
 30
0.0
 11
118.025152626
 21
307.9970258247
 31
0.0
  0
TEXT
  5
377
330
36E
100
AcDbEntity
  8
Default
  6
Continuous
 62
     7
 48
25.4
100
AcDbText
 10
117.025152626
 20
294.5472923644
 30
0.0
 40
4.0
  1
80
 50
90.0
  7
SEACAD_arial_ttf
 11
113.025152626
 21
294.5472923644
 31
0.0
100
AcDbText
 73
     3
  0
TEXT
  5
378
330
36E
100
AcDbEntity
  8
Default
  6
Continuous
 62
     7
 48
25.4
100
AcDbText
 10
117.025152626
 20
287.1858888556
 30
0.0
 40
4.0
  1
O
 50
90.0
  7
SEACAD_semeca1_ttf
 11
113.025152626
 21
287.1858888556
 31
0.0
100
AcDbText
 73
     3
  0
ENDBLK
  5
37A
330
36E
100
AcDbEntity
  8
0
100
AcDbBlockEnd
  0
BLOCK
  5
384
330
37B
100
AcDbEntity
  8
0
100
AcDbBlockBegin
  2
GDimGGroup15
 70
     0
 71
     0
 10
0.0
 20
0.0
 30
0.0
  3
GDimGGroup15
  1

  0
HATCH
  5
37D
330
37B
100
AcDbEntity
  8
Default
  6
Continuous
 62
     7
 48
25.4
100
AcDbHatch
 10
0.0
 20
0.0
 30
0.0
210
0.0
220
0.0
230
1.0
  2
SOLID
 70
     1
 71
     0
 91
        1
 92
        1
 93
        3
 72
     1
 10
197.1946072439513
 20
273.4970251504692
 11
197.8612739422829
 21
269.4970249604794
 72
     1
 10
197.8612739422829
 20
269.4970249604794
 11
198.5279406406145
 21
273.4970251504692
 72
     1
 10
198.5279406406145
 20
273.4970251504692
 11
197.1946072439513
 21
273.4970251504692
 97
        0
 75
     0
 76
     1
 98
        0
  0
LWPOLYLINE
  5
37E
330
37B
100
AcDbEntity
  8
Default
  6
Continuous
 62
     7
 48
25.4
370
    20
100
AcDbPolyline
 90
        4
 70
     1
 43
0.00025
 10
197.194607244
 20
273.4970251505
 10
197.8612739423
 20
269.4970249605
 10
198.5279406406
 20
273.4970251505
 10
197.194607244
 20
273.4970251505
  0
HATCH
  5
37F
330
37B
100
AcDbEntity
  8
Default
  6
Continuous
 62
     7
 48
25.4
100
AcDbHatch
 10
0.0
 20
0.0
 30
0.0
210
0.0
220
0.0
230
1.0
  2
SOLID
 70
     1
 71
     0
 91
        1
 92
        1
 93
        3
 72
     1
 10
197.1946072439513
 20
314.4970234889897
 11
198.5279406406145
 21
314.4970234889897
 72
     1
 10
198.5279406406145
 20
314.4970234889897
 11
197.8612739422829
 21
318.4970236789795
 72
     1
 10
197.8612739422829
 20
318.4970236789795
 11
197.1946072439513
 21
314.4970234889897
 97
        0
 75
     0
 76
     1
 98
        0
  0
LWPOLYLINE
  5
380
330
37B
100
AcDbEntity
  8
Default
  6
Continuous
 62
     7
 48
25.4
370
    20
100
AcDbPolyline
 90
        4
 70
     1
 43
0.00025
 10
197.194607244
 20
314.497023489
 10
197.8612739423
 20
318.497023679
 10
198.5279406406
 20
314.497023489
 10
197.194607244
 20
314.497023489
  0
LINE
  5
381
330
37B
100
AcDbEntity
  8
Default
  6
Continuous
 62
     7
 48
25.4
100
AcDbLine
 10
197.8612739423
 20
269.4970249605
 30
0.0
 11
197.8612739423
 21
318.497023679
 31
0.0
  0
TEXT
  5
382
330
37B
100
AcDbEntity
  8
Default
  6
Continuous
 62
     7
 48
25.4
100
AcDbText
 10
196.8612739423
 20
295.9699299456
 30
0.0
 40
4.0
  1
140
 50
90.0
  7
SEACAD_arial_ttf
 11
192.8612739423
 21
295.9699299456
 31
0.0
100
AcDbText
 73
     3
  0
TEXT
  5
383
330
37B
100
AcDbEntity
  8
Default
  6
Continuous
 62
     7
 48
25.4
100
AcDbText
 10
196.8612739423
 20
288.6085264368
 30
0.0
 40
4.0
  1
O
 50
90.0
  7
SEACAD_semeca1_ttf
 11
192.8612739423
 21
288.6085264368
 31
0.0
100
AcDbText
 73
     3
  0
ENDBLK
  5
385
330
37B
100
AcDbEntity
  8
0
100
AcDbBlockEnd
  0
BLOCK
  5
390
330
386
100
AcDbEntity
  8
0
100
AcDbBlockBegin
  2
GDimGGroup16
 70
     0
 71
     0
 10
0.0
 20
0.0
 30
0.0
  3
GDimGGroup16
  1

  0
HATCH
  5
388
330
386
100
AcDbEntity
  8
Default
  6
Continuous
 62
     7
 48
25.4
100
AcDbHatch
 10
0.0
 20
0.0
 30
0.0
210
0.0
220
0.0
230
1.0
  2
SOLID
 70
     1
 71
     0
 91
        1
 92
        1
 93
        3
 72
     1
 10
297.4458818338972
 20
329.4970251504692
 11
296.1125484372338
 21
329.4970251504692
 72
     1
 10
296.1125484372338
 20
329.4970251504692
 11
296.7792151355655
 21
325.4970249604794
 72
     1
 10
296.7792151355655
 20
325.4970249604794
 11
297.4458818338972
 21
329.4970251504692
 97
        0
 75
     0
 76
     1
 98
        0
  0
LWPOLYLINE
  5
389
330
386
100
AcDbEntity
  8
Default
  6
Continuous
 62
     7
 48
25.4
370
    20
100
AcDbPolyline
 90
        4
 70
     1
 43
0.00025
 10
297.4458818339
 20
329.4970251505
 10
296.7792151356
 20
325.4970249605
 10
296.1125484372
 20
329.4970251505
 10
297.4458818339
 20
329.4970251505
  0
HATCH
  5
38A
330
386
100
AcDbEntity
  8
Default
  6
Continuous
 62
     7
 48
25.4
100
AcDbHatch
 10
0.0
 20
0.0
 30
0.0
210
0.0
220
0.0
230
1.0
  2
SOLID
 70
     1
 71
     0
 91
        1
 92
        1
 93
        3
 72
     1
 10
297.4458818338972
 20
384.4970257837686
 11
296.7792151355655
 21
388.4970259737584
 72
     1
 10
296.7792151355655
 20
388.4970259737584
 11
296.1125484372338
 21
384.4970257837686
 72
     1
 10
296.1125484372338
 20
384.4970257837686
 11
297.4458818338972
 21
384.4970257837686
 97
        0
 75
     0
 76
     1
 98
        0
  0
LWPOLYLINE
  5
38B
330
386
100
AcDbEntity
  8
Default
  6
Continuous
 62
     7
 48
25.4
370
    20
100
AcDbPolyline
 90
        4
 70
     1
 43
0.00025
 10
297.4458818339
 20
384.4970257838
 10
296.7792151356
 20
388.4970259738
 10
296.1125484372
 20
384.4970257838
 10
297.4458818339
 20
384.4970257838
  0
LINE
  5
38C
330
386
100
AcDbEntity
  8
Default
  6
Continuous
 62
     7
 48
25.4
100
AcDbLine
 10
235.6510234857
 20
325.4970249605
 30
0.0
 11
298.7792152306
 21
325.4970249605
 31
0.0
  0
LINE
  5
38D
330
386
100
AcDbEntity
  8
Default
  6
Continuous
 62
     7
 48
25.4
100
AcDbLine
 10
235.6510234857
 20
388.4970249605
 30
0.0
 11
298.7792152306
 21
388.4970249605
 31
0.0
  0
LINE
  5
38E
330
386
100
AcDbEntity
  8
Default
  6
Continuous
 62
     7
 48
25.4
100
AcDbLine
 10
296.7792151356
 20
325.4970249605
 30
0.0
 11
296.7792151356
 21
388.4970259738
 31
0.0
  0
TEXT
  5
38F
330
386
100
AcDbEntity
  8
Default
  6
Continuous
 62
     7
 48
25.4
100
AcDbText
 10
295.7792151356
 20
352.3013732932
 30
0.0
 40
4.0
  1
180
 50
90.0
  7
SEACAD_arial_ttf
 11
291.7792151356
 21
352.3013732932
 31
0.0
100
AcDbText
 73
     3
  0
ENDBLK
  5
391
330
386
100
AcDbEntity
  8
0
100
AcDbBlockEnd
  0
BLOCK
  5
39C
330
392
100
AcDbEntity
  8
0
100
AcDbBlockBegin
  2
GDimGGroup17
 70
     0
 71
     0
 10
0.0
 20
0.0
 30
0.0
  3
GDimGGroup17
  1

  0
HATCH
  5
394
330
392
100
AcDbEntity
  8
Default
  6
Continuous
 62
     7
 48
25.4
100
AcDbHatch
 10
0.0
 20
0.0
 30
0.0
210
0.0
220
0.0
230
1.0
  2
SOLID
 70
     1
 71
     0
 91
        1
 92
        1
 93
        3
 72
     1
 10
277.0108630402477
 20
378.4970251504692
 11
275.6775296435844
 21
378.4970251504692
 72
     1
 10
275.6775296435844
 20
378.4970251504692
 11
276.3441963419161
 21
374.4970249604794
 72
     1
 10
276.3441963419161
 20
374.4970249604794
 11
277.0108630402477
 21
378.4970251504692
 97
        0
 75
     0
 76
     1
 98
        0
  0
LWPOLYLINE
  5
395
330
392
100
AcDbEntity
  8
Default
  6
Continuous
 62
     7
 48
25.4
370
    20
100
AcDbPolyline
 90
        4
 70
     1
 43
0.00025
 10
277.0108630402
 20
378.4970251505
 10
276.3441963419
 20
374.4970249605
 10
275.6775296436
 20
378.4970251505
 10
277.0108630402
 20
378.4970251505
  0
HATCH
  5
396
330
392
100
AcDbEntity
  8
Default
  6
Continuous
 62
     7
 48
25.4
100
AcDbHatch
 10
0.0
 20
0.0
 30
0.0
210
0.0
220
0.0
230
1.0
  2
SOLID
 70
     1
 71
     0
 91
        1
 92
        1
 93
        3
 72
     1
 10
277.0108630402477
 20
384.4970252026233
 11
276.3441963419161
 21
388.4970253926131
 72
     1
 10
276.3441963419161
 20
388.4970253926131
 11
275.6775296435844
 21
384.4970252026233
 72
     1
 10
275.6775296435844
 20
384.4970252026233
 11
277.0108630402477
 21
384.4970252026233
 97
        0
 75
     0
 76
     1
 98
        0
  0
LWPOLYLINE
  5
397
330
392
100
AcDbEntity
  8
Default
  6
Continuous
 62
     7
 48
25.4
370
    20
100
AcDbPolyline
 90
        4
 70
     1
 43
0.00025
 10
277.0108630402
 20
384.4970252026
 10
276.3441963419
 20
388.4970253926
 10
275.6775296436
 20
384.4970252026
 10
277.0108630402
 20
384.4970252026
  0
LINE
  5
398
330
392
100
AcDbEntity
  8
Default
  6
Continuous
 62
     7
 48
25.4
100
AcDbLine
 10
239.5079074725
 20
374.4970249605
 30
0.0
 11
278.3441964369
 21
374.4970249605
 31
0.0
  0
LINE
  5
399
330
392
100
AcDbEntity
  8
Default
  6
Continuous
 62
     7
 48
25.4
100
AcDbLine
 10
235.6510234857
 20
388.4970249605
 30
0.0
 11
278.3441964369
 21
388.4970249605
 31
0.0
  0
LINE
  5
39A
330
392
100
AcDbEntity
  8
Default
  6
Continuous
 62
     7
 48
25.4
100
AcDbLine
 10
276.3441963419
 20
374.4970249605
 30
0.0
 11
276.3441963419
 21
388.4970253926
 31
0.0
  0
TEXT
  5
39B
330
392
100
AcDbEntity
  8
Default
  6
Continuous
 62
     7
 48
25.4
100
AcDbText
 10
275.3441963419
 20
378.3665903939
 30
0.0
 40
4.0
  1
40
 50
90.0
  7
SEACAD_arial_ttf
 11
271.3441963419
 21
378.3665903939
 31
0.0
100
AcDbText
 73
     3
  0
ENDBLK
  5
39D
330
392
100
AcDbEntity
  8
0
100
AcDbBlockEnd
  0
BLOCK
  5
3A8
330
39E
100
AcDbEntity
  8
0
100
AcDbBlockBegin
  2
GDimGGroup18
 70
     0
 71
     0
 10
0.0
 20
0.0
 30
0.0
  3
GDimGGroup18
  1

  0
HATCH
  5
3A0
330
39E
100
AcDbEntity
  8
Default
  6
Continuous
 62
     7
 48
25.4
100
AcDbHatch
 10
0.0
 20
0.0
 30
0.0
210
0.0
220
0.0
230
1.0
  2
SOLID
 70
     1
 71
     0
 91
        1
 92
        1
 93
        3
 72
     1
 10
277.0108630402477
 20
370.4970247704896
 11
276.3441963419161
 21
374.4970249604794
 72
     1
 10
276.3441963419161
 20
374.4970249604794
 11
275.6775296435844
 21
370.4970247704896
 72
     1
 10
275.6775296435844
 20
370.4970247704896
 11
277.0108630402477
 21
370.4970247704896
 97
        0
 75
     0
 76
     1
 98
        0
  0
LWPOLYLINE
  5
3A1
330
39E
100
AcDbEntity
  8
Default
  6
Continuous
 62
     7
 48
25.4
370
    20
100
AcDbPolyline
 90
        4
 70
     1
 43
0.00025
 10
277.0108630402
 20
370.4970247705
 10
276.3441963419
 20
374.4970249605
 10
275.6775296436
 20
370.4970247705
 10
277.0108630402
 20
370.4970247705
  0
HATCH
  5
3A2
330
39E
100
AcDbEntity
  8
Default
  6
Continuous
 62
     7
 48
25.4
100
AcDbHatch
 10
0.0
 20
0.0
 30
0.0
210
0.0
220
0.0
230
1.0
  2
SOLID
 70
     1
 71
     0
 91
        1
 92
        1
 93
        3
 72
     1
 10
277.0108630402477
 20
357.4970254335913
 11
275.6775296435844
 21
357.4970254335913
 72
     1
 10
275.6775296435844
 20
357.4970254335913
 11
276.3441963419161
 21
353.4970252436015
 72
     1
 10
276.3441963419161
 20
353.4970252436015
 11
277.0108630402477
 21
357.4970254335913
 97
        0
 75
     0
 76
     1
 98
        0
  0
LWPOLYLINE
  5
3A3
330
39E
100
AcDbEntity
  8
Default
  6
Continuous
 62
     7
 48
25.4
370
    20
100
AcDbPolyline
 90
        4
 70
     1
 43
0.00025
 10
277.0108630402
 20
357.4970254336
 10
276.3441963419
 20
353.4970252436
 10
275.6775296436
 20
357.4970254336
 10
277.0108630402
 20
357.4970254336
  0
LINE
  5
3A4
330
39E
100
AcDbEntity
  8
Default
  6
Continuous
 62
     7
 48
25.4
100
AcDbLine
 10
239.5079074725
 20
374.4970249605
 30
0.0
 11
278.3441964369
 21
374.4970249605
 31
0.0
  0
LINE
  5
3A5
330
39E
100
AcDbEntity
  8
Default
  6
Continuous
 62
     7
 48
25.4
100
AcDbLine
 10
238.600405358
 20
353.4970249605
 30
0.0
 11
278.3441964369
 21
353.4970249605
 31
0.0
  0
LINE
  5
3A6
330
39E
100
AcDbEntity
  8
Default
  6
Continuous
 62
     7
 48
25.4
100
AcDbLine
 10
276.3441963419
 20
374.4970249605
 30
0.0
 11
276.3441963419
 21
353.4970252436
 31
0.0
  0
TEXT
  5
3A7
330
39E
100
AcDbEntity
  8
Default
  6
Continuous
 62
     7
 48
25.4
100
AcDbText
 10
275.3441963419
 20
360.8665903194
 30
0.0
 40
4.0
  1
60
 50
90.0
  7
SEACAD_arial_ttf
 11
271.3441963419
 21
360.8665903194
 31
0.0
100
AcDbText
 73
     3
  0
ENDBLK
  5
3A9
330
39E
100
AcDbEntity
  8
0
100
AcDbBlockEnd
  0
BLOCK
  5
3B4
330
3AA
100
AcDbEntity
  8
0
100
AcDbBlockBegin
  2
GDimGGroup19
 70
     0
 71
     0
 10
0.0
 20
0.0
 30
0.0
  3
GDimGGroup19
  1

  0
HATCH
  5
3AC
330
3AA
100
AcDbEntity
  8
Default
  6
Continuous
 62
     7
 48
25.4
100
AcDbHatch
 10
0.0
 20
0.0
 30
0.0
210
0.0
220
0.0
230
1.0
  2
SOLID
 70
     1
 71
     0
 91
        1
 92
        1
 93
        3
 72
     1
 10
277.0108639941341
 20
349.4970247704896
 11
276.3441972958024
 21
353.4970249604794
 72
     1
 10
276.3441972958024
 20
353.4970249604794
 11
275.6775305974708
 21
349.4970247704896
 72
     1
 10
275.6775305974708
 20
349.4970247704896
 11
277.0108639941341
 21
349.4970247704896
 97
        0
 75
     0
 76
     1
 98
        0
  0
LWPOLYLINE
  5
3AD
330
3AA
100
AcDbEntity
  8
Default
  6
Continuous
 62
     7
 48
25.4
370
    20
100
AcDbPolyline
 90
        4
 70
     1
 43
0.00025
 10
277.0108639941
 20
349.4970247705
 10
276.3441972958
 20
353.4970249605
 10
275.6775305975
 20
349.4970247705
 10
277.0108639941
 20
349.4970247705
  0
HATCH
  5
3AE
330
3AA
100
AcDbEntity
  8
Default
  6
Continuous
 62
     7
 48
25.4
100
AcDbHatch
 10
0.0
 20
0.0
 30
0.0
210
0.0
220
0.0
230
1.0
  2
SOLID
 70
     1
 71
     0
 91
        1
 92
        1
 93
        3
 72
     1
 10
277.0108639941341
 20
329.4970242862019
 11
275.6775305974708
 21
329.4970242862019
 72
     1
 10
275.6775305974708
 20
329.4970242862019
 11
276.3441972958024
 21
325.497024096212
 72
     1
 10
276.3441972958024
 20
325.497024096212
 11
277.0108639941341
 21
329.4970242862019
 97
        0
 75
     0
 76
     1
 98
        0
  0
LWPOLYLINE
  5
3AF
330
3AA
100
AcDbEntity
  8
Default
  6
Continuous
 62
     7
 48
25.4
370
    20
100
AcDbPolyline
 90
        4
 70
     1
 43
0.00025
 10
277.0108639941
 20
329.4970242862
 10
276.3441972958
 20
325.4970240962
 10
275.6775305975
 20
329.4970242862
 10
277.0108639941
 20
329.4970242862
  0
LINE
  5
3B0
330
3AA
100
AcDbEntity
  8
Default
  6
Continuous
 62
     7
 48
25.4
100
AcDbLine
 10
238.600405358
 20
353.4970249605
 30
0.0
 11
278.3441973908
 21
353.4970249605
 31
0.0
  0
LINE
  5
3B1
330
3AA
100
AcDbEntity
  8
Default
  6
Continuous
 62
     7
 48
25.4
100
AcDbLine
 10
235.6510234857
 20
325.4970249605
 30
0.0
 11
278.3441973908
 21
325.4970249605
 31
0.0
  0
LINE
  5
3B2
330
3AA
100
AcDbEntity
  8
Default
  6
Continuous
 62
     7
 48
25.4
100
AcDbLine
 10
276.3441972958
 20
353.4970249605
 30
0.0
 11
276.3441972958
 21
325.4970240962
 31
0.0
  0
TEXT
  5
3B3
330
3AA
100
AcDbEntity
  8
Default
  6
Continuous
 62
     7
 48
25.4
100
AcDbText
 10
275.3441972958
 20
336.3665897457
 30
0.0
 40
4.0
  1
80
 50
90.0
  7
SEACAD_arial_ttf
 11
271.3441972958
 21
336.3665897457
 31
0.0
100
AcDbText
 73
     3
  0
ENDBLK
  5
3B5
330
3AA
100
AcDbEntity
  8
0
100
AcDbBlockEnd
  0
BLOCK
  5
3C2
330
3B6
100
AcDbEntity
  8
0
100
AcDbBlockBegin
  2
GDimGGroup20
 70
     0
 71
     0
 10
0.0
 20
0.0
 30
0.0
  3
GDimGGroup20
  1

  0
HATCH
  5
3B8
330
3B6
100
AcDbEntity
  8
Default
  6
Continuous
 62
     7
 48
25.4
100
AcDbHatch
 10
0.0
 20
0.0
 30
0.0
210
0.0
220
0.0
230
1.0
  2
SOLID
 70
     1
 71
     0
 91
        1
 92
        1
 93
        3
 72
     1
 10
256.6856349945365
 20
297.9970251504692
 11
255.3523015978732
 21
297.9970251504692
 72
     1
 10
255.3523015978732
 20
297.9970251504692
 11
256.0189682962048
 21
293.9970249604794
 72
     1
 10
256.0189682962048
 20
293.9970249604794
 11
256.6856349945365
 21
297.9970251504692
 97
        0
 75
     0
 76
     1
 98
        0
  0
LWPOLYLINE
  5
3B9
330
3B6
100
AcDbEntity
  8
Default
  6
Continuous
 62
     7
 48
25.4
370
    20
100
AcDbPolyline
 90
        4
 70
     1
 43
0.00025
 10
256.6856349945
 20
297.9970251505
 10
256.0189682962
 20
293.9970249605
 10
255.3523015979
 20
297.9970251505
 10
256.6856349945
 20
297.9970251505
  0
HATCH
  5
3BA
330
3B6
100
AcDbEntity
  8
Default
  6
Continuous
 62
     7
 48
25.4
100
AcDbHatch
 10
0.0
 20
0.0
 30
0.0
210
0.0
220
0.0
230
1.0
  2
SOLID
 70
     1
 71
     0
 91
        1
 92
        1
 93
        3
 72
     1
 10
256.6856349945365
 20
324.4720234830293
 11
256.0189682962048
 21
328.4720236730191
 72
     1
 10
256.0189682962048
 20
328.4720236730191
 11
255.3523015978732
 21
324.4720234830293
 72
     1
 10
255.3523015978732
 20
324.4720234830293
 11
256.6856349945365
 21
324.4720234830293
 97
        0
 75
     0
 76
     1
 98
        0
  0
LWPOLYLINE
  5
3BB
330
3B6
100
AcDbEntity
  8
Default
  6
Continuous
 62
     7
 48
25.4
370
    20
100
AcDbPolyline
 90
        4
 70
     1
 43
0.00025
 10
256.6856349945
 20
324.472023483
 10
256.0189682962
 20
328.472023673
 10
255.3523015979
 20
324.472023483
 10
256.6856349945
 20
324.472023483
  0
LINE
  5
3BC
330
3B6
100
AcDbEntity
  8
Default
  6
Continuous
 62
     7
 48
25.4
100
AcDbLine
 10
229.158729312
 20
293.9970249605
 30
0.0
 11
258.0189683912
 21
293.9970249605
 31
0.0
  0
LINE
  5
3BD
330
3B6
100
AcDbEntity
  8
Default
  6
Continuous
 62
     7
 48
25.4
100
AcDbLine
 10
206.6010234857
 20
328.4720249605
 30
0.0
 11
258.0189683912
 21
328.4720249605
 31
0.0
  0
LINE
  5
3BE
330
3B6
100
AcDbEntity
  8
Default
  6
Continuous
 62
     7
 48
25.4
100
AcDbLine
 10
256.0189682962
 20
264.1744537574
 30
0.0
 11
256.0189682962
 21
328.472023673
 31
0.0
  0
TEXT
  5
3BF
330
3B6
100
AcDbEntity
  8
Default
  6
Continuous
 62
     7
 48
25.4
100
AcDbText
 10
249.0189682962
 20
280.287497692
 30
0.0
 40
4.0
  1
98.5
 50
90.0
  7
SEACAD_arial_ttf
 11
245.0189682962
 21
280.287497692
 31
0.0
100
AcDbText
 73
     3
  0
TEXT
  5
3C0
330
3B6
100
AcDbEntity
  8
Default
  6
Continuous
 62
     7
 48
25.4
100
AcDbText
 10
249.0189682962
 20
265.5744542137
 30
0.0
 40
4.0
  1
MAX
 50
90.0
  7
SEACAD_arial_ttf
 11
245.0189682962
 21
265.5744542137
 31
0.0
100
AcDbText
 73
     3
  0
TEXT
  5
3C1
330
3B6
100
AcDbEntity
  8
Default
  6
Continuous
 62
     7
 48
25.4
100
AcDbText
 10
255.0189682962
 20
265.5744542137
 30
0.0
 40
4.0
  1
MIN 93.2
 50
90.0
  7
SEACAD_arial_ttf
 11
251.0189682962
 21
265.5744542137
 31
0.0
100
AcDbText
 73
     3
  0
ENDBLK
  5
3C3
330
3B6
100
AcDbEntity
  8
0
100
AcDbBlockEnd
  0
BLOCK
  5
3D0
330
3C4
100
AcDbEntity
  8
0
100
AcDbBlockBegin
  2
GDimGGroup21
 70
     0
 71
     0
 10
0.0
 20
0.0
 30
0.0
  3
GDimGGroup21
  1

  0
HATCH
  5
3C6
330
3C4
100
AcDbEntity
  8
Default
  6
Continuous
 62
     7
 48
25.4
100
AcDbHatch
 10
0.0
 20
0.0
 30
0.0
210
0.0
220
0.0
230
1.0
  2
SOLID
 70
     1
 71
     0
 91
        1
 92
        1
 93
        3
 72
     1
 10
256.6856366716485
 20
332.4720251504692
 11
255.3523032749852
 21
332.4720251504692
 72
     1
 10
255.3523032749852
 20
332.4720251504692
 11
256.0189699733169
 21
328.4720249604794
 72
     1
 10
256.0189699733169
 20
328.4720249604794
 11
256.6856366716485
 21
332.4720251504692
 97
        0
 75
     0
 76
     1
 98
        0
  0
LWPOLYLINE
  5
3C7
330
3C4
100
AcDbEntity
  8
Default
  6
Continuous
 62
     7
 48
25.4
370
    20
100
AcDbPolyline
 90
        4
 70
     1
 43
0.00025
 10
256.6856366716
 20
332.4720251505
 10
256.0189699733
 20
328.4720249605
 10
255.352303275
 20
332.4720251505
 10
256.6856366716
 20
332.4720251505
  0
HATCH
  5
3C8
330
3C4
100
AcDbEntity
  8
Default
  6
Continuous
 62
     7
 48
25.4
100
AcDbHatch
 10
0.0
 20
0.0
 30
0.0
210
0.0
220
0.0
230
1.0
  2
SOLID
 70
     1
 71
     0
 91
        1
 92
        1
 93
        3
 72
     1
 10
256.6856366716485
 20
349.4970247704896
 11
256.0189699733169
 21
353.4970249604794
 72
     1
 10
256.0189699733169
 20
353.4970249604794
 11
255.3523032749852
 21
349.4970247704896
 72
     1
 10
255.3523032749852
 20
349.4970247704896
 11
256.6856366716485
 21
349.4970247704896
 97
        0
 75
     0
 76
     1
 98
        0
  0
LWPOLYLINE
  5
3C9
330
3C4
100
AcDbEntity
  8
Default
  6
Continuous
 62
     7
 48
25.4
370
    20
100
AcDbPolyline
 90
        4
 70
     1
 43
0.00025
 10
256.6856366716
 20
349.4970247705
 10
256.0189699733
 20
353.4970249605
 10
255.352303275
 20
349.4970247705
 10
256.6856366716
 20
349.4970247705
  0
LINE
  5
3CA
330
3C4
100
AcDbEntity
  8
Default
  6
Continuous
 62
     7
 48
25.4
100
AcDbLine
 10
206.6010234857
 20
328.4720249605
 30
0.0
 11
258.0189700683
 21
328.4720249605
 31
0.0
  0
LINE
  5
3CB
330
3C4
100
AcDbEntity
  8
Default
  6
Continuous
 62
     7
 48
25.4
100
AcDbLine
 10
238.600405358
 20
353.4970249605
 30
0.0
 11
258.0189700683
 21
353.4970249605
 31
0.0
  0
LINE
  5
3CC
330
3C4
100
AcDbEntity
  8
Default
  6
Continuous
 62
     7
 48
25.4
100
AcDbLine
 10
256.0189699733
 20
328.4720249605
 30
0.0
 11
256.0189699733
 21
384.2087566983
 31
0.0
  0
TEXT
  5
3CD
330
3C4
100
AcDbEntity
  8
Default
  6
Continuous
 62
     7
 48
25.4
100
AcDbText
 10
249.0189699733
 20
371.8522339208
 30
0.0
 40
4.0
  1
87.5
 50
90.0
  7
SEACAD_arial_ttf
 11
245.0189699733
 21
371.8522339208
 31
0.0
100
AcDbText
 73
     3
  0
TEXT
  5
3CE
330
3C4
100
AcDbEntity
  8
Default
  6
Continuous
 62
     7
 48
25.4
100
AcDbText
 10
249.0189699733
 20
357.1391904425
 30
0.0
 40
4.0
  1
MAX
 50
90.0
  7
SEACAD_arial_ttf
 11
245.0189699733
 21
357.1391904425
 31
0.0
100
AcDbText
 73
     3
  0
TEXT
  5
3CF
330
3C4
100
AcDbEntity
  8
Default
  6
Continuous
 62
     7
 48
25.4
100
AcDbText
 10
255.0189699733
 20
357.1391904425
 30
0.0
 40
4.0
  1
MIN 21.5
 50
90.0
  7
SEACAD_arial_ttf
 11
251.0189699733
 21
357.1391904425
 31
0.0
100
AcDbText
 73
     3
  0
ENDBLK
  5
3D1
330
3C4
100
AcDbEntity
  8
0
100
AcDbBlockEnd
  0
BLOCK
  5
3DC
330
3D2
100
AcDbEntity
  8
0
100
AcDbBlockBegin
  2
GDimGGroup22
 70
     0
 71
     0
 10
0.0
 20
0.0
 30
0.0
  3
GDimGGroup22
  1

  0
HATCH
  5
3D4
330
3D2
100
AcDbEntity
  8
Default
  6
Continuous
 62
     7
 48
25.4
100
AcDbHatch
 10
0.0
 20
0.0
 30
0.0
210
0.0
220
0.0
230
1.0
  2
SOLID
 70
     1
 71
     0
 91
        1
 92
        1
 93
        3
 72
     1
 10
167.2010236756415
 20
211.619943283286
 11
167.2010236756415
 21
212.9532766799492
 72
     1
 10
167.2010236756415
 20
212.9532766799492
 11
163.2010234856517
 21
212.2866099816176
 72
     1
 10
163.2010234856517
 20
212.2866099816176
 11
167.2010236756415
 21
211.619943283286
 97
        0
 75
     0
 76
     1
 98
        0
  0
LWPOLYLINE
  5
3D5
330
3D2
100
AcDbEntity
  8
Default
  6
Continuous
 62
     7
 48
25.4
370
    20
100
AcDbPolyline
 90
        4
 70
     1
 43
0.00025
 10
167.2010236756
 20
211.6199432833
 10
163.2010234857
 20
212.2866099816
 10
167.2010236756
 20
212.9532766799
 10
167.2010236756
 20
211.6199432833
  0
HATCH
  5
3D6
330
3D2
100
AcDbEntity
  8
Default
  6
Continuous
 62
     7
 48
25.4
100
AcDbHatch
 10
0.0
 20
0.0
 30
0.0
210
0.0
220
0.0
230
1.0
  2
SOLID
 70
     1
 71
     0
 91
        1
 92
        1
 93
        3
 72
     1
 10
149.7510232956619
 20
211.619943283286
 11
153.7510234856517
 21
212.2866099816176
 72
     1
 10
153.7510234856517
 20
212.2866099816176
 11
149.7510232956619
 21
212.9532766799492
 72
     1
 10
149.7510232956619
 20
212.9532766799492
 11
149.7510232956619
 21
211.619943283286
 97
        0
 75
     0
 76
     1
 98
        0
  0
LWPOLYLINE
  5
3D7
330
3D2
100
AcDbEntity
  8
Default
  6
Continuous
 62
     7
 48
25.4
370
    20
100
AcDbPolyline
 90
        4
 70
     1
 43
0.00025
 10
149.7510232957
 20
211.6199432833
 10
153.7510234857
 20
212.2866099816
 10
149.7510232957
 20
212.9532766799
 10
149.7510232957
 20
211.6199432833
  0
LINE
  5
3D8
330
3D2
100
AcDbEntity
  8
Default
  6
Continuous
 62
     7
 48
25.4
100
AcDbLine
 10
163.2010234857
 20
228.1970249605
 30
0.0
 11
163.2010234857
 21
210.2866098866
 31
0.0
  0
LINE
  5
3D9
330
3D2
100
AcDbEntity
  8
Default
  6
Continuous
 62
     7
 48
25.4
100
AcDbLine
 10
153.7510234857
 20
228.1970249605
 30
0.0
 11
153.7510234857
 21
210.2866098866
 31
0.0
  0
LINE
  5
3DA
330
3D2
100
AcDbEntity
  8
Default
  6
Continuous
 62
     7
 48
25.4
100
AcDbLine
 10
171.2010238656
 20
212.2866099816
 30
0.0
 11
132.080522027
 21
212.2866099816
 31
0.0
  0
TEXT
  5
3DB
330
3D2
100
AcDbEntity
  8
Default
  6
Continuous
 62
     7
 48
25.4
100
AcDbText
 10
133.4805214552
 20
213.2866099816
 30
0.0
 40
4.0
  1
27
  7
SEACAD_arial_ttf
 11
133.4805214552
 21
217.2866099816
 31
0.0
100
AcDbText
 73
     3
  0
ENDBLK
  5
3DD
330
3D2
100
AcDbEntity
  8
0
100
AcDbBlockEnd
  0
BLOCK
  5
3E7
330
3DE
100
AcDbEntity
  8
0
100
AcDbBlockBegin
  2
GDimGGroup23
 70
     0
 71
     0
 10
0.0
 20
0.0
 30
0.0
  3
GDimGGroup23
  1

  0
HATCH
  5
3E0
330
3DE
100
AcDbEntity
  8
Default
  6
Continuous
 62
     7
 48
25.4
100
AcDbHatch
 10
0.0
 20
0.0
 30
0.0
210
0.0
220
0.0
230
1.0
  2
SOLID
 70
     1
 71
     0
 91
        1
 92
        1
 93
        3
 72
     1
 10
167.2010236756415
 20
211.6511928809546
 11
167.2010236756415
 21
212.9845262776179
 72
     1
 10
167.2010236756415
 20
212.9845262776179
 11
163.2010234856517
 21
212.3178595792862
 72
     1
 10
163.2010234856517
 20
212.3178595792862
 11
167.2010236756415
 21
211.6511928809546
 97
        0
 75
     0
 76
     1
 98
        0
  0
LWPOLYLINE
  5
3E1
330
3DE
100
AcDbEntity
  8
Default
  6
Continuous
 62
     7
 48
25.4
370
    20
100
AcDbPolyline
 90
        4
 70
     1
 43
0.00025
 10
167.2010236756
 20
211.651192881
 10
163.2010234857
 20
212.3178595793
 10
167.2010236756
 20
212.9845262776
 10
167.2010236756
 20
211.651192881
  0
HATCH
  5
3E2
330
3DE
100
AcDbEntity
  8
Default
  6
Continuous
 62
     7
 48
25.4
100
AcDbHatch
 10
0.0
 20
0.0
 30
0.0
210
0.0
220
0.0
230
1.0
  2
SOLID
 70
     1
 71
     0
 91
        1
 92
        1
 93
        3
 72
     1
 10
157.1010232956619
 20
211.6511928809546
 11
161.1010234856517
 21
212.3178595792862
 72
     1
 10
161.1010234856517
 20
212.3178595792862
 11
157.1010232956619
 21
212.9845262776179
 72
     1
 10
157.1010232956619
 20
212.9845262776179
 11
157.1010232956619
 21
211.6511928809546
 97
        0
 75
     0
 76
     1
 98
        0
  0
LWPOLYLINE
  5
3E3
330
3DE
100
AcDbEntity
  8
Default
  6
Continuous
 62
     7
 48
25.4
370
    20
100
AcDbPolyline
 90
        4
 70
     1
 43
0.00025
 10
157.1010232957
 20
211.651192881
 10
161.1010234857
 20
212.3178595793
 10
157.1010232957
 20
212.9845262776
 10
157.1010232957
 20
211.651192881
  0
LINE
  5
3E4
330
3DE
100
AcDbEntity
  8
Default
  6
Continuous
 62
     7
 48
25.4
100
AcDbLine
 10
163.2010234857
 20
228.1970249605
 30
0.0
 11
163.2010234857
 21
210.3178594843
 31
0.0
  0
LINE
  5
3E5
330
3DE
100
AcDbEntity
  8
Default
  6
Continuous
 62
     7
 48
25.4
100
AcDbLine
 10
173.812929202
 20
212.3178595793
 30
0.0
 11
153.101023879
 21
212.3178595793
 31
0.0
  0
TEXT
  5
3E6
330
3DE
100
AcDbEntity
  8
Default
  6
Continuous
 62
     7
 48
25.4
100
AcDbText
 10
169.2824947552
 20
213.3178595793
 30
0.0
 40
4.0
  1
6
  7
SEACAD_arial_ttf
 11
169.2824947552
 21
217.3178595793
 31
0.0
100
AcDbText
 73
     3
  0
ENDBLK
  5
3E8
330
3DE
100
AcDbEntity
  8
0
100
AcDbBlockEnd
  0
BLOCK
  5
3F3
330
3E9
100
AcDbEntity
  8
0
100
AcDbBlockBegin
  2
GDimGGroup24
 70
     0
 71
     0
 10
0.0
 20
0.0
 30
0.0
  3
GDimGGroup24
  1

  0
HATCH
  5
3EB
330
3E9
100
AcDbEntity
  8
Default
  6
Continuous
 62
     7
 48
25.4
100
AcDbHatch
 10
0.0
 20
0.0
 30
0.0
210
0.0
220
0.0
230
1.0
  2
SOLID
 70
     1
 71
     0
 91
        1
 92
        1
 93
        3
 72
     1
 10
197.3510232956619
 20
211.5483904398345
 11
201.3510234856517
 21
212.2150571381661
 72
     1
 10
201.3510234856517
 20
212.2150571381661
 11
197.3510232956619
 21
212.8817238364977
 72
     1
 10
197.3510232956619
 20
212.8817238364977
 11
197.3510232956619
 21
211.5483904398345
 97
        0
 75
     0
 76
     1
 98
        0
  0
LWPOLYLINE
  5
3EC
330
3E9
100
AcDbEntity
  8
Default
  6
Continuous
 62
     7
 48
25.4
370
    20
100
AcDbPolyline
 90
        4
 70
     1
 43
0.00025
 10
197.3510232957
 20
211.5483904398
 10
201.3510234857
 20
212.2150571382
 10
197.3510232957
 20
212.8817238365
 10
197.3510232957
 20
211.5483904398
  0
HATCH
  5
3ED
330
3E9
100
AcDbEntity
  8
Default
  6
Continuous
 62
     7
 48
25.4
100
AcDbHatch
 10
0.0
 20
0.0
 30
0.0
210
0.0
220
0.0
230
1.0
  2
SOLID
 70
     1
 71
     0
 91
        1
 92
        1
 93
        3
 72
     1
 10
214.1010236756415
 20
211.5483904398345
 11
214.1010236756415
 21
212.8817238364977
 72
     1
 10
214.1010236756415
 20
212.8817238364977
 11
210.1010234856517
 21
212.2150571381661
 72
     1
 10
210.1010234856517
 20
212.2150571381661
 11
214.1010236756415
 21
211.5483904398345
 97
        0
 75
     0
 76
     1
 98
        0
  0
LWPOLYLINE
  5
3EE
330
3E9
100
AcDbEntity
  8
Default
  6
Continuous
 62
     7
 48
25.4
370
    20
100
AcDbPolyline
 90
        4
 70
     1
 43
0.00025
 10
214.1010236756
 20
211.5483904398
 10
210.1010234857
 20
212.2150571382
 10
214.1010236756
 20
212.8817238365
 10
214.1010236756
 20
211.5483904398
  0
LINE
  5
3EF
330
3E9
100
AcDbEntity
  8
Default
  6
Continuous
 62
     7
 48
25.4
100
AcDbLine
 10
201.3510234857
 20
229.9120249523
 30
0.0
 11
201.3510234857
 21
210.2150570432
 31
0.0
  0
LINE
  5
3F0
330
3E9
100
AcDbEntity
  8
Default
  6
Continuous
 62
     7
 48
25.4
100
AcDbLine
 10
210.1010234857
 20
229.9120249605
 30
0.0
 11
210.1010234857
 21
210.2150570432
 31
0.0
  0
LINE
  5
3F1
330
3E9
100
AcDbEntity
  8
Default
  6
Continuous
 62
     7
 48
25.4
100
AcDbLine
 10
193.3510231057
 20
212.2150571382
 30
0.0
 11
218.1010239029
 21
212.2150571382
 31
0.0
  0
TEXT
  5
3F2
330
3E9
100
AcDbEntity
  8
Default
  6
Continuous
 62
     7
 48
25.4
100
AcDbText
 10
202.5955887217
 20
213.2150571382
 30
0.0
 40
4.0
  1
25
  7
SEACAD_arial_ttf
 11
202.5955887217
 21
217.2150571382
 31
0.0
100
AcDbText
 73
     3
  0
ENDBLK
  5
3F4
330
3E9
100
AcDbEntity
  8
0
100
AcDbBlockEnd
  0
BLOCK
  5
400
330
3F5
100
AcDbEntity
  8
0
100
AcDbBlockBegin
  2
GDimGGroup25
 70
     0
 71
     0
 10
0.0
 20
0.0
 30
0.0
  3
GDimGGroup25
  1

  0
HATCH
  5
3F7
330
3F5
100
AcDbEntity
  8
Default
  6
Continuous
 62
     7
 48
25.4
100
AcDbHatch
 10
0.0
 20
0.0
 30
0.0
210
0.0
220
0.0
230
1.0
  2
SOLID
 70
     1
 71
     0
 91
        1
 92
        1
 93
        3
 72
     1
 10
223.6682205818753
 20
238.5120247704896
 11
223.0015538835437
 21
242.5120249604794
 72
     1
 10
223.0015538835437
 20
242.5120249604794
 11
222.334887185212
 21
238.5120247704896
 72
     1
 10
222.334887185212
 20
238.5120247704896
 11
223.6682205818753
 21
238.5120247704896
 97
        0
 75
     0
 76
     1
 98
        0
  0
LWPOLYLINE
  5
3F8
330
3F5
100
AcDbEntity
  8
Default
  6
Continuous
 62
     7
 48
25.4
370
    20
100
AcDbPolyline
 90
        4
 70
     1
 43
0.00025
 10
223.6682205819
 20
238.5120247705
 10
223.0015538835
 20
242.5120249605
 10
222.3348871852
 20
238.5120247705
 10
223.6682205819
 20
238.5120247705
  0
HATCH
  5
3F9
330
3F5
100
AcDbEntity
  8
Default
  6
Continuous
 62
     7
 48
25.4
100
AcDbHatch
 10
0.0
 20
0.0
 30
0.0
210
0.0
220
0.0
230
1.0
  2
SOLID
 70
     1
 71
     0
 91
        1
 92
        1
 93
        3
 72
     1
 10
223.6682205818753
 20
233.9120251340779
 11
222.334887185212
 21
233.9120251340779
 72
     1
 10
222.334887185212
 20
233.9120251340779
 11
223.0015538835437
 21
229.9120249440881
 72
     1
 10
223.0015538835437
 20
229.9120249440881
 11
223.6682205818753
 21
233.9120251340779
 97
        0
 75
     0
 76
     1
 98
        0
  0
LWPOLYLINE
  5
3FA
330
3F5
100
AcDbEntity
  8
Default
  6
Continuous
 62
     7
 48
25.4
370
    20
100
AcDbPolyline
 90
        4
 70
     1
 43
0.00025
 10
223.6682205819
 20
233.9120251341
 10
223.0015538835
 20
229.9120249441
 10
222.3348871852
 20
233.9120251341
 10
223.6682205819
 20
233.9120251341
  0
LINE
  5
3FB
330
3F5
100
AcDbEntity
  8
Default
  6
Continuous
 62
     7
 48
25.4
100
AcDbLine
 10
210.1010235229
 20
242.5120249605
 30
0.0
 11
225.0015539785
 21
242.5120249605
 31
0.0
  0
LINE
  5
3FC
330
3F5
100
AcDbEntity
  8
Default
  6
Continuous
 62
     7
 48
25.4
100
AcDbLine
 10
210.1010234857
 20
229.9120249605
 30
0.0
 11
225.0015539785
 21
229.9120249605
 31
0.0
  0
LINE
  5
3FD
330
3F5
100
AcDbEntity
  8
Default
  6
Continuous
 62
     7
 48
25.4
100
AcDbLine
 10
223.0015538835
 20
259.5656737899
 30
0.0
 11
223.0015538835
 21
229.9120249441
 31
0.0
  0
TEXT
  5
3FE
330
3F5
100
AcDbEntity
  8
Default
  6
Continuous
 62
     7
 48
25.4
100
AcDbText
 10
222.0015538835
 20
251.9048035911
 30
0.0
 40
4.0
  1
36
 50
90.0
  7
SEACAD_arial_ttf
 11
218.0015538835
 21
251.9048035911
 31
0.0
100
AcDbText
 73
     3
  0
TEXT
  5
3FF
330
3F5
100
AcDbEntity
  8
Default
  6
Continuous
 62
     7
 48
25.4
100
AcDbText
 10
222.0015538835
 20
244.5434000824
 30
0.0
 40
4.0
  1
O
 50
90.0
  7
SEACAD_semeca1_ttf
 11
218.0015538835
 21
244.5434000824
 31
0.0
100
AcDbText
 73
     3
  0
ENDBLK
  5
401
330
3F5
100
AcDbEntity
  8
0
100
AcDbBlockEnd
  0
BLOCK
  5
40C
330
402
100
AcDbEntity
  8
0
100
AcDbBlockBegin
  2
GDimGGroup26
 70
     0
 71
     0
 10
0.0
 20
0.0
 30
0.0
  3
GDimGGroup26
  1

  0
HATCH
  5
404
330
402
100
AcDbEntity
  8
Default
  6
Continuous
 62
     7
 48
25.4
100
AcDbHatch
 10
0.0
 20
0.0
 30
0.0
210
0.0
220
0.0
230
1.0
  2
SOLID
 70
     1
 71
     0
 91
        1
 92
        1
 93
        3
 72
     1
 10
157.7510236756415
 20
265.3962540579699
 11
157.7510236756415
 21
266.7295874546332
 72
     1
 10
157.7510236756415
 20
266.7295874546332
 11
153.7510234856517
 21
266.0629207563015
 72
     1
 10
153.7510234856517
 20
266.0629207563015
 11
157.7510236756415
 21
265.3962540579699
 97
        0
 75
     0
 76
     1
 98
        0
  0
LWPOLYLINE
  5
405
330
402
100
AcDbEntity
  8
Default
  6
Continuous
 62
     7
 48
25.4
370
    20
100
AcDbPolyline
 90
        4
 70
     1
 43
0.00025
 10
157.7510236756
 20
265.396254058
 10
153.7510234857
 20
266.0629207563
 10
157.7510236756
 20
266.7295874546
 10
157.7510236756
 20
265.396254058
  0
HATCH
  5
406
330
402
100
AcDbEntity
  8
Default
  6
Continuous
 62
     7
 48
25.4
100
AcDbHatch
 10
0.0
 20
0.0
 30
0.0
210
0.0
220
0.0
230
1.0
  2
SOLID
 70
     1
 71
     0
 91
        1
 92
        1
 93
        3
 72
     1
 10
163.0510230542631
 20
265.3962540579699
 11
167.0510232442529
 21
266.0629207563015
 72
     1
 10
167.0510232442529
 20
266.0629207563015
 11
163.0510230542631
 21
266.7295874546332
 72
     1
 10
163.0510230542631
 20
266.7295874546332
 11
163.0510230542631
 21
265.3962540579699
 97
        0
 75
     0
 76
     1
 98
        0
  0
LWPOLYLINE
  5
407
330
402
100
AcDbEntity
  8
Default
  6
Continuous
 62
     7
 48
25.4
370
    20
100
AcDbPolyline
 90
        4
 70
     1
 43
0.00025
 10
163.0510230543
 20
265.396254058
 10
167.0510232443
 20
266.0629207563
 10
163.0510230543
 20
266.7295874546
 10
163.0510230543
 20
265.396254058
  0
LINE
  5
408
330
402
100
AcDbEntity
  8
Default
  6
Continuous
 62
     7
 48
25.4
100
AcDbLine
 10
128.7172086531
 20
266.0629207563
 30
0.0
 11
167.0510232443
 21
266.0629207563
 31
0.0
  0
TEXT
  5
409
330
402
100
AcDbEntity
  8
Default
  6
Continuous
 62
     7
 48
25.4
100
AcDbText
 10
144.8302516611
 20
273.0629207563
 30
0.0
 40
4.0
  1
38
  7
SEACAD_arial_ttf
 11
144.8302516611
 21
277.0629207563
 31
0.0
100
AcDbText
 73
     3
  0
TEXT
  5
40A
330
402
100
AcDbEntity
  8
Default
  6
Continuous
 62
     7
 48
25.4
100
AcDbText
 10
130.1172081828
 20
273.0629207563
 30
0.0
 40
4.0
  1
MAX
  7
SEACAD_arial_ttf
 11
130.1172081828
 21
277.0629207563
 31
0.0
100
AcDbText
 73
     3
  0
TEXT
  5
40B
330
402
100
AcDbEntity
  8
Default
  6
Continuous
 62
     7
 48
25.4
100
AcDbText
 10
130.1172081828
 20
267.0629207563
 30
0.0
 40
4.0
  1
MIN 15
  7
SEACAD_arial_ttf
 11
130.1172081828
 21
271.0629207563
 31
0.0
100
AcDbText
 73
     3
  0
ENDBLK
  5
40D
330
402
100
AcDbEntity
  8
0
100
AcDbBlockEnd
  0
BLOCK
  5
416
330
40E
100
AcDbEntity
  8
0
100
AcDbBlockBegin
  2
GDimGGroup27
 70
     0
 71
     0
 10
0.0
 20
0.0
 30
0.0
  3
GDimGGroup27
  1

  0
HATCH
  5
410
330
40E
100
AcDbEntity
  8
Default
  6
Continuous
 62
     7
 48
25.4
100
AcDbHatch
 10
0.0
 20
0.0
 30
0.0
210
0.0
220
0.0
230
1.0
  2
SOLID
 70
     1
 71
     0
 91
        1
 92
        1
 93
        3
 72
     1
 10
171.0510236756415
 20
312.4990138960741
 11
171.0510236756415
 21
313.8323472927374
 72
     1
 10
171.0510236756415
 20
313.8323472927374
 11
167.0510234856517
 21
313.1656805944058
 72
     1
 10
167.0510234856517
 20
313.1656805944058
 11
171.0510236756415
 21
312.4990138960741
 97
        0
 75
     0
 76
     1
 98
        0
  0
LWPOLYLINE
  5
411
330
40E
100
AcDbEntity
  8
Default
  6
Continuous
 62
     7
 48
25.4
370
    20
100
AcDbPolyline
 90
        4
 70
     1
 43
0.00025
 10
171.0510236756
 20
312.4990138961
 10
167.0510234857
 20
313.1656805944
 10
171.0510236756
 20
313.8323472927
 10
171.0510236756
 20
312.4990138961
  0
HATCH
  5
412
330
40E
100
AcDbEntity
  8
Default
  6
Continuous
 62
     7
 48
25.4
100
AcDbHatch
 10
0.0
 20
0.0
 30
0.0
210
0.0
220
0.0
230
1.0
  2
SOLID
 70
     1
 71
     0
 91
        1
 92
        1
 93
        3
 72
     1
 10
176.7010233910293
 20
312.4990138960741
 11
180.7010235810191
 21
313.1656805944058
 72
     1
 10
180.7010235810191
 20
313.1656805944058
 11
176.7010233910293
 21
313.8323472927374
 72
     1
 10
176.7010233910293
 20
313.8323472927374
 11
176.7010233910293
 21
312.4990138960741
 97
        0
 75
     0
 76
     1
 98
        0
  0
LWPOLYLINE
  5
413
330
40E
100
AcDbEntity
  8
Default
  6
Continuous
 62
     7
 48
25.4
370
    20
100
AcDbPolyline
 90
        4
 70
     1
 43
0.00025
 10
176.701023391
 20
312.4990138961
 10
180.701023581
 20
313.1656805944
 10
176.701023391
 20
313.8323472927
 10
176.701023391
 20
312.4990138961
  0
LINE
  5
414
330
40E
100
AcDbEntity
  8
Default
  6
Continuous
 62
     7
 48
25.4
100
AcDbLine
 10
142.3881544346
 20
313.1656805944
 30
0.0
 11
180.701023581
 21
313.1656805944
 31
0.0
  0
TEXT
  5
415
330
40E
100
AcDbEntity
  8
Default
  6
Continuous
 62
     7
 48
25.4
100
AcDbText
 10
143.7881547941
 20
314.1656805944
 30
0.0
 40
4.0
  1
39
  7
SEACAD_arial_ttf
 11
143.7881547941
 21
318.1656805944
 31
0.0
100
AcDbText
 73
     3
  0
ENDBLK
  5
417
330
40E
100
AcDbEntity
  8
0
100
AcDbBlockEnd
  0
BLOCK
  5
424
330
418
100
AcDbEntity
  8
0
100
AcDbBlockBegin
  2
GDimGGroup28
 70
     0
 71
     0
 10
0.0
 20
0.0
 30
0.0
  3
GDimGGroup28
  1

  0
HATCH
  5
41A
330
418
100
AcDbEntity
  8
Default
  6
Continuous
 62
     7
 48
25.4
100
AcDbHatch
 10
0.0
 20
0.0
 30
0.0
210
0.0
220
0.0
230
1.0
  2
SOLID
 70
     1
 71
     0
 91
        1
 92
        1
 93
        3
 72
     1
 10
78.24123925969948
 20
357.3254016454213
 11
78.30880702335942
 21
353.2707893823441
 72
     1
 10
78.30880702335942
 20
353.270789382344
 11
79.55990095386835
 21
357.1281472842798
 72
     1
 10
79.55990095386835
 20
357.1281472842798
 11
78.24123925969948
 21
357.3254016454213
 97
        0
 75
     0
 76
     1
 98
        0
  0
LWPOLYLINE
  5
41B
330
418
100
AcDbEntity
  8
Default
  6
Continuous
 62
     7
 48
25.4
370
    20
100
AcDbPolyline
 90
        4
 70
     1
 43
0.00025
 10
78.2412392597
 20
357.3254016454
 10
78.3088070234
 20
353.2707893823
 10
79.5599009539
 20
357.1281472843
 10
78.2412392597
 20
357.3254016454
  0
HATCH
  5
41C
330
418
100
AcDbEntity
  8
Default
  6
Continuous
 62
     7
 48
25.4
100
AcDbHatch
 10
0.0
 20
0.0
 30
0.0
210
0.0
220
0.0
230
1.0
  2
SOLID
 70
     1
 71
     0
 91
        1
 92
        1
 93
        3
 72
     1
 10
78.51392394175527
 20
340.026574224525
 11
77.74224914549893
 21
344.0076499604794
 72
     1
 10
77.74224914549893
 20
344.0076499604794
 11
77.18105209245887
 21
339.9914946006555
 72
     1
 10
77.18105209245887
 20
339.9914946006555
 11
78.51392394175527
 21
340.026574224525
 97
        0
 75
     0
 76
     1
 98
        0
  0
LWPOLYLINE
  5
41D
330
418
100
AcDbEntity
  8
Default
  6
Continuous
 62
     7
 48
25.4
370
    20
100
AcDbPolyline
 90
        4
 70
     1
 43
0.00025
 10
78.5139239418
 20
340.0265742245
 10
77.7422491455
 20
344.0076499605
 10
77.1810520925
 20
339.9914946007
 10
78.5139239418
 20
340.0265742245
  0
LINE
  5
41E
330
418
100
AcDbEntity
  8
Default
  6
Continuous
 62
     7
 48
25.4
100
AcDbLine
 10
161.1010235162
 20
343.1051834341
 30
0.0
 11
76.3237180922
 21
353.5145276551
 31
0.0
  0
LINE
  5
41F
330
418
100
AcDbEntity
  8
Default
  6
Continuous
 62
     7
 48
25.4
100
AcDbLine
 10
153.7510234857
 20
344.0076499605
 30
0.0
 11
75.742252543
 21
344.0076499605
 31
0.0
  0
ARC
  5
420
330
418
100
AcDbEntity
  8
Default
  6
Continuous
 62
     7
 48
25.4
100
AcDbCircle
 10
153.7510234857
 20
344.0076499605
 30
0.0
 40
76.0087743401528
100
AcDbArc
 50
166.9695615219
 51
180.0000000525
  0
ARC
  5
421
330
418
100
AcDbEntity
  8
Default
  6
Continuous
 62
     7
 48
25.4
100
AcDbCircle
 10
153.7510234857
 20
344.0076499605
 30
0.0
 40
76.00877434015591
100
AcDbArc
 50
180.0
 51
186.0304384781
  0
TEXT
  5
422
330
418
100
AcDbEntity
  8
Default
  6
Continuous
 62
     7
 48
25.4
100
AcDbText
 10
76.2562897904
 20
338.415115592
 30
0.0
 40
4.0
  1
7°
 50
86.5
  7
SEACAD_arial_ttf
 11
72.2637505967
 21
338.6593097502
 31
0.0
100
AcDbText
 73
     3
  0
TEXT
  5
423
330
418
100
AcDbEntity
  8
Default
  6
Continuous
 62
     7
 48
25.4
100
AcDbText
 10
76.7563569577
 20
346.5911415061
 30
0.0
 40
4.0
  1
7'30"
 50
86.5
  7
SEACAD_arial_ttf
 11
72.7638177641
 21
346.8353356642
 31
0.0
100
AcDbText
 73
     3
  0
ENDBLK
  5
425
330
418
100
AcDbEntity
  8
0
100
AcDbBlockEnd
  0
BLOCK
  5
42F
330
426
100
AcDbEntity
  8
0
100
AcDbBlockBegin
  2
GDimGGroup29
 70
     0
 71
     0
 10
0.0
 20
0.0
 30
0.0
  3
GDimGGroup29
  1

  0
LINE
  5
428
330
426
100
AcDbEntity
  8
Default
  6
Continuous
 62
     7
 48
25.4
100
AcDbLine
 10
438.1073823711
 20
290.5192435773
 30
0.0
 11
384.913118317
 21
313.0908312952
 31
0.0
  0
HATCH
  5
429
330
426
100
AcDbEntity
  8
Default
  6
Continuous
 62
     7
 48
25.4
100
AcDbHatch
 10
0.0
 20
0.0
 30
0.0
210
0.0
220
0.0
230
1.0
  2
SOLID
 70
     1
 71
     0
 91
        1
 92
        1
 93
        3
 72
     1
 10
388.3349297372584
 20
310.9146746308805
 11
388.8557474473976
 21
312.1420811892234
 72
     1
 10
388.8557474473977
 20
312.1420811892234
 11
384.9131189172996
 21
313.0908310404696
 72
     1
 10
384.9131189172996
 20
313.0908310404696
 11
388.3349297372585
 21
310.9146746308805
 97
        0
 75
     0
 76
     1
 98
        0
  0
LWPOLYLINE
  5
42A
330
426
100
AcDbEntity
  8
Default
  6
Continuous
 62
     7
 48
25.4
370
    20
100
AcDbPolyline
 90
        4
 70
     1
 43
0.00025
 10
388.3349297373
 20
310.9146746309
 10
384.9131189173
 20
313.0908310405
 10
388.8557474474
 20
312.1420811892
 10
388.3349297373
 20
310.9146746309
  0
ARC
  5
42B
330
426
100
AcDbEntity
  8
Default
  6
Continuous
 62
     7
 48
25.4
100
AcDbCircle
 10
438.1073823711
 20
290.5192435773
 30
0.0
 40
57.78500000000411
100
AcDbArc
 50
155.0242685775
 51
162.9176644597
  0
TEXT
  5
42C
330
426
100
AcDbEntity
  8
Default
  6
Continuous
 62
     7
 48
25.4
100
AcDbText
 10
387.5500806929
 20
313.0582069708
 30
0.0
 40
4.0
  1
R
 50
337.0073361388
  7
SEACAD_arial_ttf
 11
389.1125337491
 21
316.740426471
 31
0.0
100
AcDbText
 73
     3
  0
TEXT
  5
42D
330
426
100
AcDbEntity
  8
Default
  6
Continuous
 62
     7
 48
25.4
100
AcDbText
 10
393.4416318931
 20
310.5582820809
 30
0.0
 40
4.0
  1
165.1
 50
337.0073361388
  7
SEACAD_arial_ttf
 11
395.0040849493
 21
314.240501581
 31
0.0
100
AcDbText
 73
     3
  0
TEXT
  5
42E
330
426
100
AcDbEntity
  8
Default
  6
Continuous
 62
     7
 48
25.4
100
AcDbText
 10
408.2505581436
 20
304.2745034853
 30
0.0
 40
4.0
  1
±0.2
 50
337.0073361388
  7
SEACAD_arial_ttf
 11
409.8130111998
 21
307.9567229854
 31
0.0
100
AcDbText
 73
     3
  0
ENDBLK
  5
430
330
426
100
AcDbEntity
  8
0
100
AcDbBlockEnd
  0
BLOCK
  5
43B
330
431
100
AcDbEntity
  8
0
100
AcDbBlockBegin
  2
GDimGGroup30
 70
     0
 71
     0
 10
0.0
 20
0.0
 30
0.0
  3
GDimGGroup30
  1

  0
HATCH
  5
433
330
431
100
AcDbEntity
  8
Default
  6
Continuous
 62
     7
 48
25.4
100
AcDbHatch
 10
0.0
 20
0.0
 30
0.0
210
0.0
220
0.0
230
1.0
  2
SOLID
 70
     1
 71
     0
 91
        1
 92
        1
 93
        3
 72
     1
 10
137.8510232956619
 20
175.8071353948973
 11
141.8510234856517
 21
176.4738020932289
 72
     1
 10
141.8510234856517
 20
176.4738020932289
 11
137.8510232956619
 21
177.1404687915606
 72
     1
 10
137.8510232956619
 20
177.1404687915606
 11
137.8510232956619
 21
175.8071353948973
 97
        0
 75
     0
 76
     1
 98
        0
  0
LWPOLYLINE
  5
434
330
431
100
AcDbEntity
  8
Default
  6
Continuous
 62
     7
 48
25.4
370
    20
100
AcDbPolyline
 90
        4
 70
     1
 43
0.00025
 10
137.8510232957
 20
175.8071353949
 10
141.8510234857
 20
176.4738020932
 10
137.8510232957
 20
177.1404687916
 10
137.8510232957
 20
175.8071353949
  0
HATCH
  5
435
330
431
100
AcDbEntity
  8
Default
  6
Continuous
 62
     7
 48
25.4
100
AcDbHatch
 10
0.0
 20
0.0
 30
0.0
210
0.0
220
0.0
230
1.0
  2
SOLID
 70
     1
 71
     0
 91
        1
 92
        1
 93
        3
 72
     1
 10
157.7510236756415
 20
175.8071353948973
 11
157.7510236756415
 21
177.1404687915606
 72
     1
 10
157.7510236756415
 20
177.1404687915606
 11
153.7510234856517
 21
176.4738020932289
 72
     1
 10
153.7510234856517
 20
176.4738020932289
 11
157.7510236756415
 21
175.8071353948973
 97
        0
 75
     0
 76
     1
 98
        0
  0
LWPOLYLINE
  5
436
330
431
100
AcDbEntity
  8
Default
  6
Continuous
 62
     7
 48
25.4
370
    20
100
AcDbPolyline
 90
        4
 70
     1
 43
0.00025
 10
157.7510236756
 20
175.8071353949
 10
153.7510234857
 20
176.4738020932
 10
157.7510236756
 20
177.1404687916
 10
157.7510236756
 20
175.8071353949
  0
LINE
  5
437
330
431
100
AcDbEntity
  8
Default
  6
Continuous
 62
     7
 48
25.4
100
AcDbLine
 10
141.8510234857
 20
232.7120249605
 30
0.0
 11
141.8510234857
 21
174.4738019982
 31
0.0
  0
LINE
  5
438
330
431
100
AcDbEntity
  8
Default
  6
Continuous
 62
     7
 48
25.4
100
AcDbLine
 10
153.7510234857
 20
228.1970249605
 30
0.0
 11
153.7510234857
 21
174.4738019982
 31
0.0
  0
LINE
  5
439
330
431
100
AcDbEntity
  8
Default
  6
Continuous
 62
     7
 48
25.4
100
AcDbLine
 10
133.8510231057
 20
176.4738020932
 30
0.0
 11
161.7510232085
 21
176.4738020932
 31
0.0
  0
TEXT
  5
43A
330
431
100
AcDbEntity
  8
Default
  6
Continuous
 62
     7
 48
25.4
100
AcDbText
 10
144.6705888401
 20
177.4738020932
 30
0.0
 40
4.0
  1
34
  7
SEACAD_arial_ttf
 11
144.6705888401
 21
181.4738020932
 31
0.0
100
AcDbText
 73
     3
  0
ENDBLK
  5
43C
330
431
100
AcDbEntity
  8
0
100
AcDbBlockEnd
  0
BLOCK
  5
447
330
43D
100
AcDbEntity
  8
0
100
AcDbBlockBegin
  2
GDimGGroup31
 70
     0
 71
     0
 10
0.0
 20
0.0
 30
0.0
  3
GDimGGroup31
  1

  0
HATCH
  5
43F
330
43D
100
AcDbEntity
  8
Default
  6
Continuous
 62
     7
 48
25.4
100
AcDbHatch
 10
0.0
 20
0.0
 30
0.0
210
0.0
220
0.0
230
1.0
  2
SOLID
 70
     1
 71
     0
 91
        1
 92
        1
 93
        3
 72
     1
 10
157.7510236756415
 20
175.807135082569
 11
157.7510236756415
 21
177.1404684792322
 72
     1
 10
157.7510236756415
 20
177.1404684792322
 11
153.7510234856517
 21
176.4738017809006
 72
     1
 10
153.7510234856517
 20
176.4738017809006
 11
157.7510236756415
 21
175.807135082569
 97
        0
 75
     0
 76
     1
 98
        0
  0
LWPOLYLINE
  5
440
330
43D
100
AcDbEntity
  8
Default
  6
Continuous
 62
     7
 48
25.4
370
    20
100
AcDbPolyline
 90
        4
 70
     1
 43
0.00025
 10
157.7510236756
 20
175.8071350826
 10
153.7510234857
 20
176.4738017809
 10
157.7510236756
 20
177.1404684792
 10
157.7510236756
 20
175.8071350826
  0
HATCH
  5
441
330
43D
100
AcDbEntity
  8
Default
  6
Continuous
 62
     7
 48
25.4
100
AcDbHatch
 10
0.0
 20
0.0
 30
0.0
210
0.0
220
0.0
230
1.0
  2
SOLID
 70
     1
 71
     0
 91
        1
 92
        1
 93
        3
 72
     1
 10
206.1010234983177
 20
175.807135082569
 11
210.1010236883075
 21
176.4738017809006
 72
     1
 10
210.1010236883075
 20
176.4738017809006
 11
206.1010234983177
 21
177.1404684792322
 72
     1
 10
206.1010234983177
 20
177.1404684792322
 11
206.1010234983177
 21
175.807135082569
 97
        0
 75
     0
 76
     1
 98
        0
  0
LWPOLYLINE
  5
442
330
43D
100
AcDbEntity
  8
Default
  6
Continuous
 62
     7
 48
25.4
370
    20
100
AcDbPolyline
 90
        4
 70
     1
 43
0.00025
 10
206.1010234983
 20
175.8071350826
 10
210.1010236883
 20
176.4738017809
 10
206.1010234983
 20
177.1404684792
 10
206.1010234983
 20
175.8071350826
  0
LINE
  5
443
330
43D
100
AcDbEntity
  8
Default
  6
Continuous
 62
     7
 48
25.4
100
AcDbLine
 10
153.7510234857
 20
228.1970249605
 30
0.0
 11
153.7510234857
 21
174.4738016859
 31
0.0
  0
LINE
  5
444
330
43D
100
AcDbEntity
  8
Default
  6
Continuous
 62
     7
 48
25.4
100
AcDbLine
 10
210.1010234857
 20
202.2970249605
 30
0.0
 11
210.1010234857
 21
174.4738016859
 31
0.0
  0
LINE
  5
445
330
43D
100
AcDbEntity
  8
Default
  6
Continuous
 62
     7
 48
25.4
100
AcDbLine
 10
153.7510234857
 20
176.4738017809
 30
0.0
 11
210.1010236883
 21
176.4738017809
 31
0.0
  0
TEXT
  5
446
330
43D
100
AcDbEntity
  8
Default
  6
Continuous
 62
     7
 48
25.4
100
AcDbText
 10
177.2303714131
 20
177.4738017809
 30
0.0
 40
4.0
  1
161
  7
SEACAD_arial_ttf
 11
177.2303714131
 21
181.4738017809
 31
0.0
100
AcDbText
 73
     3
  0
ENDBLK
  5
448
330
43D
100
AcDbEntity
  8
0
100
AcDbBlockEnd
  0
BLOCK
  5
453
330
449
100
AcDbEntity
  8
0
100
AcDbBlockBegin
  2
GDimGGroup32
 70
     0
 71
     0
 10
0.0
 20
0.0
 30
0.0
  3
GDimGGroup32
  1

  0
HATCH
  5
44B
330
449
100
AcDbEntity
  8
Default
  6
Continuous
 62
     7
 48
25.4
100
AcDbHatch
 10
0.0
 20
0.0
 30
0.0
210
0.0
220
0.0
230
1.0
  2
SOLID
 70
     1
 71
     0
 91
        1
 92
        1
 93
        3
 72
     1
 10
214.1010236756415
 20
400.9678280065818
 11
210.1010234856517
 21
400.3011613082501
 72
     1
 10
210.1010234856517
 20
400.3011613082501
 11
214.1010236756415
 21
399.6344946099185
 72
     1
 10
214.1010236756415
 20
399.6344946099185
 11
214.1010236756415
 21
400.9678280065818
 97
        0
 75
     0
 76
     1
 98
        0
  0
LWPOLYLINE
  5
44C
330
449
100
AcDbEntity
  8
Default
  6
Continuous
 62
     7
 48
25.4
370
    20
100
AcDbPolyline
 90
        4
 70
     1
 43
0.00025
 10
214.1010236756
 20
400.9678280066
 10
210.1010234857
 20
400.3011613083
 10
214.1010236756
 20
399.6344946099
 10
214.1010236756
 20
400.9678280066
  0
HATCH
  5
44D
330
449
100
AcDbEntity
  8
Default
  6
Continuous
 62
     7
 48
25.4
100
AcDbHatch
 10
0.0
 20
0.0
 30
0.0
210
0.0
220
0.0
230
1.0
  2
SOLID
 70
     1
 71
     0
 91
        1
 92
        1
 93
        3
 72
     1
 10
231.6510236652107
 20
400.9678280065818
 11
231.6510236652107
 21
399.6344946099185
 72
     1
 10
231.6510236652107
 20
399.6344946099185
 11
235.6510238552005
 21
400.3011613082501
 72
     1
 10
235.6510238552005
 20
400.3011613082501
 11
231.6510236652107
 21
400.9678280065818
 97
        0
 75
     0
 76
     1
 98
        0
  0
LWPOLYLINE
  5
44E
330
449
100
AcDbEntity
  8
Default
  6
Continuous
 62
     7
 48
25.4
370
    20
100
AcDbPolyline
 90
        4
 70
     1
 43
0.00025
 10
231.6510236652
 20
400.9678280066
 10
235.6510238552
 20
400.3011613083
 10
231.6510236652
 20
399.6344946099
 10
231.6510236652
 20
400.9678280066
  0
LINE
  5
44F
330
449
100
AcDbEntity
  8
Default
  6
Continuous
 62
     7
 48
25.4
100
AcDbLine
 10
210.1010234857
 20
385.6970249605
 30
0.0
 11
210.1010234857
 21
402.3011614032
 31
0.0
  0
LINE
  5
450
330
449
100
AcDbEntity
  8
Default
  6
Continuous
 62
     7
 48
25.4
100
AcDbLine
 10
235.6510234857
 20
388.4970249605
 30
0.0
 11
235.6510234857
 21
402.3011614032
 31
0.0
  0
LINE
  5
451
330
449
100
AcDbEntity
  8
Default
  6
Continuous
 62
     7
 48
25.4
100
AcDbLine
 10
210.1010234857
 20
400.3011613083
 30
0.0
 11
235.6510238552
 21
400.3011613083
 31
0.0
  0
TEXT
  5
452
330
449
100
AcDbEntity
  8
Default
  6
Continuous
 62
     7
 48
25.4
100
AcDbText
 10
219.7455888878
 20
401.3011613083
 30
0.0
 40
4.0
  1
73
  7
SEACAD_arial_ttf
 11
219.7455888878
 21
405.3011613083
 31
0.0
100
AcDbText
 73
     3
  0
ENDBLK
  5
454
330
449
100
AcDbEntity
  8
0
100
AcDbBlockEnd
  0
ENDSEC
  0
SECTION
  2
ENTITIES
  0
INSERT
  5
2C
330
1F
100
AcDbEntity
  8
Default
100
AcDbBlockReference
  2
SEANNOT_GROUP
 10
0.0
 20
0.0
 30
0.0
  0
INSERT
  5
37
330
1F
100
AcDbEntity
  8
Default
100
AcDbBlockReference
  2
SEANNOT_GROUP1
 10
0.0
 20
0.0
 30
0.0
  0
INSERT
  5
40
330
1F
100
AcDbEntity
  8
Default
100
AcDbBlockReference
  2
SEANNOT_GROUP2
 10
0.0
 20
0.0
 30
0.0
  0
INSERT
  5
49
330
1F
100
AcDbEntity
  8
Default
100
AcDbBlockReference
  2
SEANNOT_GROUP3
 10
0.0
 20
0.0
 30
0.0
  0
INSERT
  5
52
330
1F
100
AcDbEntity
  8
Default
100
AcDbBlockReference
  2
SEANNOT_GROUP4
 10
0.0
 20
0.0
 30
0.0
  0
INSERT
  5
5D
330
1F
100
AcDbEntity
  8
Default
100
AcDbBlockReference
  2
SE
 10
0.0
 20
0.0
 30
0.0
  0
INSERT
  5
150
330
1F
100
AcDbEntity
  8
Default
100
AcDbBlockReference
  2
SE1
 10
0.0
 20
0.0
 30
0.0
  0
INSERT
  5
1F0
330
1F
100
AcDbEntity
  8
Default
100
AcDbBlockReference
  2
SE2
 10
0.0
 20
0.0
 30
0.0
  0
INSERT
  5
2C2
330
1F
100
AcDbEntity
  8
Default
100
AcDbBlockReference
  2
GDimGGroup
 10
0.0
 20
0.0
 30
0.0
  0
INSERT
  5
2CE
330
1F
100
AcDbEntity
  8
Default
100
AcDbBlockReference
  2
GDimGGroup1
 10
0.0
 20
0.0
 30
0.0
  0
INSERT
  5
2DB
330
1F
100
AcDbEntity
  8
Default
100
AcDbBlockReference
  2
GDimGGroup2
 10
0.0
 20
0.0
 30
0.0
  0
INSERT
  5
2E6
330
1F
100
AcDbEntity
  8
Default
100
AcDbBlockReference
  2
GDimGGroup3
 10
0.0
 20
0.0
 30
0.0
  0
INSERT
  5
2F2
330
1F
100
AcDbEntity
  8
Default
100
AcDbBlockReference
  2
GDimGGroup4
 10
0.0
 20
0.0
 30
0.0
  0
INSERT
  5
2FE
330
1F
100
AcDbEntity
  8
Default
100
AcDbBlockReference
  2
GDimGGroup5
 10
0.0
 20
0.0
 30
0.0
  0
INSERT
  5
30A
330
1F
100
AcDbEntity
  8
Default
100
AcDbBlockReference
  2
GDimGGroup6
 10
0.0
 20
0.0
 30
0.0
  0
INSERT
  5
316
330
1F
100
AcDbEntity
  8
Default
100
AcDbBlockReference
  2
GDimGGroup7
 10
0.0
 20
0.0
 30
0.0
  0
INSERT
  5
322
330
1F
100
AcDbEntity
  8
Default
100
AcDbBlockReference
  2
GDimGGroup8
 10
0.0
 20
0.0
 30
0.0
  0
INSERT
  5
32E
330
1F
100
AcDbEntity
  8
Default
100
AcDbBlockReference
  2
GDimGGroup9
 10
0.0
 20
0.0
 30
0.0
  0
INSERT
  5
33A
330
1F
100
AcDbEntity
  8
Default
100
AcDbBlockReference
  2
GDimGGroup10
 10
0.0
 20
0.0
 30
0.0
  0
INSERT
  5
347
330
1F
100
AcDbEntity
  8
Default
100
AcDbBlockReference
  2
GDimGGroup11
 10
0.0
 20
0.0
 30
0.0
  0
INSERT
  5
355
330
1F
100
AcDbEntity
  8
Default
100
AcDbBlockReference
  2
GDimGGroup12
 10
0.0
 20
0.0
 30
0.0
  0
INSERT
  5
362
330
1F
100
AcDbEntity
  8
Default
100
AcDbBlockReference
  2
GDimGGroup13
 10
0.0
 20
0.0
 30
0.0
  0
INSERT
  5
36F
330
1F
100
AcDbEntity
  8
Default
100
AcDbBlockReference
  2
GDimGGroup14
 10
0.0
 20
0.0
 30
0.0
  0
INSERT
  5
37C
330
1F
100
AcDbEntity
  8
Default
100
AcDbBlockReference
  2
GDimGGroup15
 10
0.0
 20
0.0
 30
0.0
  0
INSERT
  5
387
330
1F
100
AcDbEntity
  8
Default
100
AcDbBlockReference
  2
GDimGGroup16
 10
0.0
 20
0.0
 30
0.0
  0
INSERT
  5
393
330
1F
100
AcDbEntity
  8
Default
100
AcDbBlockReference
  2
GDimGGroup17
 10
0.0
 20
0.0
 30
0.0
  0
INSERT
  5
39F
330
1F
100
AcDbEntity
  8
Default
100
AcDbBlockReference
  2
GDimGGroup18
 10
0.0
 20
0.0
 30
0.0
  0
INSERT
  5
3AB
330
1F
100
AcDbEntity
  8
Default
100
AcDbBlockReference
  2
GDimGGroup19
 10
0.0
 20
0.0
 30
0.0
  0
INSERT
  5
3B7
330
1F
100
AcDbEntity
  8
Default
100
AcDbBlockReference
  2
GDimGGroup20
 10
0.0
 20
0.0
 30
0.0
  0
INSERT
  5
3C5
330
1F
100
AcDbEntity
  8
Default
100
AcDbBlockReference
  2
GDimGGroup21
 10
0.0
 20
0.0
 30
0.0
  0
INSERT
  5
3D3
330
1F
100
AcDbEntity
  8
Default
100
AcDbBlockReference
  2
GDimGGroup22
 10
0.0
 20
0.0
 30
0.0
  0
INSERT
  5
3DF
330
1F
100
AcDbEntity
  8
Default
100
AcDbBlockReference
  2
GDimGGroup23
 10
0.0
 20
0.0
 30
0.0
  0
INSERT
  5
3EA
330
1F
100
AcDbEntity
  8
Default
100
AcDbBlockReference
  2
GDimGGroup24
 10
0.0
 20
0.0
 30
0.0
  0
INSERT
  5
3F6
330
1F
100
AcDbEntity
  8
Default
100
AcDbBlockReference
  2
GDimGGroup25
 10
0.0
 20
0.0
 30
0.0
  0
INSERT
  5
403
330
1F
100
AcDbEntity
  8
Default
100
AcDbBlockReference
  2
GDimGGroup26
 10
0.0
 20
0.0
 30
0.0
  0
INSERT
  5
40F
330
1F
100
AcDbEntity
  8
Default
100
AcDbBlockReference
  2
GDimGGroup27
 10
0.0
 20
0.0
 30
0.0
  0
INSERT
  5
419
330
1F
100
AcDbEntity
  8
Default
100
AcDbBlockReference
  2
GDimGGroup28
 10
0.0
 20
0.0
 30
0.0
  0
INSERT
  5
427
330
1F
100
AcDbEntity
  8
Default
100
AcDbBlockReference
  2
GDimGGroup29
 10
0.0
 20
0.0
 30
0.0
  0
INSERT
  5
432
330
1F
100
AcDbEntity
  8
Default
100
AcDbBlockReference
  2
GDimGGroup30
 10
0.0
 20
0.0
 30
0.0
  0
INSERT
  5
43E
330
1F
100
AcDbEntity
  8
Default
100
AcDbBlockReference
  2
GDimGGroup31
 10
0.0
 20
0.0
 30
0.0
  0
INSERT
  5
44A
330
1F
100
AcDbEntity
  8
Default
100
AcDbBlockReference
  2
GDimGGroup32
 10
0.0
 20
0.0
 30
0.0
  0
LINE
  5
456
330
1F
100
AcDbEntity
  8
BORDER
  6
Continuous
 62
     7
 48
25.4
100
AcDbLine
 10
6.2292620399
 20
410.0
 30
0.0
 11
586.2292620399
 21
410.0
 31
0.0
  0
LINE
  5
457
330
1F
100
AcDbEntity
  8
BORDER
  6
Continuous
 62
     7
 48
25.4
100
AcDbLine
 10
6.2292620399
 20
410.0
 30
0.0
 11
6.2292620399
 21
10.0
 31
0.0
  0
LINE
  5
458
330
1F
100
AcDbEntity
  8
BORDER
  6
Continuous
 62
     7
 48
25.4
100
AcDbLine
 10
6.2292620399
 20
10.0
 30
0.0
 11
586.2292620399
 21
10.0
 31
0.0
  0
LINE
  5
459
330
1F
100
AcDbEntity
  8
BORDER
  6
Continuous
 62
     7
 48
25.4
100
AcDbLine
 10
586.2292620399
 20
10.0
 30
0.0
 11
586.2292620399
 21
410.0
 31
0.0
  0
LINE
  5
45A
330
1F
100
AcDbEntity
  8
Default
  6
Continuous
 62
     7
 48
25.4
100
AcDbLine
 10
3.7292620399
 20
412.5
 30
0.0
 11
588.7292620399
 21
412.5
 31
0.0
  0
LINE
  5
45B
330
1F
100
AcDbEntity
  8
Default
  6
Continuous
 62
     7
 48
25.4
100
AcDbLine
 10
588.7292620399
 20
412.5
 30
0.0
 11
588.7292620399
 21
7.5
 31
0.0
  0
LINE
  5
45C
330
1F
100
AcDbEntity
  8
Default
  6
Continuous
 62
     7
 48
25.4
100
AcDbLine
 10
588.7292620399
 20
7.5
 30
0.0
 11
3.7292620399
 21
7.5
 31
0.0
  0
LINE
  5
45D
330
1F
100
AcDbEntity
  8
Default
  6
Continuous
 62
     7
 48
25.4
100
AcDbLine
 10
3.7292620399
 20
7.5
 30
0.0
 11
3.7292620399
 21
412.5
 31
0.0
  0
TEXT
  5
45E
330
1F
100
AcDbEntity
  8
Default
  6
Continuous
 62
     7
 48
25.4
100
AcDbText
 10
473.5242219525
 20
28.1561611714
 30
0.0
 40
5.0
  1
TITLE :
  7
SEACAD_arial_ttf
 11
473.5242219525
 21
33.1561611714
 31
0.0
100
AcDbText
 73
     3
  0
TEXT
  5
45F
330
1F
100
AcDbEntity
  8
Default
  6
Continuous
 62
     7
 48
25.4
100
AcDbText
 10
473.4498030642
 20
40.2710242694
 30
0.0
 40
5.0
  1
KITAGAWA EUROPE LIMITED
  7
SEACAD_arial_ttf
 11
473.4498030642
 21
45.2710242694
 31
0.0
100
AcDbText
 73
     3
  0
TEXT
  5
460
330
1F
100
AcDbEntity
  8
Default
  6
Continuous
 62
     7
 48
25.4
100
AcDbText
 10
474.0233693351
 20
14.6180387033
 30
0.0
 40
5.0
  1
www.kitagawaeurope.com
  7
SEACAD_arial_ttf
 11
474.0233693351
 21
19.6180387033
 31
0.0
100
AcDbText
 73
     3
  0
TEXT
  5
461
330
1F
100
AcDbEntity
  8
Default
  6
Continuous
 62
     7
 48
25.4
100
AcDbText
 10
497.8463064412
 20
27.8559210467
 30
0.0
 40
5.0
  1
B-21A15 POWER CHUCK
  7
SEACAD_arial_ttf
 11
497.8463064412
 21
32.8559210467
 31
0.0
100
AcDbText
 73
     3
  0
LINE
  5
462
330
1F
100
AcDbEntity
  8
Default
  6
Continuous
 62
     7
 48
25.4
100
AcDbLine
 10
471.5030858285
 20
50.0
 30
0.0
 11
586.2292620399
 21
50.0
 31
0.0
  0
LINE
  5
463
330
1F
100
AcDbEntity
  8
Default
  6
Continuous
 62
     7
 48
25.4
100
AcDbLine
 10
471.5030858285
 20
36.7
 30
0.0
 11
586.2292620399
 21
36.7
 31
0.0
  0
LINE
  5
464
330
1F
100
AcDbEntity
  8
Default
  6
Continuous
 62
     7
 48
25.4
100
AcDbLine
 10
586.2292620399
 20
23.4
 30
0.0
 11
471.5030858285
 21
23.4
 31
0.0
  0
LINE
  5
465
330
1F
100
AcDbEntity
  8
Default
  6
Continuous
 62
     7
 48
25.4
100
AcDbLine
 10
471.5030858285
 20
50.0
 30
0.0
 11
471.5030858285
 21
10.0
 31
0.0
  0
ENDSEC
  0
SECTION
  2
OBJECTS
  0
DICTIONARY
  5
C
330
0
100
AcDbDictionary
281
     1
  3
ACAD_GROUP
350
D
  3
ACAD_LAYOUT
350
1A
  3
ACAD_MLINESTYLE
350
17
  3
ACAD_PLOTSETTINGS
350
19
  3
ACAD_PLOTSTYLENAME
350
E
  0
DICTIONARY
  5
D
102
{ACAD_REACTORS
330
C
102
}
330
C
100
AcDbDictionary
281
     1
  0
DICTIONARY
  5
1A
102
{ACAD_REACTORS
330
C
102
}
330
C
100
AcDbDictionary
281
     1
  3
Layout1
350
1E
  3
Model
350
22
  0
DICTIONARY
  5
17
102
{ACAD_REACTORS
330
C
102
}
330
C
100
AcDbDictionary
281
     1
  3
Standard
350
18
  0
DICTIONARY
  5
19
102
{ACAD_REACTORS
330
C
102
}
330
C
100
AcDbDictionary
281
     1
  0
ACDBDICTIONARYWDFLT
  5
E
102
{ACAD_REACTORS
330
C
102
}
330
C
100
AcDbDictionary
281
     1
  3
Normal
350
F
100
AcDbDictionaryWithDefault
340
F
  0
LAYOUT
  5
1E
102
{ACAD_REACTORS
330
1A
102
}
330
1A
100
AcDbPlotSettings
  1

  2

  4

  6

 40
0.0
 41
0.0
 42
0.0
 43
0.0
 44
0.0
 45
0.0
 46
0.0
 47
0.0
 48
0.0
 49
0.0
140
0.0
141
0.0
142
1.0
143
1.0
 70
   688
 72
     0
 73
     0
 74
     5
  7

 75
    16
147
1.0
148
0.0
149
0.0
100
AcDbLayout
  1
Layout1
 70
     1
 71
     1
 10
0.0
 20
0.0
 11
594.0
 21
420.0
 12
0.0
 22
0.0
 32
0.0
 14
0.0
 24
0.0
 34
0.0
 15
594.0
 25
420.0
 35
0.0
146
0.0
 13
0.0
 23
0.0
 33
0.0
 16
1.0
 26
0.0
 36
0.0
 17
0.0
 27
1.0
 37
0.0
 76
     0
330
1B
  0
LAYOUT
  5
22
102
{ACAD_REACTORS
330
1A
102
}
330
1A
100
AcDbPlotSettings
  1

  2

  4

  6

 40
0.0
 41
0.0
 42
0.0
 43
0.0
 44
0.0
 45
0.0
 46
0.0
 47
0.0
 48
0.0
 49
0.0
140
0.0
141
0.0
142
1.0
143
1.0
 70
  1712
 72
     0
 73
     0
 74
     0
  7

 75
     0
147
1.0
148
0.0
149
0.0
100
AcDbLayout
  1
Model
 70
     1
 71
     0
 10
0.0
 20
0.0
 11
594.0
 21
420.0
 12
0.0
 22
0.0
 32
0.0
 14
0.0
 24
0.0
 34
0.0
 15
594.0
 25
420.0
 35
0.0
146
0.0
 13
0.0
 23
0.0
 33
0.0
 16
1.0
 26
0.0
 36
0.0
 17
0.0
 27
1.0
 37
0.0
 76
     0
330
1F
  0
MLINESTYLE
  5
18
102
{ACAD_REACTORS
330
17
102
}
330
17
100
AcDbMlineStyle
  2
Standard
 70
     0
  3

 62
   256
 51
90.0
 52
90.0
 71
     2
 49
0.5
 62
   256
  6
BYLAYER
 49
-0.5
 62
   256
  6
BYLAYER
  0
ACDBPLACEHOLDER
  5
F
102
{ACAD_REACTORS
330
E
102
}
330
E
  0
ENDSEC
  0
EOF
