  0
SECTION
  2
HEADER
  9
$ACADVER
  1
AC1015
  9
$ACADMAINTVER
 70
     6
  9
$DWGCODEPAGE
  3
ANSI_1252
  9
$INSBASE
 10
0.0
 20
0.0
 30
0.0
  9
$EXTMIN
 10
0.0
 20
0.0
 30
0.0
  9
$EXTMAX
 10
594.0
 20
420.0
 30
0.0
  9
$LIMMIN
 10
0.0
 20
0.0
  9
$LIMMAX
 10
594.0
 20
420.0
  9
$ORTHOMODE
 70
     0
  9
$REGENMODE
 70
     1
  9
$FILLMODE
 70
     1
  9
$QTEXTMODE
 70
     0
  9
$MIRRTEXT
 70
     1
  9
$LTSCALE
 40
1.0
  9
$ATTMODE
 70
     1
  9
$TEXTSIZE
 40
0.2
  9
$TRACEWID
 40
0.05
  9
$TEXTSTYLE
  7
Standard
  9
$CLAYER
  8
0
  9
$CELTYPE
  6
ByLayer
  9
$CECOLOR
 62
   256
  9
$CELTSCALE
 40
25.4
  9
$DISPSILH
 70
     0
  9
$DIMSCALE
 40
1.0
  9
$DIMASZ
 40
0.18
  9
$DIMEXO
 40
0.0625
  9
$DIMDLI
 40
0.38
  9
$DIMRND
 40
0.0
  9
$DIMDLE
 40
0.0
  9
$DIMEXE
 40
0.18
  9
$DIMTP
 40
0.0
  9
$DIMTM
 40
0.0
  9
$DIMTXT
 40
0.18
  9
$DIMCEN
 40
0.09
  9
$DIMTSZ
 40
0.0
  9
$DIMTOL
 70
     0
  9
$DIMLIM
 70
     0
  9
$DIMTIH
 70
     1
  9
$DIMTOH
 70
     1
  9
$DIMSE1
 70
     0
  9
$DIMSE2
 70
     0
  9
$DIMTAD
 70
     0
  9
$DIMZIN
 70
     0
  9
$DIMBLK
  1

  9
$DIMASO
 70
     1
  9
$DIMSHO
 70
     1
  9
$DIMPOST
  1

  9
$DIMAPOST
  1

  9
$DIMALT
 70
     0
  9
$DIMALTD
 70
     2
  9
$DIMALTF
 40
25.4
  9
$DIMLFAC
 40
1.0
  9
$DIMTOFL
 70
     0
  9
$DIMTVP
 40
0.0
  9
$DIMTIX
 70
     0
  9
$DIMSOXD
 70
     0
  9
$DIMSAH
 70
     0
  9
$DIMBLK1
  1

  9
$DIMBLK2
  1

  9
$DIMSTYLE
  2
Standard
  9
$DIMCLRD
 70
     0
  9
$DIMCLRE
 70
     0
  9
$DIMCLRT
 70
     0
  9
$DIMTFAC
 40
1.0
  9
$DIMGAP
 40
0.09
  9
$DIMJUST
 70
     0
  9
$DIMSD1
 70
     0
  9
$DIMSD2
 70
     0
  9
$DIMTOLJ
 70
     1
  9
$DIMTZIN
 70
     0
  9
$DIMALTZ
 70
     0
  9
$DIMALTTZ
 70
     0
  9
$DIMUPT
 70
     0
  9
$DIMDEC
 70
     4
  9
$DIMTDEC
 70
     4
  9
$DIMALTU
 70
     2
  9
$DIMALTTD
 70
     2
  9
$DIMTXSTY
  7
Standard
  9
$DIMAUNIT
 70
     0
  9
$DIMADEC
 70
     0
  9
$DIMALTRND
 40
0.0
  9
$DIMAZIN
 70
     0
  9
$DIMDSEP
 70
    46
  9
$DIMATFIT
 70
     3
  9
$DIMFRAC
 70
     0
  9
$DIMLDRBLK
  1

  9
$DIMLUNIT
 70
     2
  9
$DIMLWD
 70
    -2
  9
$DIMLWE
 70
    -2
  9
$DIMTMOVE
 70
     0
  9
$LUNITS
 70
     2
  9
$LUPREC
 70
     4
  9
$SKETCHINC
 40
0.1
  9
$FILLETRAD
 40
0.5
  9
$AUNITS
 70
     0
  9
$AUPREC
 70
     0
  9
$MENU
  1
.
  9
$ELEVATION
 40
0.0
  9
$PELEVATION
 40
0.0
  9
$THICKNESS
 40
0.0
  9
$LIMCHECK
 70
     0
  9
$CHAMFERA
 40
0.5
  9
$CHAMFERB
 40
0.5
  9
$CHAMFERC
 40
1.0
  9
$CHAMFERD
 40
0.0
  9
$SKPOLY
 70
     0
  9
$TDCREATE
 40
2454896.419813472
  9
$TDUCREATE
 40
2454896.419813472
  9
$TDUPDATE
 40
2454896.419813484
  9
$TDUUPDATE
 40
2454896.419813484
  9
$TDINDWG
 40
0.0000000116
  9
$TDUSRTIMER
 40
0.0000000116
  9
$USRTIMER
 70
     1
  9
$ANGBASE
 50
0.0
  9
$ANGDIR
 70
     0
  9
$PDMODE
 70
     0
  9
$PDSIZE
 40
0.0
  9
$PLINEWID
 40
0.0
  9
$SPLFRAME
 70
     0
  9
$SPLINETYPE
 70
     6
  9
$SPLINESEGS
 70
     8
  9
$HANDSEED
  5
46B
  9
$SURFTAB1
 70
     6
  9
$SURFTAB2
 70
     6
  9
$SURFTYPE
 70
     6
  9
$SURFU
 70
     6
  9
$SURFV
 70
     6
  9
$UCSBASE
  2

  9
$UCSNAME
  2

  9
$UCSORG
 10
0.0
 20
0.0
 30
0.0
  9
$UCSXDIR
 10
1.0
 20
0.0
 30
0.0
  9
$UCSYDIR
 10
0.0
 20
1.0
 30
0.0
  9
$UCSORTHOREF
  2

  9
$UCSORTHOVIEW
 70
     0
  9
$UCSORGTOP
 10
0.0
 20
0.0
 30
0.0
  9
$UCSORGBOTTOM
 10
0.0
 20
0.0
 30
0.0
  9
$UCSORGLEFT
 10
0.0
 20
0.0
 30
0.0
  9
$UCSORGRIGHT
 10
0.0
 20
0.0
 30
0.0
  9
$UCSORGFRONT
 10
0.0
 20
0.0
 30
0.0
  9
$UCSORGBACK
 10
0.0
 20
0.0
 30
0.0
  9
$PUCSBASE
  2

  9
$PUCSNAME
  2

  9
$PUCSORG
 10
0.0
 20
0.0
 30
0.0
  9
$PUCSXDIR
 10
1.0
 20
0.0
 30
0.0
  9
$PUCSYDIR
 10
0.0
 20
1.0
 30
0.0
  9
$PUCSORTHOREF
  2

  9
$PUCSORTHOVIEW
 70
     0
  9
$PUCSORGTOP
 10
0.0
 20
0.0
 30
0.0
  9
$PUCSORGBOTTOM
 10
0.0
 20
0.0
 30
0.0
  9
$PUCSORGLEFT
 10
0.0
 20
0.0
 30
0.0
  9
$PUCSORGRIGHT
 10
0.0
 20
0.0
 30
0.0
  9
$PUCSORGFRONT
 10
0.0
 20
0.0
 30
0.0
  9
$PUCSORGBACK
 10
0.0
 20
0.0
 30
0.0
  9
$USERI1
 70
     0
  9
$USERI2
 70
     0
  9
$USERI3
 70
     0
  9
$USERI4
 70
     0
  9
$USERI5
 70
     0
  9
$USERR1
 40
0.0
  9
$USERR2
 40
0.0
  9
$USERR3
 40
0.0
  9
$USERR4
 40
0.0
  9
$USERR5
 40
0.0
  9
$WORLDVIEW
 70
     1
  9
$SHADEDGE
 70
     3
  9
$SHADEDIF
 70
    70
  9
$TILEMODE
 70
     1
  9
$MAXACTVP
 70
    64
  9
$PINSBASE
 10
0.0
 20
0.0
 30
0.0
  9
$PLIMCHECK
 70
     0
  9
$PEXTMIN
 10
0.0
 20
0.0
 30
0.0
  9
$PEXTMAX
 10
594.0
 20
420.0
 30
0.0
  9
$PLIMMIN
 10
0.0
 20
0.0
  9
$PLIMMAX
 10
594.0
 20
420.0
  9
$UNITMODE
 70
     0
  9
$VISRETAIN
 70
     1
  9
$PLINEGEN
 70
     0
  9
$PSLTSCALE
 70
     1
  9
$TREEDEPTH
 70
  3020
  9
$CMLSTYLE
  2
Standard
  9
$CMLJUST
 70
     0
  9
$CMLSCALE
 40
1.0
  9
$PROXYGRAPHICS
 70
     1
  9
$MEASUREMENT
 70
     1
  9
$CELWEIGHT
370
    -1
  9
$ENDCAPS
280
     0
  9
$JOINSTYLE
280
     0
  9
$LWDISPLAY
290
     0
  9
$INSUNITS
 70
     1
  9
$HYPERLINKBASE
  1

  9
$STYLESHEET
  1

  9
$XEDIT
290
     1
  9
$CEPSNTYPE
380
     0
  9
$PSTYLEMODE
290
     1
  9
$FINGERPRINTGUID
  2
{A9FF04D8-54E1-4F00-9112-2949B044EFD2}
  9
$VERSIONGUID
  2
{FAEB1C32-E019-11D5-929B-00C0DF256EC4}
  9
$EXTNAMES
290
     1
  9
$PSVPSCALE
 40
0.0
  9
$OLESTARTUP
290
     0
  0
ENDSEC
  0
SECTION
  2
CLASSES
  0
CLASS
  1
ACDBDICTIONARYWDFLT
  2
AcDbDictionaryWithDefault
  3
ObjectDBX Classes
 90
        0
280
     0
281
     0
  0
CLASS
  1
ACDBPLACEHOLDER
  2
AcDbPlaceHolder
  3
ObjectDBX Classes
 90
        0
280
     0
281
     0
  0
CLASS
  1
LAYOUT
  2
AcDbLayout
  3
ObjectDBX Classes
 90
        0
280
     0
281
     0
  0
ENDSEC
  0
SECTION
  2
TABLES
  0
TABLE
  2
VPORT
  5
8
330
0
100
AcDbSymbolTable
 70
     1
  0
VPORT
  5
29
330
8
100
AcDbSymbolTableRecord
100
AcDbViewportTableRecord
  2
*Active
 70
     0
 10
0.0
 20
0.0
 11
1.0
 21
1.0
 12
10.4299065421
 22
4.5
 13
0.0
 23
0.0
 14
0.5
 24
0.5
 15
0.5
 25
0.5
 16
0.0
 26
0.0
 36
1.0
 17
0.0
 27
0.0
 37
0.0
 40
9.0
 41
1.9729729729
 42
50.0
 43
0.0
 44
0.0
 50
0.0
 51
0.0
 71
     0
 72
   100
 73
     1
 74
     3
 75
     0
 76
     0
 77
     0
 78
     0
281
     0
 65
     1
110
0.0
120
0.0
130
0.0
111
1.0
121
0.0
131
0.0
112
0.0
122
1.0
132
0.0
 79
     0
146
0.0
  0
ENDTAB
  0
TABLE
  2
LTYPE
  5
5
330
0
100
AcDbSymbolTable
 70
     3
  0
LTYPE
  5
14
330
5
100
AcDbSymbolTableRecord
100
AcDbLinetypeTableRecord
  2
ByBlock
 70
     0
  3

 72
    65
 73
     0
 40
0.0
  0
LTYPE
  5
15
330
5
100
AcDbSymbolTableRecord
100
AcDbLinetypeTableRecord
  2
ByLayer
 70
     0
  3

 72
    65
 73
     0
 40
0.0
  0
LTYPE
  5
16
330
5
100
AcDbSymbolTableRecord
100
AcDbLinetypeTableRecord
  2
Continuous
 70
     0
  3
Solid line
 72
    65
 73
     0
 40
0.0
  0
LTYPE
  5
60
330
5
100
AcDbSymbolTableRecord
100
AcDbLinetypeTableRecord
  2
CENTER2
 70
     0
  3
___ _ ___ _ ___ _ ___ _ ___ _ ___ _ ___ _ ___ _
 72
    65
 73
     4
 40
1.125
 49
0.75
 74
     4
 75
     0
340
0
 46
0.0
 50
0.0
 44
0.0
 45
0.0
 49
-0.125
 74
     4
 75
     0
340
0
 46
0.0
 50
0.0
 44
0.0
 45
0.0
 49
0.125
 74
     4
 75
     0
340
0
 46
0.0
 50
0.0
 44
0.0
 45
0.0
 49
-0.125
 74
     4
 75
     0
340
0
 46
0.0
 50
0.0
 44
0.0
 45
0.0
  0
LTYPE
  5
DD
330
5
100
AcDbSymbolTableRecord
100
AcDbLinetypeTableRecord
  2
HIDDEN2
 70
     0
  3
_ _ _ _ _ _ _ _ _ _ _ _ _ _ _ _ _ _ _ _ _ _ _ _
 72
    65
 73
     2
 40
0.1875
 49
0.125
 74
     4
 75
     0
340
0
 46
0.0
 50
0.0
 44
0.0
 45
0.0
 49
-0.0625
 74
     4
 75
     0
340
0
 46
0.0
 50
0.0
 44
0.0
 45
0.0
  0
ENDTAB
  0
TABLE
  2
LAYER
  5
2
330
0
100
AcDbSymbolTable
 70
     6
  0
LAYER
  5
10
330
2
100
AcDbSymbolTableRecord
100
AcDbLayerTableRecord
  2
0
 70
     0
 62
     7
  6
Continuous
370
    -3
390
F
  0
LAYER
  5
2A
330
2
100
AcDbSymbolTableRecord
100
AcDbLayerTableRecord
  2
Default
 70
     0
 62
     7
  6
Continuous
370
    -3
390
F
  0
LAYER
  5
5F
330
2
100
AcDbSymbolTableRecord
100
AcDbLayerTableRecord
  2
DV1_Default
 70
     0
 62
     7
  6
Continuous
370
    -3
390
F
  0
LAYER
  5
14C
330
2
100
AcDbSymbolTableRecord
100
AcDbLayerTableRecord
  2
DV2_Default
 70
     0
 62
     7
  6
Continuous
370
    -3
390
F
  0
LAYER
  5
1EB
330
2
100
AcDbSymbolTableRecord
100
AcDbLayerTableRecord
  2
DV3_Default
 70
     0
 62
     7
  6
Continuous
370
    -3
390
F
  0
LAYER
  5
45A
330
2
100
AcDbSymbolTableRecord
100
AcDbLayerTableRecord
  2
BORDER
 70
     0
 62
     7
  6
Continuous
370
    -3
390
F
  0
ENDTAB
  0
TABLE
  2
STYLE
  5
3
330
0
100
AcDbSymbolTable
 70
     3
  0
STYLE
  5
11
330
3
100
AcDbSymbolTableRecord
100
AcDbTextStyleTableRecord
  2
Standard
 70
     0
 40
0.0
 41
1.0
 50
0.0
 71
     0
 42
0.2
  3
txt
  4

  0
STYLE
  5
31
330
3
100
AcDbSymbolTableRecord
100
AcDbTextStyleTableRecord
  2
SEACAD_arial_ttf
 70
     0
 40
0.2
 41
1.0
 50
0.0
 71
     0
 42
0.2
  3
arial.ttf
  4

  0
STYLE
  5
58
330
3
100
AcDbSymbolTableRecord
100
AcDbTextStyleTableRecord
  2
SEACAD_semeca1_ttf
 70
     0
 40
0.2
 41
1.0
 50
0.0
 71
     0
 42
0.2
  3
semeca1.ttf
  4

  0
ENDTAB
  0
TABLE
  2
VIEW
  5
6
330
0
100
AcDbSymbolTable
 70
     0
  0
ENDTAB
  0
TABLE
  2
UCS
  5
7
330
0
100
AcDbSymbolTable
 70
     0
  0
ENDTAB
  0
TABLE
  2
APPID
  5
9
330
0
100
AcDbSymbolTable
 70
     1
  0
APPID
  5
12
330
9
100
AcDbSymbolTableRecord
100
AcDbRegAppTableRecord
  2
ACAD
 70
     0
  0
ENDTAB
  0
TABLE
  2
DIMSTYLE
  5
A
330
0
100
AcDbSymbolTable
 70
     1
100
AcDbDimStyleTable
  0
DIMSTYLE
105
27
330
A
100
AcDbSymbolTableRecord
100
AcDbDimStyleTableRecord
  2
Standard
 70
     0
340
11
  0
ENDTAB
  0
TABLE
  2
BLOCK_RECORD
  5
1
330
0
100
AcDbSymbolTable
 70
    42
  0
BLOCK_RECORD
  5
1F
330
1
100
AcDbSymbolTableRecord
100
AcDbBlockTableRecord
  2
*Model_Space
340
22
  0
BLOCK_RECORD
  5
1B
330
1
100
AcDbSymbolTableRecord
100
AcDbBlockTableRecord
  2
*Paper_Space
340
1E
  0
BLOCK_RECORD
  5
2B
330
1
100
AcDbSymbolTableRecord
100
AcDbBlockTableRecord
  2
SEANNOT_GROUP
340
0
102
{BLKREFS
331
2C
102
}
  0
BLOCK_RECORD
  5
36
330
1
100
AcDbSymbolTableRecord
100
AcDbBlockTableRecord
  2
SEANNOT_GROUP1
340
0
102
{BLKREFS
331
37
102
}
  0
BLOCK_RECORD
  5
3F
330
1
100
AcDbSymbolTableRecord
100
AcDbBlockTableRecord
  2
SEANNOT_GROUP2
340
0
102
{BLKREFS
331
40
102
}
  0
BLOCK_RECORD
  5
49
330
1
100
AcDbSymbolTableRecord
100
AcDbBlockTableRecord
  2
SEANNOT_GROUP3
340
0
102
{BLKREFS
331
4A
102
}
  0
BLOCK_RECORD
  5
52
330
1
100
AcDbSymbolTableRecord
100
AcDbBlockTableRecord
  2
SEANNOT_GROUP4
340
0
102
{BLKREFS
331
53
102
}
  0
BLOCK_RECORD
  5
5D
330
1
100
AcDbSymbolTableRecord
100
AcDbBlockTableRecord
  2
SE
340
0
102
{BLKREFS
331
5E
102
}
  0
BLOCK_RECORD
  5
149
330
1
100
AcDbSymbolTableRecord
100
AcDbBlockTableRecord
  2
SE1
340
0
102
{BLKREFS
331
14A
102
}
  0
BLOCK_RECORD
  5
1E9
330
1
100
AcDbSymbolTableRecord
100
AcDbBlockTableRecord
  2
SE2
340
0
102
{BLKREFS
331
1EA
102
}
  0
BLOCK_RECORD
  5
2C3
330
1
100
AcDbSymbolTableRecord
100
AcDbBlockTableRecord
  2
GDimGGroup
340
0
102
{BLKREFS
331
2C4
102
}
  0
BLOCK_RECORD
  5
2CF
330
1
100
AcDbSymbolTableRecord
100
AcDbBlockTableRecord
  2
GDimGGroup1
340
0
102
{BLKREFS
331
2D0
102
}
  0
BLOCK_RECORD
  5
2DC
330
1
100
AcDbSymbolTableRecord
100
AcDbBlockTableRecord
  2
GDimGGroup2
340
0
102
{BLKREFS
331
2DD
102
}
  0
BLOCK_RECORD
  5
2E8
330
1
100
AcDbSymbolTableRecord
100
AcDbBlockTableRecord
  2
GDimGGroup3
340
0
102
{BLKREFS
331
2E9
102
}
  0
BLOCK_RECORD
  5
2F4
330
1
100
AcDbSymbolTableRecord
100
AcDbBlockTableRecord
  2
GDimGGroup4
340
0
102
{BLKREFS
331
2F5
102
}
  0
BLOCK_RECORD
  5
301
330
1
100
AcDbSymbolTableRecord
100
AcDbBlockTableRecord
  2
GDimGGroup5
340
0
102
{BLKREFS
331
302
102
}
  0
BLOCK_RECORD
  5
30D
330
1
100
AcDbSymbolTableRecord
100
AcDbBlockTableRecord
  2
GDimGGroup6
340
0
102
{BLKREFS
331
30E
102
}
  0
BLOCK_RECORD
  5
319
330
1
100
AcDbSymbolTableRecord
100
AcDbBlockTableRecord
  2
GDimGGroup7
340
0
102
{BLKREFS
331
31A
102
}
  0
BLOCK_RECORD
  5
325
330
1
100
AcDbSymbolTableRecord
100
AcDbBlockTableRecord
  2
GDimGGroup8
340
0
102
{BLKREFS
331
326
102
}
  0
BLOCK_RECORD
  5
332
330
1
100
AcDbSymbolTableRecord
100
AcDbBlockTableRecord
  2
GDimGGroup9
340
0
102
{BLKREFS
331
333
102
}
  0
BLOCK_RECORD
  5
340
330
1
100
AcDbSymbolTableRecord
100
AcDbBlockTableRecord
  2
GDimGGroup10
340
0
102
{BLKREFS
331
341
102
}
  0
BLOCK_RECORD
  5
34B
330
1
100
AcDbSymbolTableRecord
100
AcDbBlockTableRecord
  2
GDimGGroup11
340
0
102
{BLKREFS
331
34C
102
}
  0
BLOCK_RECORD
  5
357
330
1
100
AcDbSymbolTableRecord
100
AcDbBlockTableRecord
  2
GDimGGroup12
340
0
102
{BLKREFS
331
358
102
}
  0
BLOCK_RECORD
  5
363
330
1
100
AcDbSymbolTableRecord
100
AcDbBlockTableRecord
  2
GDimGGroup13
340
0
102
{BLKREFS
331
364
102
}
  0
BLOCK_RECORD
  5
36F
330
1
100
AcDbSymbolTableRecord
100
AcDbBlockTableRecord
  2
GDimGGroup14
340
0
102
{BLKREFS
331
370
102
}
  0
BLOCK_RECORD
  5
37B
330
1
100
AcDbSymbolTableRecord
100
AcDbBlockTableRecord
  2
GDimGGroup15
340
0
102
{BLKREFS
331
37C
102
}
  0
BLOCK_RECORD
  5
387
330
1
100
AcDbSymbolTableRecord
100
AcDbBlockTableRecord
  2
GDimGGroup16
340
0
102
{BLKREFS
331
388
102
}
  0
BLOCK_RECORD
  5
395
330
1
100
AcDbSymbolTableRecord
100
AcDbBlockTableRecord
  2
GDimGGroup17
340
0
102
{BLKREFS
331
396
102
}
  0
BLOCK_RECORD
  5
3A3
330
1
100
AcDbSymbolTableRecord
100
AcDbBlockTableRecord
  2
GDimGGroup18
340
0
102
{BLKREFS
331
3A4
102
}
  0
BLOCK_RECORD
  5
3B0
330
1
100
AcDbSymbolTableRecord
100
AcDbBlockTableRecord
  2
GDimGGroup19
340
0
102
{BLKREFS
331
3B1
102
}
  0
BLOCK_RECORD
  5
3BE
330
1
100
AcDbSymbolTableRecord
100
AcDbBlockTableRecord
  2
GDimGGroup20
340
0
102
{BLKREFS
331
3BF
102
}
  0
BLOCK_RECORD
  5
3CB
330
1
100
AcDbSymbolTableRecord
100
AcDbBlockTableRecord
  2
GDimGGroup21
340
0
102
{BLKREFS
331
3CC
102
}
  0
BLOCK_RECORD
  5
3D8
330
1
100
AcDbSymbolTableRecord
100
AcDbBlockTableRecord
  2
GDimGGroup22
340
0
102
{BLKREFS
331
3D9
102
}
  0
BLOCK_RECORD
  5
3E3
330
1
100
AcDbSymbolTableRecord
100
AcDbBlockTableRecord
  2
GDimGGroup23
340
0
102
{BLKREFS
331
3E4
102
}
  0
BLOCK_RECORD
  5
3EE
330
1
100
AcDbSymbolTableRecord
100
AcDbBlockTableRecord
  2
GDimGGroup24
340
0
102
{BLKREFS
331
3EF
102
}
  0
BLOCK_RECORD
  5
3FA
330
1
100
AcDbSymbolTableRecord
100
AcDbBlockTableRecord
  2
GDimGGroup25
340
0
102
{BLKREFS
331
3FB
102
}
  0
BLOCK_RECORD
  5
406
330
1
100
AcDbSymbolTableRecord
100
AcDbBlockTableRecord
  2
GDimGGroup26
340
0
102
{BLKREFS
331
407
102
}
  0
BLOCK_RECORD
  5
414
330
1
100
AcDbSymbolTableRecord
100
AcDbBlockTableRecord
  2
GDimGGroup27
340
0
102
{BLKREFS
331
415
102
}
  0
BLOCK_RECORD
  5
41E
330
1
100
AcDbSymbolTableRecord
100
AcDbBlockTableRecord
  2
GDimGGroup28
340
0
102
{BLKREFS
331
41F
102
}
  0
BLOCK_RECORD
  5
42A
330
1
100
AcDbSymbolTableRecord
100
AcDbBlockTableRecord
  2
GDimGGroup29
340
0
102
{BLKREFS
331
42B
102
}
  0
BLOCK_RECORD
  5
436
330
1
100
AcDbSymbolTableRecord
100
AcDbBlockTableRecord
  2
GDimGGroup30
340
0
102
{BLKREFS
331
437
102
}
  0
BLOCK_RECORD
  5
442
330
1
100
AcDbSymbolTableRecord
100
AcDbBlockTableRecord
  2
GDimGGroup31
340
0
102
{BLKREFS
331
443
102
}
  0
BLOCK_RECORD
  5
44E
330
1
100
AcDbSymbolTableRecord
100
AcDbBlockTableRecord
  2
GDimGGroup32
340
0
102
{BLKREFS
331
44F
102
}
  0
ENDTAB
  0
ENDSEC
  0
SECTION
  2
BLOCKS
  0
BLOCK
  5
20
330
1F
100
AcDbEntity
  8
0
100
AcDbBlockBegin
  2
*Model_Space
 70
     0
 71
     0
 10
0.0
 20
0.0
 30
0.0
  3
*Model_Space
  1

  0
ENDBLK
  5
21
330
1F
100
AcDbEntity
  8
0
100
AcDbBlockEnd
  0
BLOCK
  5
1C
330
1B
100
AcDbEntity
 67
     1
  8
0
100
AcDbBlockBegin
  2
*Paper_Space
 70
     0
 71
     0
 10
0.0
 20
0.0
 30
0.0
  3
*Paper_Space
  1

  0
ENDBLK
  5
1D
330
1B
100
AcDbEntity
 67
     1
  8
0
100
AcDbBlockEnd
  0
BLOCK
  5
34
330
2B
100
AcDbEntity
  8
0
100
AcDbBlockBegin
  2
SEANNOT_GROUP
 70
     0
 71
     0
 10
0.0
 20
0.0
 30
0.0
  3
SEANNOT_GROUP
  1

  0
LWPOLYLINE
  5
2D
330
2B
100
AcDbEntity
  8
Default
  6
Continuous
 62
     7
 48
25.4
100
AcDbPolyline
 90
        2
 70
     0
 43
0.0
 10
241.4212796873
 20
396.6793198565
 10
209.4706456485
 20
382.937422544
  0
HATCH
  5
2E
330
2B
100
AcDbEntity
  8
Default
  6
Continuous
 62
     7
 48
25.4
100
AcDbHatch
 10
0.0
 20
0.0
 30
0.0
210
0.0
220
0.0
230
1.0
  2
SOLID
 70
     1
 71
     0
 91
        1
 92
        1
 93
        3
 72
     1
 10
212.881789756856
 20
385.1302613157214
 11
209.4706456485351
 21
382.9374225439804
 72
     1
 10
209.4706456485351
 20
382.9374225439804
 11
213.4085945418357
 21
383.9054124821178
 72
     1
 10
213.4085945418357
 20
383.9054124821178
 11
212.881789756856
 21
385.1302613157214
 97
        0
 75
     0
 76
     1
 98
        0
  0
LWPOLYLINE
  5
2F
330
2B
100
AcDbEntity
  8
Default
  6
Continuous
 62
     7
 48
25.4
370
    20
100
AcDbPolyline
 90
        4
 70
     1
 43
0.00025
 10
212.8817897569
 20
385.1302613157
 10
209.4706456485
 20
382.937422544
 10
213.4085945418
 20
383.9054124821
 10
212.8817897569
 20
385.1302613157
  0
LINE
  5
30
330
2B
100
AcDbEntity
  8
Default
  6
Continuous
 62
     7
 48
25.4
100
AcDbLine
 10
241.4212796873
 20
396.6793198565
 30
0.0
 11
313.2618593974
 21
396.6793198565
 31
0.0
  0
TEXT
  5
32
330
2B
100
AcDbEntity
  8
Default
  6
Continuous
 62
     7
 48
25.4
100
AcDbText
 10
241.4212796873
 20
397.6793198565
 30
0.0
 40
4.0
  1
SERRATION PITCH 1.5X60
  7
SEACAD_arial_ttf
 11
241.4212796873
 21
401.6793198565
 31
0.0
100
AcDbText
 73
     3
  0
TEXT
  5
33
330
2B
100
AcDbEntity
  8
Default
  6
Continuous
 62
     7
 48
25.4
100
AcDbText
 10
311.5951927307
 20
397.6793198565
 30
0.0
 40
4.0
  1
°
  7
SEACAD_arial_ttf
 11
311.5951927307
 21
401.6793198565
 31
0.0
100
AcDbText
 73
     3
  0
ENDBLK
  5
35
330
2B
100
AcDbEntity
  8
0
100
AcDbBlockEnd
  0
BLOCK
  5
3D
330
36
100
AcDbEntity
  8
0
100
AcDbBlockBegin
  2
SEANNOT_GROUP1
 70
     0
 71
     0
 10
0.0
 20
0.0
 30
0.0
  3
SEANNOT_GROUP1
  1

  0
LWPOLYLINE
  5
38
330
36
100
AcDbEntity
  8
Default
  6
Continuous
 62
     7
 48
25.4
100
AcDbPolyline
 90
        2
 70
     0
 43
0.0
 10
346.9700662059
 20
334.426769894
 10
393.762106224
 20
296.3927046476
  0
HATCH
  5
39
330
36
100
AcDbEntity
  8
Default
  6
Continuous
 62
     7
 48
25.4
100
AcDbHatch
 10
0.0
 20
0.0
 30
0.0
210
0.0
220
0.0
230
1.0
  2
SOLID
 70
     1
 71
     0
 91
        1
 92
        1
 93
        3
 72
     1
 10
390.2376558751176
 20
298.3983705581452
 11
393.762106224019
 21
296.3927046476027
 72
     1
 10
393.762106224019
 20
296.3927046476027
 11
391.078652946045
 21
299.4330211626245
 72
     1
 10
391.078652946045
 20
299.4330211626244
 11
390.2376558751176
 21
298.3983705581451
 97
        0
 75
     0
 76
     1
 98
        0
  0
LWPOLYLINE
  5
3A
330
36
100
AcDbEntity
  8
Default
  6
Continuous
 62
     7
 48
25.4
370
    20
100
AcDbPolyline
 90
        4
 70
     1
 43
0.00025
 10
390.2376558751
 20
298.3983705581
 10
393.762106224
 20
296.3927046476
 10
391.078652946
 20
299.4330211626
 10
390.2376558751
 20
298.3983705581
  0
LINE
  5
3B
330
36
100
AcDbEntity
  8
Default
  6
Continuous
 62
     7
 48
25.4
100
AcDbLine
 10
346.9700662059
 20
334.426769894
 30
0.0
 11
331.1439792493
 21
334.426769894
 31
0.0
  0
TEXT
  5
3C
330
36
100
AcDbEntity
  8
Default
  6
Continuous
 62
     7
 48
25.4
100
AcDbText
 10
331.1439792493
 20
335.426769894
 30
0.0
 40
4.0
  1
3-M12
  7
SEACAD_arial_ttf
 11
331.1439792493
 21
339.426769894
 31
0.0
100
AcDbText
 73
     3
  0
ENDBLK
  5
3E
330
36
100
AcDbEntity
  8
0
100
AcDbBlockEnd
  0
BLOCK
  5
47
330
3F
100
AcDbEntity
  8
0
100
AcDbBlockBegin
  2
SEANNOT_GROUP2
 70
     0
 71
     0
 10
0.0
 20
0.0
 30
0.0
  3
SEANNOT_GROUP2
  1

  0
LWPOLYLINE
  5
41
330
3F
100
AcDbEntity
  8
Default
  6
Continuous
 62
     7
 48
25.4
100
AcDbPolyline
 90
        2
 70
     0
 43
0.0
 10
117.5381745092
 20
192.095617058
 10
141.0699165504
 20
218.5245790757
  0
HATCH
  5
42
330
3F
100
AcDbEntity
  8
Default
  6
Continuous
 62
     7
 48
25.4
100
AcDbHatch
 10
0.0
 20
0.0
 30
0.0
210
0.0
220
0.0
230
1.0
  2
SOLID
 70
     1
 71
     0
 91
        1
 92
        1
 93
        3
 72
     1
 10
138.9078832299733
 20
215.093827273507
 11
141.0699165504059
 21
218.5245790756521
 72
     1
 10
141.0699165504059
 20
218.5245790756522
 11
137.9120736357874
 21
215.9804733126822
 72
     1
 10
137.9120736357874
 20
215.9804733126822
 11
138.9078832299733
 21
215.093827273507
 97
        0
 75
     0
 76
     1
 98
        0
  0
LWPOLYLINE
  5
43
330
3F
100
AcDbEntity
  8
Default
  6
Continuous
 62
     7
 48
25.4
370
    20
100
AcDbPolyline
 90
        4
 70
     1
 43
0.00025
 10
138.90788323
 20
215.0938272735
 10
141.0699165504
 20
218.5245790757
 10
137.9120736358
 20
215.9804733127
 10
138.90788323
 20
215.0938272735
  0
LINE
  5
44
330
3F
100
AcDbEntity
  8
Default
  6
Continuous
 62
     7
 48
25.4
100
AcDbLine
 10
117.5381745092
 20
192.095617058
 30
0.0
 11
101.7120875527
 21
192.095617058
 31
0.0
  0
LINE
  5
45
330
3F
100
AcDbEntity
  8
Default
  6
Continuous
 62
     7
 48
25.4
100
AcDbLine
 10
148.2197200823
 20
218.5245790757
 30
0.0
 11
139.0699165504
 21
218.5245790757
 31
0.0
  0
TEXT
  5
46
330
3F
100
AcDbEntity
  8
Default
  6
Continuous
 62
     7
 48
25.4
100
AcDbText
 10
101.7120875527
 20
193.095617058
 30
0.0
 40
4.0
  1
6-M22
  7
SEACAD_arial_ttf
 11
101.7120875527
 21
197.095617058
 31
0.0
100
AcDbText
 73
     3
  0
ENDBLK
  5
48
330
3F
100
AcDbEntity
  8
0
100
AcDbBlockEnd
  0
BLOCK
  5
50
330
49
100
AcDbEntity
  8
0
100
AcDbBlockBegin
  2
SEANNOT_GROUP3
 70
     0
 71
     0
 10
0.0
 20
0.0
 30
0.0
  3
SEANNOT_GROUP3
  1

  0
LWPOLYLINE
  5
4B
330
49
100
AcDbEntity
  8
Default
  6
Continuous
 62
     7
 48
25.4
100
AcDbPolyline
 90
        2
 70
     0
 43
0.0
 10
142.4998754777
 20
363.7047688932
 10
172.4327505984
 20
310.6095790757
  0
HATCH
  5
4C
330
49
100
AcDbEntity
  8
Default
  6
Continuous
 62
     7
 48
25.4
100
AcDbHatch
 10
0.0
 20
0.0
 30
0.0
210
0.0
220
0.0
230
1.0
  2
SOLID
 70
     1
 71
     0
 91
        1
 92
        1
 93
        3
 72
     1
 10
169.887636987499
 20
313.7666097556096
 11
172.4327505983993
 21
310.6095790756522
 72
     1
 10
172.4327505983993
 20
310.6095790756522
 11
171.0491125383447
 21
314.4214017007688
 72
     1
 10
171.0491125383447
 20
314.4214017007688
 11
169.887636987499
 21
313.7666097556096
 97
        0
 75
     0
 76
     1
 98
        0
  0
LWPOLYLINE
  5
4D
330
49
100
AcDbEntity
  8
Default
  6
Continuous
 62
     7
 48
25.4
370
    20
100
AcDbPolyline
 90
        4
 70
     1
 43
0.00025
 10
169.8876369875
 20
313.7666097556
 10
172.4327505984
 20
310.6095790757
 10
171.0491125383
 20
314.4214017008
 10
169.8876369875
 20
313.7666097556
  0
LINE
  5
4E
330
49
100
AcDbEntity
  8
Default
  6
Continuous
 62
     7
 48
25.4
100
AcDbLine
 10
142.4998754777
 20
363.7047688932
 30
0.0
 11
99.63017395
 21
363.7047688932
 31
0.0
  0
TEXT
  5
4F
330
49
100
AcDbEntity
  8
Default
  6
Continuous
 62
     7
 48
25.4
100
AcDbText
 10
99.63017395
 20
364.7047688932
 30
0.0
 40
4.0
  1
MAX M175X3.0
  7
SEACAD_arial_ttf
 11
99.63017395
 21
368.7047688932
 31
0.0
100
AcDbText
 73
     3
  0
ENDBLK
  5
51
330
49
100
AcDbEntity
  8
0
100
AcDbBlockEnd
  0
BLOCK
  5
5B
330
52
100
AcDbEntity
  8
0
100
AcDbBlockBegin
  2
SEANNOT_GROUP4
 70
     0
 71
     0
 10
0.0
 20
0.0
 30
0.0
  3
SEANNOT_GROUP4
  1

  0
LWPOLYLINE
  5
54
330
52
100
AcDbEntity
  8
Default
  6
Continuous
 62
     7
 48
25.4
100
AcDbPolyline
 90
        2
 70
     0
 43
0.0
 10
235.5771540185
 20
244.553840325
 10
235.5771540185
 20
222.3745790757
  0
HATCH
  5
55
330
52
100
AcDbEntity
  8
Default
  6
Continuous
 62
     7
 48
25.4
100
AcDbHatch
 10
0.0
 20
0.0
 30
0.0
210
0.0
220
0.0
230
1.0
  2
SOLID
 70
     1
 71
     0
 91
        1
 92
        1
 93
        3
 72
     1
 10
234.9104873201443
 20
226.374579265642
 11
235.5771540184759
 21
222.3745790756522
 72
     1
 10
235.5771540184759
 20
222.3745790756522
 11
236.2438207168075
 21
226.374579265642
 72
     1
 10
236.2438207168075
 20
226.374579265642
 11
234.9104873201443
 21
226.374579265642
 97
        0
 75
     0
 76
     1
 98
        0
  0
LWPOLYLINE
  5
56
330
52
100
AcDbEntity
  8
Default
  6
Continuous
 62
     7
 48
25.4
370
    20
100
AcDbPolyline
 90
        4
 70
     1
 43
0.00025
 10
234.9104873201
 20
226.3745792656
 10
235.5771540185
 20
222.3745790757
 10
236.2438207168
 20
226.3745792656
 10
234.9104873201
 20
226.3745792656
  0
LINE
  5
57
330
52
100
AcDbEntity
  8
Default
  6
Continuous
 62
     7
 48
25.4
100
AcDbLine
 10
212.9484920314
 20
222.3745790757
 30
0.0
 11
237.5771540185
 21
222.3745790757
 31
0.0
  0
TEXT
  5
59
330
52
100
AcDbEntity
  8
Default
  6
Continuous
 62
     7
 48
25.4
100
AcDbText
 10
236.9771540185
 20
242.553840325
 30
0.0
 40
4.0
  1
O
  7
SEACAD_semeca1_ttf
 11
236.9771540185
 21
246.553840325
 31
0.0
100
AcDbText
 73
     3
  0
TEXT
  5
5A
330
52
100
AcDbEntity
  8
Default
  6
Continuous
 62
     7
 48
25.4
100
AcDbText
 10
241.5385575272
 20
242.553840325
 30
0.0
 40
4.0
  1
330.2
  7
SEACAD_arial_ttf
 11
241.5385575272
 21
246.553840325
 31
0.0
100
AcDbText
 73
     3
  0
ENDBLK
  5
5C
330
52
100
AcDbEntity
  8
0
100
AcDbBlockEnd
  0
BLOCK
  5
147
330
5D
100
AcDbEntity
  8
0
100
AcDbBlockBegin
  2
SE
 70
     0
 71
     0
 10
0.0
 20
0.0
 30
0.0
  3
SE
  1

  0
LINE
  5
61
330
5D
100
AcDbEntity
  8
DV1_Default
  6
CENTER2
 62
     7
 48
25.4
100
AcDbLine
 10
140.9576987838
 20
280.1595790757
 30
0.0
 11
226.7774259086
 21
280.1595790757
 31
0.0
  0
LINE
  5
62
330
5D
100
AcDbEntity
  8
DV1_Default
  6
Continuous
 62
     7
 48
25.4
100
AcDbLine
 10
157.6697200823
 20
226.2245790757
 30
0.0
 11
157.6697200823
 21
280.1595790757
 31
0.0
  0
LINE
  5
63
330
5D
100
AcDbEntity
  8
DV1_Default
  6
Continuous
 62
     7
 48
25.4
100
AcDbLine
 10
148.2197200823
 20
226.2245790757
 30
0.0
 11
148.2197200823
 21
280.1595790757
 31
0.0
  0
LINE
  5
64
330
5D
100
AcDbEntity
  8
DV1_Default
  6
CENTER2
 62
     7
 48
25.4
100
AcDbLine
 10
212.9484920314
 20
222.3745790757
 30
0.0
 11
136.4688527681
 21
222.3745790757
 31
0.0
  0
LINE
  5
65
330
5D
100
AcDbEntity
  8
DV1_Default
  6
Continuous
 62
     7
 48
25.4
100
AcDbLine
 10
198.9697200823
 20
216.0745790757
 30
0.0
 11
207.7197200823
 21
216.0745790757
 31
0.0
  0
LINE
  5
66
330
5D
100
AcDbEntity
  8
DV1_Default
  6
Continuous
 62
     7
 48
25.4
100
AcDbLine
 10
198.9697200823
 20
216.0745790757
 30
0.0
 11
198.9697200823
 21
222.3745790757
 31
0.0
  0
LINE
  5
67
330
5D
100
AcDbEntity
  8
DV1_Default
  6
Continuous
 62
     7
 48
25.4
100
AcDbLine
 10
198.9697200823
 20
218.5245790757
 30
0.0
 11
148.2197200823
 21
218.5245790757
 31
0.0
  0
LINE
  5
68
330
5D
100
AcDbEntity
  8
DV1_Default
  6
Continuous
 62
     7
 48
25.4
100
AcDbLine
 10
198.9697200823
 20
218.1745790757
 30
0.0
 11
160.8197200823
 21
218.1745790757
 31
0.0
  0
LINE
  5
69
330
5D
100
AcDbEntity
  8
DV1_Default
  6
Continuous
 62
     7
 48
25.4
100
AcDbLine
 10
166.3807488024
 20
218.5245790757
 30
0.0
 11
166.3807488024
 21
222.3745790757
 31
0.0
  0
LINE
  5
6A
330
5D
100
AcDbEntity
  8
DV1_Default
  6
Continuous
 62
     7
 48
25.4
100
AcDbLine
 10
206.3197200823
 20
216.5995790757
 30
0.0
 11
198.9697200823
 21
216.5995790757
 31
0.0
  0
LINE
  5
6B
330
5D
100
AcDbEntity
  8
DV1_Default
  6
Continuous
 62
     7
 48
25.4
100
AcDbLine
 10
206.6697200823
 20
216.9495790757
 30
0.0
 11
206.6697200823
 21
222.3745790757
 31
0.0
  0
LINE
  5
6C
330
5D
100
AcDbEntity
  8
DV1_Default
  6
Continuous
 62
     7
 48
25.4
100
AcDbLine
 10
206.3197200823
 20
216.5995790757
 30
0.0
 11
206.6697200823
 21
216.9495790757
 31
0.0
  0
LINE
  5
6D
330
5D
100
AcDbEntity
  8
DV1_Default
  6
Continuous
 62
     7
 48
25.4
100
AcDbLine
 10
206.3197200823
 20
216.5995790757
 30
0.0
 11
206.3197200823
 21
222.3745790757
 31
0.0
  0
LINE
  5
6E
330
5D
100
AcDbEntity
  8
DV1_Default
  6
Continuous
 62
     7
 48
25.4
100
AcDbLine
 10
198.9697200823
 20
228.6745790757
 30
0.0
 11
207.7197200823
 21
228.6745790757
 31
0.0
  0
LINE
  5
6F
330
5D
100
AcDbEntity
  8
DV1_Default
  6
Continuous
 62
     7
 48
25.4
100
AcDbLine
 10
198.9697200823
 20
228.6745790757
 30
0.0
 11
198.9697200823
 21
222.3745790757
 31
0.0
  0
LINE
  5
70
330
5D
100
AcDbEntity
  8
DV1_Default
  6
Continuous
 62
     7
 48
25.4
100
AcDbLine
 10
198.9697200823
 20
226.2245790757
 30
0.0
 11
148.2197200823
 21
226.2245790757
 31
0.0
  0
LINE
  5
71
330
5D
100
AcDbEntity
  8
DV1_Default
  6
Continuous
 62
     7
 48
25.4
100
AcDbLine
 10
198.9697200823
 20
226.5745790757
 30
0.0
 11
160.8197200823
 21
226.5745790757
 31
0.0
  0
LINE
  5
72
330
5D
100
AcDbEntity
  8
DV1_Default
  6
Continuous
 62
     7
 48
25.4
100
AcDbLine
 10
166.3807488024
 20
226.2245790757
 30
0.0
 11
166.3807488024
 21
222.3745790757
 31
0.0
  0
LINE
  5
73
330
5D
100
AcDbEntity
  8
DV1_Default
  6
Continuous
 62
     7
 48
25.4
100
AcDbLine
 10
206.3197200823
 20
228.1495790757
 30
0.0
 11
198.9697200823
 21
228.1495790757
 31
0.0
  0
LINE
  5
74
330
5D
100
AcDbEntity
  8
DV1_Default
  6
Continuous
 62
     7
 48
25.4
100
AcDbLine
 10
206.6697200823
 20
227.7995790757
 30
0.0
 11
206.6697200823
 21
222.3745790757
 31
0.0
  0
LINE
  5
75
330
5D
100
AcDbEntity
  8
DV1_Default
  6
Continuous
 62
     7
 48
25.4
100
AcDbLine
 10
206.3197200823
 20
228.1495790757
 30
0.0
 11
206.6697200823
 21
227.7995790757
 31
0.0
  0
LINE
  5
76
330
5D
100
AcDbEntity
  8
DV1_Default
  6
Continuous
 62
     7
 48
25.4
100
AcDbLine
 10
206.3197200823
 20
228.1495790757
 30
0.0
 11
206.3197200823
 21
222.3745790757
 31
0.0
  0
LINE
  5
77
330
5D
100
AcDbEntity
  8
DV1_Default
  6
Continuous
 62
     7
 48
25.4
100
AcDbLine
 10
148.2197200823
 20
214.3595790757
 30
0.0
 11
148.2197200823
 21
218.5245790757
 31
0.0
  0
LINE
  5
78
330
5D
100
AcDbEntity
  8
DV1_Default
  6
Continuous
 62
     7
 48
25.4
100
AcDbLine
 10
157.6697200823
 20
214.3595790757
 30
0.0
 11
157.6697200823
 21
218.5245790757
 31
0.0
  0
LINE
  5
79
330
5D
100
AcDbEntity
  8
DV1_Default
  6
Continuous
 62
     7
 48
25.4
100
AcDbLine
 10
148.2197200823
 20
280.1595790757
 30
0.0
 11
148.2197200823
 21
345.9595790757
 31
0.0
  0
LINE
  5
7A
330
5D
100
AcDbEntity
  8
DV1_Default
  6
Continuous
 62
     7
 48
25.4
100
AcDbLine
 10
157.6697200823
 20
280.1595790757
 30
0.0
 11
157.6697200823
 21
335.8445790757
 31
0.0
  0
LINE
  5
7B
330
5D
100
AcDbEntity
  8
DV1_Default
  6
CENTER2
 62
     7
 48
25.4
100
AcDbLine
 10
143.9975902008
 20
337.9445790757
 30
0.0
 11
170.2271529364
 21
337.9445790757
 31
0.0
  0
LINE
  5
7C
330
5D
100
AcDbEntity
  8
DV1_Default
  6
Continuous
 62
     7
 48
25.4
100
AcDbLine
 10
153.4697200823
 20
340.0445790757
 30
0.0
 11
166.3807488024
 21
340.0445790757
 31
0.0
  0
LINE
  5
7D
330
5D
100
AcDbEntity
  8
DV1_Default
  6
Continuous
 62
     7
 48
25.4
100
AcDbLine
 10
166.3807488024
 20
335.8445790757
 30
0.0
 11
153.4697200823
 21
335.8445790757
 31
0.0
  0
LINE
  5
7E
330
5D
100
AcDbEntity
  8
DV1_Default
  6
Continuous
 62
     7
 48
25.4
100
AcDbLine
 10
166.3807488024
 20
335.8445790757
 30
0.0
 11
166.3807488024
 21
340.0445790757
 31
0.0
  0
LINE
  5
7F
330
5D
100
AcDbEntity
  8
DV1_Default
  6
Continuous
 62
     7
 48
25.4
100
AcDbLine
 10
153.4697200823
 20
341.4445790757
 30
0.0
 11
153.4697200823
 21
334.4445790757
 31
0.0
  0
LINE
  5
80
330
5D
100
AcDbEntity
  8
DV1_Default
  6
Continuous
 62
     7
 48
25.4
100
AcDbLine
 10
153.4697200823
 20
334.4445790757
 30
0.0
 11
148.2197200823
 21
334.4445790757
 31
0.0
  0
LINE
  5
81
330
5D
100
AcDbEntity
  8
DV1_Default
  6
Continuous
 62
     7
 48
25.4
100
AcDbLine
 10
153.4697200823
 20
341.4445790757
 30
0.0
 11
148.2197200823
 21
341.4445790757
 31
0.0
  0
LINE
  5
82
330
5D
100
AcDbEntity
  8
DV1_Default
  6
Continuous
 62
     7
 48
25.4
100
AcDbLine
 10
153.4697200823
 20
341.0945790757
 30
0.0
 11
149.6197200823
 21
341.0945790757
 31
0.0
  0
LINE
  5
83
330
5D
100
AcDbEntity
  8
DV1_Default
  6
Continuous
 62
     7
 48
25.4
100
AcDbLine
 10
149.2697200823
 20
340.7445790757
 30
0.0
 11
149.2697200823
 21
335.1445790757
 31
0.0
  0
LINE
  5
84
330
5D
100
AcDbEntity
  8
DV1_Default
  6
Continuous
 62
     7
 48
25.4
100
AcDbLine
 10
149.6197200823
 20
334.7945790757
 30
0.0
 11
153.4697200823
 21
334.7945790757
 31
0.0
  0
LINE
  5
85
330
5D
100
AcDbEntity
  8
DV1_Default
  6
Continuous
 62
     7
 48
25.4
100
AcDbLine
 10
149.2697200823
 20
340.7445790757
 30
0.0
 11
149.6197200823
 21
341.0945790757
 31
0.0
  0
LINE
  5
86
330
5D
100
AcDbEntity
  8
DV1_Default
  6
Continuous
 62
     7
 48
25.4
100
AcDbLine
 10
149.6197200823
 20
334.7945790757
 30
0.0
 11
149.2697200823
 21
335.1445790757
 31
0.0
  0
LINE
  5
87
330
5D
100
AcDbEntity
  8
DV1_Default
  6
Continuous
 62
     7
 48
25.4
100
AcDbLine
 10
149.6197200823
 20
341.0945790757
 30
0.0
 11
149.6197200823
 21
334.7945790757
 31
0.0
  0
LINE
  5
88
330
5D
100
AcDbEntity
  8
DV1_Default
  6
Continuous
 62
     7
 48
25.4
100
AcDbLine
 10
153.4697200823
 20
339.6945790757
 30
0.0
 11
166.3807488024
 21
339.6945790757
 31
0.0
  0
LINE
  5
89
330
5D
100
AcDbEntity
  8
DV1_Default
  6
Continuous
 62
     7
 48
25.4
100
AcDbLine
 10
153.4697200823
 20
336.1945790757
 30
0.0
 11
166.3807488024
 21
336.1945790757
 31
0.0
  0
LINE
  5
8A
330
5D
100
AcDbEntity
  8
DV1_Default
  6
Continuous
 62
     7
 48
25.4
100
AcDbLine
 10
157.6697200823
 20
340.0445790757
 30
0.0
 11
157.6697200823
 21
345.9595790757
 31
0.0
  0
LINE
  5
8B
330
5D
100
AcDbEntity
  8
DV1_Default
  6
Continuous
 62
     7
 48
25.4
100
AcDbLine
 10
207.7197200823
 20
385.8595790757
 30
0.0
 11
206.6697200823
 21
386.9095790757
 31
0.0
  0
LINE
  5
8C
330
5D
100
AcDbEntity
  8
DV1_Default
  6
Continuous
 62
     7
 48
25.4
100
AcDbLine
 10
178.7444527633
 20
384.1184013506
 30
0.0
 11
178.7444527633
 21
386.9095790757
 31
0.0
  0
LINE
  5
8D
330
5D
100
AcDbEntity
  8
DV1_Default
  6
Continuous
 62
     7
 48
25.4
100
AcDbLine
 10
178.7444527633
 20
386.9095790757
 30
0.0
 11
178.7444527633
 21
387.6095790757
 31
0.0
  0
LINE
  5
8E
330
5D
100
AcDbEntity
  8
DV1_Default
  6
Continuous
 62
     7
 48
25.4
100
AcDbLine
 10
209.4697200823
 20
388.6595790757
 30
0.0
 11
233.2697200823
 21
388.6595790757
 31
0.0
  0
LINE
  5
8F
330
5D
100
AcDbEntity
  8
DV1_Default
  6
Continuous
 62
     7
 48
25.4
100
AcDbLine
 10
233.2697200823
 20
388.6595790757
 30
0.0
 11
233.2697200823
 21
325.6595790757
 31
0.0
  0
LINE
  5
90
330
5D
100
AcDbEntity
  8
DV1_Default
  6
Continuous
 62
     7
 48
25.4
100
AcDbLine
 10
233.2697200823
 20
325.6595790757
 30
0.0
 11
209.4697200823
 21
325.6595790757
 31
0.0
  0
LINE
  5
91
330
5D
100
AcDbEntity
  8
DV1_Default
  6
Continuous
 62
     7
 48
25.4
100
AcDbLine
 10
178.7444527633
 20
387.6095790757
 30
0.0
 11
208.7697200823
 21
387.6095790757
 31
0.0
  0
LINE
  5
92
330
5D
100
AcDbEntity
  8
DV1_Default
  6
Continuous
 62
     7
 48
25.4
100
AcDbLine
 10
208.7697200823
 20
387.6095790757
 30
0.0
 11
208.7697200823
 21
387.6095790757
 31
0.0
  0
LINE
  5
93
330
5D
100
AcDbEntity
  8
DV1_Default
  6
Continuous
 62
     7
 48
25.4
100
AcDbLine
 10
208.7697200823
 20
326.3595790757
 30
0.0
 11
209.4697200823
 21
325.6595790757
 31
0.0
  0
LINE
  5
94
330
5D
100
AcDbEntity
  8
DV1_Default
  6
Continuous
 62
     7
 48
25.4
100
AcDbLine
 10
209.4697200823
 20
388.6595790757
 30
0.0
 11
208.7697200823
 21
387.9595790757
 31
0.0
  0
LINE
  5
95
330
5D
100
AcDbEntity
  8
DV1_Default
  6
Continuous
 62
     7
 48
25.4
100
AcDbLine
 10
208.7697200823
 20
387.6095790757
 30
0.0
 11
209.4697200823
 21
386.9095790757
 31
0.0
  0
LINE
  5
96
330
5D
100
AcDbEntity
  8
DV1_Default
  6
Continuous
 62
     7
 48
25.4
100
AcDbLine
 10
224.5197200823
 20
374.6595790757
 30
0.0
 11
224.5197200823
 21
379.5595790757
 31
0.0
  0
LINE
  5
97
330
5D
100
AcDbEntity
  8
DV1_Default
  6
Continuous
 62
     7
 48
25.4
100
AcDbLine
 10
224.1697200823
 20
379.9095790757
 30
0.0
 11
217.5197200823
 21
379.9095790757
 31
0.0
  0
LINE
  5
98
330
5D
100
AcDbEntity
  8
DV1_Default
  6
Continuous
 62
     7
 48
25.4
100
AcDbLine
 10
233.2697200823
 20
380.6095790757
 30
0.0
 11
217.5197200823
 21
380.6095790757
 31
0.0
  0
LINE
  5
99
330
5D
100
AcDbEntity
  8
DV1_Default
  6
Continuous
 62
     7
 48
25.4
100
AcDbLine
 10
217.5197200823
 20
380.6095790757
 30
0.0
 11
217.5197200823
 21
374.6595790757
 31
0.0
  0
LINE
  5
9A
330
5D
100
AcDbEntity
  8
DV1_Default
  6
Continuous
 62
     7
 48
25.4
100
AcDbLine
 10
217.5197200823
 20
374.6595790757
 30
0.0
 11
217.5197200823
 21
378.1595790757
 31
0.0
  0
LINE
  5
9B
330
5D
100
AcDbEntity
  8
DV1_Default
  6
Continuous
 62
     7
 48
25.4
100
AcDbLine
 10
217.5197200823
 20
378.1595790757
 30
0.0
 11
212.6197200823
 21
378.1595790757
 31
0.0
  0
LINE
  5
9C
330
5D
100
AcDbEntity
  8
DV1_Default
  6
Continuous
 62
     7
 48
25.4
100
AcDbLine
 10
224.1697200823
 20
379.9095790757
 30
0.0
 11
224.5197200823
 21
379.5595790757
 31
0.0
  0
LINE
  5
9D
330
5D
100
AcDbEntity
  8
DV1_Default
  6
Continuous
 62
     7
 48
25.4
100
AcDbLine
 10
224.1697200823
 20
379.9095790757
 30
0.0
 11
224.1697200823
 21
374.6595790757
 31
0.0
  0
LINE
  5
9E
330
5D
100
AcDbEntity
  8
DV1_Default
  6
Continuous
 62
     7
 48
25.4
100
AcDbLine
 10
212.9697200823
 20
378.5095790757
 30
0.0
 11
217.5197200823
 21
378.5095790757
 31
0.0
  0
LINE
  5
9F
330
5D
100
AcDbEntity
  8
DV1_Default
  6
Continuous
 62
     7
 48
25.4
100
AcDbLine
 10
209.4697200823
 20
381.9584446409
 30
0.0
 11
212.6197200823
 21
381.9584446409
 31
0.0
  0
LINE
  5
A0
330
5D
100
AcDbEntity
  8
DV1_Default
  6
Continuous
 62
     7
 48
25.4
100
AcDbLine
 10
212.6197200823
 20
388.6595790757
 30
0.0
 11
212.9697200823
 21
388.6595790757
 31
0.0
  0
LINE
  5
A1
330
5D
100
AcDbEntity
  8
DV1_Default
  6
Continuous
 62
     7
 48
25.4
100
AcDbLine
 10
212.9697200823
 20
388.6595790757
 30
0.0
 11
212.9697200823
 21
378.5095790757
 31
0.0
  0
LINE
  5
A2
330
5D
100
AcDbEntity
  8
DV1_Default
  6
Continuous
 62
     7
 48
25.4
100
AcDbLine
 10
208.7697200823
 20
361.7095790757
 30
0.0
 11
208.7697200823
 21
361.7095790757
 31
0.0
  0
LINE
  5
A3
330
5D
100
AcDbEntity
  8
DV1_Default
  6
Continuous
 62
     7
 48
25.4
100
AcDbLine
 10
224.5197200823
 20
374.6595790757
 30
0.0
 11
224.5197200823
 21
369.7595790757
 31
0.0
  0
LINE
  5
A4
330
5D
100
AcDbEntity
  8
DV1_Default
  6
Continuous
 62
     7
 48
25.4
100
AcDbLine
 10
224.1697200823
 20
369.4095790757
 30
0.0
 11
217.5197200823
 21
369.4095790757
 31
0.0
  0
LINE
  5
A5
330
5D
100
AcDbEntity
  8
DV1_Default
  6
Continuous
 62
     7
 48
25.4
100
AcDbLine
 10
233.2697200823
 20
368.7095790757
 30
0.0
 11
217.5197200823
 21
368.7095790757
 31
0.0
  0
LINE
  5
A6
330
5D
100
AcDbEntity
  8
DV1_Default
  6
Continuous
 62
     7
 48
25.4
100
AcDbLine
 10
217.5197200823
 20
368.7095790757
 30
0.0
 11
217.5197200823
 21
374.6595790757
 31
0.0
  0
LINE
  5
A7
330
5D
100
AcDbEntity
  8
DV1_Default
  6
Continuous
 62
     7
 48
25.4
100
AcDbLine
 10
217.5197200823
 20
374.6595790757
 30
0.0
 11
217.5197200823
 21
371.1595790757
 31
0.0
  0
LINE
  5
A8
330
5D
100
AcDbEntity
  8
DV1_Default
  6
Continuous
 62
     7
 48
25.4
100
AcDbLine
 10
217.5197200823
 20
371.1595790757
 30
0.0
 11
212.6197200823
 21
371.1595790757
 31
0.0
  0
LINE
  5
A9
330
5D
100
AcDbEntity
  8
DV1_Default
  6
Continuous
 62
     7
 48
25.4
100
AcDbLine
 10
224.1697200823
 20
369.4095790757
 30
0.0
 11
224.5197200823
 21
369.7595790757
 31
0.0
  0
LINE
  5
AA
330
5D
100
AcDbEntity
  8
DV1_Default
  6
Continuous
 62
     7
 48
25.4
100
AcDbLine
 10
224.1697200823
 20
369.4095790757
 30
0.0
 11
224.1697200823
 21
374.6595790757
 31
0.0
  0
LINE
  5
AB
330
5D
100
AcDbEntity
  8
DV1_Default
  6
Continuous
 62
     7
 48
25.4
100
AcDbLine
 10
212.9697200823
 20
370.8095790757
 30
0.0
 11
217.5197200823
 21
370.8095790757
 31
0.0
  0
LINE
  5
AC
330
5D
100
AcDbEntity
  8
DV1_Default
  6
Continuous
 62
     7
 48
25.4
100
AcDbLine
 10
212.9697200823
 20
370.8095790757
 30
0.0
 11
212.9697200823
 21
364.1595790757
 31
0.0
  0
LINE
  5
AD
330
5D
100
AcDbEntity
  8
DV1_Default
  6
Continuous
 62
     7
 48
25.4
100
AcDbLine
 10
212.6197200823
 20
381.9584446409
 30
0.0
 11
212.6197200823
 21
364.1595790757
 31
0.0
  0
LINE
  5
AE
330
5D
100
AcDbEntity
  8
DV1_Default
  6
Continuous
 62
     7
 48
25.4
100
AcDbLine
 10
208.7697200823
 20
340.7095790757
 30
0.0
 11
208.7697200823
 21
340.7095790757
 31
0.0
  0
LINE
  5
AF
330
5D
100
AcDbEntity
  8
DV1_Default
  6
Continuous
 62
     7
 48
25.4
100
AcDbLine
 10
224.5197200823
 20
353.6595790757
 30
0.0
 11
224.5197200823
 21
348.7595790757
 31
0.0
  0
LINE
  5
B0
330
5D
100
AcDbEntity
  8
DV1_Default
  6
Continuous
 62
     7
 48
25.4
100
AcDbLine
 10
224.1697200823
 20
348.4095790757
 30
0.0
 11
217.5197200823
 21
348.4095790757
 31
0.0
  0
LINE
  5
B1
330
5D
100
AcDbEntity
  8
DV1_Default
  6
Continuous
 62
     7
 48
25.4
100
AcDbLine
 10
233.2697200823
 20
347.7095790757
 30
0.0
 11
217.5197200823
 21
347.7095790757
 31
0.0
  0
LINE
  5
B2
330
5D
100
AcDbEntity
  8
DV1_Default
  6
Continuous
 62
     7
 48
25.4
100
AcDbLine
 10
217.5197200823
 20
347.7095790757
 30
0.0
 11
217.5197200823
 21
353.6595790757
 31
0.0
  0
LINE
  5
B3
330
5D
100
AcDbEntity
  8
DV1_Default
  6
Continuous
 62
     7
 48
25.4
100
AcDbLine
 10
217.5197200823
 20
353.6595790757
 30
0.0
 11
217.5197200823
 21
350.1595790757
 31
0.0
  0
LINE
  5
B4
330
5D
100
AcDbEntity
  8
DV1_Default
  6
Continuous
 62
     7
 48
25.4
100
AcDbLine
 10
217.5197200823
 20
350.1595790757
 30
0.0
 11
212.6197200823
 21
350.1595790757
 31
0.0
  0
LINE
  5
B5
330
5D
100
AcDbEntity
  8
DV1_Default
  6
Continuous
 62
     7
 48
25.4
100
AcDbLine
 10
224.1697200823
 20
348.4095790757
 30
0.0
 11
224.5197200823
 21
348.7595790757
 31
0.0
  0
LINE
  5
B6
330
5D
100
AcDbEntity
  8
DV1_Default
  6
Continuous
 62
     7
 48
25.4
100
AcDbLine
 10
224.1697200823
 20
348.4095790757
 30
0.0
 11
224.1697200823
 21
353.6595790757
 31
0.0
  0
LINE
  5
B7
330
5D
100
AcDbEntity
  8
DV1_Default
  6
Continuous
 62
     7
 48
25.4
100
AcDbLine
 10
212.9697200823
 20
349.8095790757
 30
0.0
 11
217.5197200823
 21
349.8095790757
 31
0.0
  0
LINE
  5
B8
330
5D
100
AcDbEntity
  8
DV1_Default
  6
Continuous
 62
     7
 48
25.4
100
AcDbLine
 10
209.4697200823
 20
346.3607135104
 30
0.0
 11
212.6197200823
 21
346.3607135104
 31
0.0
  0
LINE
  5
B9
330
5D
100
AcDbEntity
  8
DV1_Default
  6
Continuous
 62
     7
 48
25.4
100
AcDbLine
 10
208.7697200823
 20
366.6095790757
 30
0.0
 11
208.7697200823
 21
366.6095790757
 31
0.0
  0
LINE
  5
BA
330
5D
100
AcDbEntity
  8
DV1_Default
  6
Continuous
 62
     7
 48
25.4
100
AcDbLine
 10
224.5197200823
 20
353.6595790757
 30
0.0
 11
224.5197200823
 21
358.5595790757
 31
0.0
  0
LINE
  5
BB
330
5D
100
AcDbEntity
  8
DV1_Default
  6
Continuous
 62
     7
 48
25.4
100
AcDbLine
 10
224.1697200823
 20
358.9095790757
 30
0.0
 11
217.5197200823
 21
358.9095790757
 31
0.0
  0
LINE
  5
BC
330
5D
100
AcDbEntity
  8
DV1_Default
  6
Continuous
 62
     7
 48
25.4
100
AcDbLine
 10
233.2697200823
 20
359.6095790757
 30
0.0
 11
217.5197200823
 21
359.6095790757
 31
0.0
  0
LINE
  5
BD
330
5D
100
AcDbEntity
  8
DV1_Default
  6
Continuous
 62
     7
 48
25.4
100
AcDbLine
 10
217.5197200823
 20
359.6095790757
 30
0.0
 11
217.5197200823
 21
353.6595790757
 31
0.0
  0
LINE
  5
BE
330
5D
100
AcDbEntity
  8
DV1_Default
  6
Continuous
 62
     7
 48
25.4
100
AcDbLine
 10
217.5197200823
 20
353.6595790757
 30
0.0
 11
217.5197200823
 21
357.1595790757
 31
0.0
  0
LINE
  5
BF
330
5D
100
AcDbEntity
  8
DV1_Default
  6
Continuous
 62
     7
 48
25.4
100
AcDbLine
 10
217.5197200823
 20
357.1595790757
 30
0.0
 11
212.6197200823
 21
357.1595790757
 31
0.0
  0
LINE
  5
C0
330
5D
100
AcDbEntity
  8
DV1_Default
  6
Continuous
 62
     7
 48
25.4
100
AcDbLine
 10
224.1697200823
 20
358.9095790757
 30
0.0
 11
224.5197200823
 21
358.5595790757
 31
0.0
  0
LINE
  5
C1
330
5D
100
AcDbEntity
  8
DV1_Default
  6
Continuous
 62
     7
 48
25.4
100
AcDbLine
 10
224.1697200823
 20
358.9095790757
 30
0.0
 11
224.1697200823
 21
353.6595790757
 31
0.0
  0
LINE
  5
C2
330
5D
100
AcDbEntity
  8
DV1_Default
  6
Continuous
 62
     7
 48
25.4
100
AcDbLine
 10
212.9697200823
 20
357.5095790757
 30
0.0
 11
217.5197200823
 21
357.5095790757
 31
0.0
  0
LINE
  5
C3
330
5D
100
AcDbEntity
  8
DV1_Default
  6
Continuous
 62
     7
 48
25.4
100
AcDbLine
 10
212.9697200823
 20
357.5095790757
 30
0.0
 11
212.9697200823
 21
364.1595790757
 31
0.0
  0
LINE
  5
C4
330
5D
100
AcDbEntity
  8
DV1_Default
  6
Continuous
 62
     7
 48
25.4
100
AcDbLine
 10
212.6197200823
 20
346.3607135104
 30
0.0
 11
212.6197200823
 21
364.1595790757
 31
0.0
  0
LINE
  5
C5
330
5D
100
AcDbEntity
  8
DV1_Default
  6
Continuous
 62
     7
 48
25.4
100
AcDbLine
 10
212.9697200823
 20
349.8095790757
 30
0.0
 11
212.9697200823
 21
325.6595790757
 31
0.0
  0
LINE
  5
C6
330
5D
100
AcDbEntity
  8
DV1_Default
  6
Continuous
 62
     7
 48
25.4
100
AcDbLine
 10
212.6197200823
 20
378.1595790757
 30
0.0
 11
212.6197200823
 21
377.9845790757
 31
0.0
  0
LINE
  5
C7
330
5D
100
AcDbEntity
  8
DV1_Default
  6
Continuous
 62
     7
 48
25.4
100
AcDbLine
 10
212.6197200823
 20
377.9845790757
 30
0.0
 11
213.6697200823
 21
377.9845790757
 31
0.0
  0
LINE
  5
C8
330
5D
100
AcDbEntity
  8
DV1_Default
  6
Continuous
 62
     7
 48
25.4
100
AcDbLine
 10
213.6697200823
 20
371.3345790757
 30
0.0
 11
212.6197200823
 21
371.3345790757
 31
0.0
  0
LINE
  5
C9
330
5D
100
AcDbEntity
  8
DV1_Default
  6
Continuous
 62
     7
 48
25.4
100
AcDbLine
 10
213.6697200823
 20
377.9845790757
 30
0.0
 11
213.6697200823
 21
371.3345790757
 31
0.0
  0
LINE
  5
CA
330
5D
100
AcDbEntity
  8
DV1_Default
  6
Continuous
 62
     7
 48
25.4
100
AcDbLine
 10
212.6197200823
 20
357.1595790757
 30
0.0
 11
212.6197200823
 21
356.9845790757
 31
0.0
  0
LINE
  5
CB
330
5D
100
AcDbEntity
  8
DV1_Default
  6
Continuous
 62
     7
 48
25.4
100
AcDbLine
 10
212.6197200823
 20
356.9845790757
 30
0.0
 11
213.6697200823
 21
356.9845790757
 31
0.0
  0
LINE
  5
CC
330
5D
100
AcDbEntity
  8
DV1_Default
  6
Continuous
 62
     7
 48
25.4
100
AcDbLine
 10
213.6697200823
 20
350.3345790757
 30
0.0
 11
212.6197200823
 21
350.3345790757
 31
0.0
  0
LINE
  5
CD
330
5D
100
AcDbEntity
  8
DV1_Default
  6
Continuous
 62
     7
 48
25.4
100
AcDbLine
 10
213.6697200823
 20
356.9845790757
 30
0.0
 11
213.6697200823
 21
350.3345790757
 31
0.0
  0
LINE
  5
CE
330
5D
100
AcDbEntity
  8
DV1_Default
  6
Continuous
 62
     7
 48
25.4
100
AcDbLine
 10
204.2197200823
 20
314.7172889668
 30
0.0
 11
204.9197200823
 21
314.7172889668
 31
0.0
  0
LINE
  5
CF
330
5D
100
AcDbEntity
  8
DV1_Default
  6
Continuous
 62
     7
 48
25.4
100
AcDbLine
 10
204.9197200823
 20
314.7172889668
 30
0.0
 11
207.7197200823
 21
313.1007082131
 31
0.0
  0
LINE
  5
D0
330
5D
100
AcDbEntity
  8
DV1_Default
  6
Continuous
 62
     7
 48
25.4
100
AcDbLine
 10
148.2197200823
 20
330.1702040757
 30
0.0
 11
155.5697200823
 21
329.267737553
 31
0.0
  0
LINE
  5
D1
330
5D
100
AcDbEntity
  8
DV1_Default
  6
Continuous
 62
     7
 48
25.4
100
AcDbLine
 10
155.5697200823
 20
329.267737553
 30
0.0
 11
157.6697200823
 21
329.267737553
 31
0.0
  0
LINE
  5
D2
330
5D
100
AcDbEntity
  8
DV1_Default
  6
Continuous
 62
     7
 48
25.4
100
AcDbLine
 10
155.5697200823
 20
329.267737553
 30
0.0
 11
155.5697200823
 21
280.1595790757
 31
0.0
  0
LINE
  5
D3
330
5D
100
AcDbEntity
  8
DV1_Default
  6
Continuous
 62
     7
 48
25.4
100
AcDbLine
 10
148.2197200823
 20
230.1489540757
 30
0.0
 11
155.5697200823
 21
231.0514205983
 31
0.0
  0
LINE
  5
D4
330
5D
100
AcDbEntity
  8
DV1_Default
  6
Continuous
 62
     7
 48
25.4
100
AcDbLine
 10
155.5697200823
 20
231.0514205983
 30
0.0
 11
157.6697200823
 21
231.0514205983
 31
0.0
  0
LINE
  5
D5
330
5D
100
AcDbEntity
  8
DV1_Default
  6
Continuous
 62
     7
 48
25.4
100
AcDbLine
 10
155.5697200823
 20
231.0514205983
 30
0.0
 11
155.5697200823
 21
280.1595790757
 31
0.0
  0
LINE
  5
D6
330
5D
100
AcDbEntity
  8
DV1_Default
  6
Continuous
 62
     7
 48
25.4
100
AcDbLine
 10
148.9197200823
 20
213.6595790757
 30
0.0
 11
156.9697200823
 21
213.6595790757
 31
0.0
  0
LINE
  5
D7
330
5D
100
AcDbEntity
  8
DV1_Default
  6
Continuous
 62
     7
 48
25.4
100
AcDbLine
 10
148.2197200823
 20
345.9595790757
 30
0.0
 11
148.9197200823
 21
346.6595790757
 31
0.0
  0
LINE
  5
D8
330
5D
100
AcDbEntity
  8
DV1_Default
  6
Continuous
 62
     7
 48
25.4
100
AcDbLine
 10
148.9197200823
 20
213.6595790757
 30
0.0
 11
148.2197200823
 21
214.3595790757
 31
0.0
  0
LINE
  5
D9
330
5D
100
AcDbEntity
  8
DV1_Default
  6
Continuous
 62
     7
 48
25.4
100
AcDbLine
 10
156.9697200823
 20
346.6595790757
 30
0.0
 11
157.6697200823
 21
345.9595790757
 31
0.0
  0
LINE
  5
DA
330
5D
100
AcDbEntity
  8
DV1_Default
  6
Continuous
 62
     7
 48
25.4
100
AcDbLine
 10
148.9197200823
 20
346.6595790757
 30
0.0
 11
156.9697200823
 21
346.6595790757
 31
0.0
  0
LINE
  5
DB
330
5D
100
AcDbEntity
  8
DV1_Default
  6
Continuous
 62
     7
 48
25.4
100
AcDbLine
 10
156.9697200823
 20
213.6595790757
 30
0.0
 11
157.6697200823
 21
214.3595790757
 31
0.0
  0
LINE
  5
DC
330
5D
100
AcDbEntity
  8
DV1_Default
  6
Continuous
 62
     7
 48
25.4
100
AcDbLine
 10
204.2197200823
 20
310.4345790757
 30
0.0
 11
181.4697200823
 21
310.4345790757
 31
0.0
  0
LINE
  5
DE
330
5D
100
AcDbEntity
  8
DV1_Default
  6
HIDDEN2
 62
     7
 48
25.4
100
AcDbLine
 10
178.7444527633
 20
386.9095790757
 30
0.0
 11
206.6697200823
 21
386.9095790757
 31
0.0
  0
LINE
  5
DF
330
5D
100
AcDbEntity
  8
DV1_Default
  6
Continuous
 62
     7
 48
25.4
100
AcDbLine
 10
207.7197200823
 20
173.4095790757
 30
0.0
 11
155.5697200823
 21
173.4095790757
 31
0.0
  0
LINE
  5
E0
330
5D
100
AcDbEntity
  8
DV1_Default
  6
Continuous
 62
     7
 48
25.4
100
AcDbLine
 10
207.7197200823
 20
280.1595790757
 30
0.0
 11
207.7197200823
 21
173.4095790757
 31
0.0
  0
LINE
  5
E1
330
5D
100
AcDbEntity
  8
DV1_Default
  6
CENTER2
 62
     7
 48
25.4
100
AcDbLine
 10
140.9576987838
 20
280.1595790757
 30
0.0
 11
226.7774259086
 21
280.1595790757
 31
0.0
  0
LINE
  5
E2
330
5D
100
AcDbEntity
  8
DV1_Default
  6
Continuous
 62
     7
 48
25.4
100
AcDbLine
 10
157.6697200823
 20
334.0945790757
 30
0.0
 11
157.6697200823
 21
280.1595790757
 31
0.0
  0
LINE
  5
E3
330
5D
100
AcDbEntity
  8
DV1_Default
  6
Continuous
 62
     7
 48
25.4
100
AcDbLine
 10
157.6697200823
 20
345.9595790757
 30
0.0
 11
157.6697200823
 21
341.7945790757
 31
0.0
  0
LINE
  5
E4
330
5D
100
AcDbEntity
  8
DV1_Default
  6
Continuous
 62
     7
 48
25.4
100
AcDbLine
 10
157.6697200823
 20
331.2975501866
 30
0.0
 11
182.9444527633
 21
331.2975501866
 31
0.0
  0
LINE
  5
E5
330
5D
100
AcDbEntity
  8
DV1_Default
  6
Continuous
 62
     7
 48
25.4
100
AcDbLine
 10
148.2197200823
 20
330.1702040757
 30
0.0
 11
155.5697200823
 21
329.267737553
 31
0.0
  0
LINE
  5
E6
330
5D
100
AcDbEntity
  8
DV1_Default
  6
Continuous
 62
     7
 48
25.4
100
AcDbLine
 10
155.5697200823
 20
329.267737553
 30
0.0
 11
157.6697200823
 21
329.267737553
 31
0.0
  0
LINE
  5
E7
330
5D
100
AcDbEntity
  8
DV1_Default
  6
Continuous
 62
     7
 48
25.4
100
AcDbLine
 10
155.5697200823
 20
329.267737553
 30
0.0
 11
155.5697200823
 21
280.1595790757
 31
0.0
  0
LINE
  5
E8
330
5D
100
AcDbEntity
  8
DV1_Default
  6
Continuous
 62
     7
 48
25.4
100
AcDbLine
 10
148.9197200823
 20
346.6595790757
 30
0.0
 11
156.9697200823
 21
346.6595790757
 31
0.0
  0
LINE
  5
E9
330
5D
100
AcDbEntity
  8
DV1_Default
  6
Continuous
 62
     7
 48
25.4
100
AcDbLine
 10
148.9197200823
 20
346.6595790757
 30
0.0
 11
148.2197200823
 21
345.9595790757
 31
0.0
  0
LINE
  5
EA
330
5D
100
AcDbEntity
  8
DV1_Default
  6
Continuous
 62
     7
 48
25.4
100
AcDbLine
 10
156.9697200823
 20
346.6595790757
 30
0.0
 11
157.6697200823
 21
345.9595790757
 31
0.0
  0
LINE
  5
EB
330
5D
100
AcDbEntity
  8
DV1_Default
  6
Continuous
 62
     7
 48
25.4
100
AcDbLine
 10
155.5697200823
 20
213.6595790757
 30
0.0
 11
155.5697200823
 21
173.4095790757
 31
0.0
  0
LINE
  5
EC
330
5D
100
AcDbEntity
  8
DV1_Default
  6
Continuous
 62
     7
 48
25.4
100
AcDbLine
 10
135.9697200823
 20
218.5245790757
 30
0.0
 11
135.9697200823
 21
226.2245790757
 31
0.0
  0
LINE
  5
ED
330
5D
100
AcDbEntity
  8
DV1_Default
  6
Continuous
 62
     7
 48
25.4
100
AcDbLine
 10
148.2197200823
 20
218.5245790757
 30
0.0
 11
135.9697200823
 21
218.5245790757
 31
0.0
  0
LINE
  5
EE
330
5D
100
AcDbEntity
  8
DV1_Default
  6
Continuous
 62
     7
 48
25.4
100
AcDbLine
 10
135.9697200823
 20
226.2245790757
 30
0.0
 11
148.2197200823
 21
226.2245790757
 31
0.0
  0
LINE
  5
EF
330
5D
100
AcDbEntity
  8
DV1_Default
  6
Continuous
 62
     7
 48
25.4
100
AcDbLine
 10
166.3807488024
 20
225.8745790757
 30
0.0
 11
135.9697200823
 21
225.8745790757
 31
0.0
  0
LINE
  5
F0
330
5D
100
AcDbEntity
  8
DV1_Default
  6
Continuous
 62
     7
 48
25.4
100
AcDbLine
 10
166.3807488024
 20
218.8745790757
 30
0.0
 11
135.9697200823
 21
218.8745790757
 31
0.0
  0
LINE
  5
F1
330
5D
100
AcDbEntity
  8
DV1_Default
  6
Continuous
 62
     7
 48
25.4
100
AcDbLine
 10
160.8197200823
 20
226.5745790757
 30
0.0
 11
157.6697200823
 21
226.5745790757
 31
0.0
  0
LINE
  5
F2
330
5D
100
AcDbEntity
  8
DV1_Default
  6
Continuous
 62
     7
 48
25.4
100
AcDbLine
 10
160.8197200823
 20
218.1745790757
 30
0.0
 11
157.6697200823
 21
218.1745790757
 31
0.0
  0
LINE
  5
F3
330
5D
100
AcDbEntity
  8
DV1_Default
  6
Continuous
 62
     7
 48
25.4
100
AcDbLine
 10
155.5697200823
 20
346.6595790757
 30
0.0
 11
155.5697200823
 21
386.9095790757
 31
0.0
  0
LINE
  5
F4
330
5D
100
AcDbEntity
  8
DV1_Default
  6
Continuous
 62
     7
 48
25.4
100
AcDbLine
 10
155.5697200823
 20
386.9095790757
 30
0.0
 11
178.7444527633
 21
386.9095790757
 31
0.0
  0
LINE
  5
F5
330
5D
100
AcDbEntity
  8
DV1_Default
  6
Continuous
 62
     7
 48
25.4
100
AcDbLine
 10
208.7697200823
 20
387.9595790757
 30
0.0
 11
208.7697200823
 21
319.0095790757
 31
0.0
  0
LINE
  5
F6
330
5D
100
AcDbEntity
  8
DV1_Default
  6
Continuous
 62
     7
 48
25.4
100
AcDbLine
 10
209.4697200823
 20
386.9095790757
 30
0.0
 11
209.485374944
 21
319.7252339373
 31
0.0
  0
LINE
  5
F7
330
5D
100
AcDbEntity
  8
DV1_Default
  6
Continuous
 62
     7
 48
25.4
100
AcDbLine
 10
233.2697200823
 20
380.6095790757
 30
0.0
 11
233.2697200823
 21
368.7095790757
 31
0.0
  0
LINE
  5
F8
330
5D
100
AcDbEntity
  8
DV1_Default
  6
Continuous
 62
     7
 48
25.4
100
AcDbLine
 10
233.2697200823
 20
359.6095790757
 30
0.0
 11
233.2697200823
 21
347.7095790757
 31
0.0
  0
LINE
  5
F9
330
5D
100
AcDbEntity
  8
DV1_Default
  6
CENTER2
 62
     7
 48
25.4
100
AcDbLine
 10
239.7986851756
 20
374.6595790757
 30
0.0
 11
203.2102480694
 21
374.6595790757
 31
0.0
  0
LINE
  5
FA
330
5D
100
AcDbEntity
  8
DV1_Default
  6
CENTER2
 62
     7
 48
25.4
100
AcDbLine
 10
238.8465926381
 20
353.6595790757
 30
0.0
 11
202.8022084105
 21
353.6595790757
 31
0.0
  0
LINE
  5
FB
330
5D
100
AcDbEntity
  8
DV1_Default
  6
Continuous
 62
     7
 48
25.4
100
AcDbLine
 10
157.6697200823
 20
229.0216079647
 30
0.0
 11
182.9444527633
 21
229.0216079647
 31
0.0
  0
LINE
  5
FC
330
5D
100
AcDbEntity
  8
DV1_Default
  6
Continuous
 62
     7
 48
25.4
100
AcDbLine
 10
157.6697200823
 20
280.1595790757
 30
0.0
 11
157.6697200823
 21
247.4345790757
 31
0.0
  0
LINE
  5
FD
330
5D
100
AcDbEntity
  8
DV1_Default
  6
Continuous
 62
     7
 48
25.4
100
AcDbLine
 10
164.6697200823
 20
247.4345790757
 30
0.0
 11
172.7197200823
 21
247.4345790757
 31
0.0
  0
LINE
  5
FE
330
5D
100
AcDbEntity
  8
DV1_Default
  6
Continuous
 62
     7
 48
25.4
100
AcDbLine
 10
181.1197200823
 20
247.4345790757
 30
0.0
 11
181.1197200823
 21
280.1595790757
 31
0.0
  0
LINE
  5
FF
330
5D
100
AcDbEntity
  8
DV1_Default
  6
Continuous
 62
     7
 48
25.4
100
AcDbLine
 10
164.6697200823
 20
247.4345790757
 30
0.0
 11
164.6697200823
 21
280.1595790757
 31
0.0
  0
LINE
  5
100
330
5D
100
AcDbEntity
  8
DV1_Default
  6
Continuous
 62
     7
 48
25.4
100
AcDbLine
 10
165.7197200823
 20
229.0216079647
 30
0.0
 11
165.7197200823
 21
247.4345790757
 31
0.0
  0
LINE
  5
101
330
5D
100
AcDbEntity
  8
DV1_Default
  6
Continuous
 62
     7
 48
25.4
100
AcDbLine
 10
164.6697200823
 20
280.1595790757
 30
0.0
 11
164.6697200823
 21
266.1595790757
 31
0.0
  0
LINE
  5
102
330
5D
100
AcDbEntity
  8
DV1_Default
  6
Continuous
 62
     7
 48
25.4
100
AcDbLine
 10
164.6697200823
 20
266.1595790757
 30
0.0
 11
176.9197200823
 21
266.1595790757
 31
0.0
  0
LINE
  5
103
330
5D
100
AcDbEntity
  8
DV1_Default
  6
Continuous
 62
     7
 48
25.4
100
AcDbLine
 10
176.9197200823
 20
280.1595790757
 30
0.0
 11
176.9197200823
 21
249.5345790757
 31
0.0
  0
LINE
  5
104
330
5D
100
AcDbEntity
  8
DV1_Default
  6
Continuous
 62
     7
 48
25.4
100
AcDbLine
 10
176.9197200823
 20
249.5345790757
 30
0.0
 11
178.6697200823
 21
249.5345790757
 31
0.0
  0
LINE
  5
105
330
5D
100
AcDbEntity
  8
DV1_Default
  6
Continuous
 62
     7
 48
25.4
100
AcDbLine
 10
178.6697200823
 20
249.5345790757
 30
0.0
 11
178.6697200823
 21
280.1595790757
 31
0.0
  0
LINE
  5
106
330
5D
100
AcDbEntity
  8
DV1_Default
  6
Continuous
 62
     7
 48
25.4
100
AcDbLine
 10
176.9197200823
 20
247.4345790757
 30
0.0
 11
176.9197200823
 21
244.6345790757
 31
0.0
  0
LINE
  5
107
330
5D
100
AcDbEntity
  8
DV1_Default
  6
Continuous
 62
     7
 48
25.4
100
AcDbLine
 10
176.9197200823
 20
244.6345790757
 30
0.0
 11
172.7197200823
 21
244.6345790757
 31
0.0
  0
LINE
  5
108
330
5D
100
AcDbEntity
  8
DV1_Default
  6
Continuous
 62
     7
 48
25.4
100
AcDbLine
 10
172.7197200823
 20
244.6345790757
 30
0.0
 11
172.7197200823
 21
247.4345790757
 31
0.0
  0
LINE
  5
109
330
5D
100
AcDbEntity
  8
DV1_Default
  6
Continuous
 62
     7
 48
25.4
100
AcDbLine
 10
176.9197200823
 20
247.4345790757
 30
0.0
 11
181.1197200823
 21
247.4345790757
 31
0.0
  0
LINE
  5
10A
330
5D
100
AcDbEntity
  8
DV1_Default
  6
Continuous
 62
     7
 48
25.4
100
AcDbLine
 10
176.9197200823
 20
249.7095790757
 30
0.0
 11
164.6697200823
 21
249.7095790757
 31
0.0
  0
LINE
  5
10B
330
5D
100
AcDbEntity
  8
DV1_Default
  6
Continuous
 62
     7
 48
25.4
100
AcDbLine
 10
164.6697200823
 20
250.5845790757
 30
0.0
 11
176.9197200823
 21
250.5845790757
 31
0.0
  0
LINE
  5
10C
330
5D
100
AcDbEntity
  8
DV1_Default
  6
Continuous
 62
     7
 48
25.4
100
AcDbLine
 10
178.6697200823
 20
251.4043531954
 30
0.0
 11
181.1197200823
 21
251.4043531954
 31
0.0
  0
LINE
  5
10D
330
5D
100
AcDbEntity
  8
DV1_Default
  6
Continuous
 62
     7
 48
25.4
100
AcDbLine
 10
181.1197200823
 20
247.4345790757
 30
0.0
 11
181.4697200823
 21
247.4345790757
 31
0.0
  0
LINE
  5
10E
330
5D
100
AcDbEntity
  8
DV1_Default
  6
Continuous
 62
     7
 48
25.4
100
AcDbLine
 10
183.7447200823
 20
251.2845790757
 30
0.0
 11
207.7197200823
 21
251.2845790757
 31
0.0
  0
LINE
  5
10F
330
5D
100
AcDbEntity
  8
DV1_Default
  6
Continuous
 62
     7
 48
25.4
100
AcDbLine
 10
204.2197200823
 20
249.8845790757
 30
0.0
 11
181.4697200823
 21
249.8845790757
 31
0.0
  0
LINE
  5
110
330
5D
100
AcDbEntity
  8
DV1_Default
  6
Continuous
 62
     7
 48
25.4
100
AcDbLine
 10
204.9197200823
 20
248.4261937812
 30
0.0
 11
207.7197200823
 21
248.4261937812
 31
0.0
  0
LINE
  5
111
330
5D
100
AcDbEntity
  8
DV1_Default
  6
Continuous
 62
     7
 48
25.4
100
AcDbLine
 10
207.0197200823
 20
248.2511937812
 30
0.0
 11
204.9197200823
 21
248.2511937812
 31
0.0
  0
LINE
  5
112
330
5D
100
AcDbEntity
  8
DV1_Default
  6
Continuous
 62
     7
 48
25.4
100
AcDbLine
 10
207.3697200823
 20
247.9011937812
 30
0.0
 11
207.3697200823
 21
245.6261937812
 31
0.0
  0
LINE
  5
113
330
5D
100
AcDbEntity
  8
DV1_Default
  6
Continuous
 62
     7
 48
25.4
100
AcDbLine
 10
207.0197200823
 20
248.2511937812
 30
0.0
 11
207.3697200823
 21
247.9011937812
 31
0.0
  0
LINE
  5
114
330
5D
100
AcDbEntity
  8
DV1_Default
  6
Continuous
 62
     7
 48
25.4
100
AcDbLine
 10
207.0197200823
 20
248.2511937812
 30
0.0
 11
207.0197200823
 21
245.6261937812
 31
0.0
  0
LINE
  5
115
330
5D
100
AcDbEntity
  8
DV1_Default
  6
Continuous
 62
     7
 48
25.4
100
AcDbLine
 10
204.9197200823
 20
248.4261937812
 30
0.0
 11
204.9197200823
 21
245.6261937812
 31
0.0
  0
LINE
  5
116
330
5D
100
AcDbEntity
  8
DV1_Default
  6
Continuous
 62
     7
 48
25.4
100
AcDbLine
 10
204.9197200823
 20
242.8261937812
 30
0.0
 11
207.7197200823
 21
242.8261937812
 31
0.0
  0
LINE
  5
117
330
5D
100
AcDbEntity
  8
DV1_Default
  6
Continuous
 62
     7
 48
25.4
100
AcDbLine
 10
207.0197200823
 20
243.0011937812
 30
0.0
 11
204.9197200823
 21
243.0011937812
 31
0.0
  0
LINE
  5
118
330
5D
100
AcDbEntity
  8
DV1_Default
  6
Continuous
 62
     7
 48
25.4
100
AcDbLine
 10
207.3697200823
 20
243.3511937812
 30
0.0
 11
207.3697200823
 21
245.6261937812
 31
0.0
  0
LINE
  5
119
330
5D
100
AcDbEntity
  8
DV1_Default
  6
Continuous
 62
     7
 48
25.4
100
AcDbLine
 10
207.0197200823
 20
243.0011937812
 30
0.0
 11
207.3697200823
 21
243.3511937812
 31
0.0
  0
LINE
  5
11A
330
5D
100
AcDbEntity
  8
DV1_Default
  6
Continuous
 62
     7
 48
25.4
100
AcDbLine
 10
207.0197200823
 20
243.0011937812
 30
0.0
 11
207.0197200823
 21
245.6261937812
 31
0.0
  0
LINE
  5
11B
330
5D
100
AcDbEntity
  8
DV1_Default
  6
Continuous
 62
     7
 48
25.4
100
AcDbLine
 10
204.9197200823
 20
242.8261937812
 30
0.0
 11
204.9197200823
 21
245.6261937812
 31
0.0
  0
LINE
  5
11C
330
5D
100
AcDbEntity
  8
DV1_Default
  6
Continuous
 62
     7
 48
25.4
100
AcDbLine
 10
197.0464467132
 20
247.3761937812
 30
0.0
 11
204.9197200823
 21
247.3761937812
 31
0.0
  0
LINE
  5
11D
330
5D
100
AcDbEntity
  8
DV1_Default
  6
Continuous
 62
     7
 48
25.4
100
AcDbLine
 10
197.0464467132
 20
243.8761937812
 30
0.0
 11
204.9197200823
 21
243.8761937812
 31
0.0
  0
LINE
  5
11E
330
5D
100
AcDbEntity
  8
DV1_Default
  6
Continuous
 62
     7
 48
25.4
100
AcDbLine
 10
197.0464467132
 20
247.0261937812
 30
0.0
 11
204.9197200823
 21
247.0261937812
 31
0.0
  0
LINE
  5
11F
330
5D
100
AcDbEntity
  8
DV1_Default
  6
Continuous
 62
     7
 48
25.4
100
AcDbLine
 10
197.0464467132
 20
244.2261937812
 30
0.0
 11
204.9197200823
 21
244.2261937812
 31
0.0
  0
LINE
  5
120
330
5D
100
AcDbEntity
  8
DV1_Default
  6
Continuous
 62
     7
 48
25.4
100
AcDbLine
 10
197.0464467132
 20
247.3761937812
 30
0.0
 11
197.0464467132
 21
243.8761937812
 31
0.0
  0
LINE
  5
121
330
5D
100
AcDbEntity
  8
DV1_Default
  6
CENTER2
 62
     7
 48
25.4
100
AcDbLine
 10
195.8214467132
 20
245.6261937812
 30
0.0
 11
210.0764853035
 21
245.6261937812
 31
0.0
  0
LINE
  5
122
330
5D
100
AcDbEntity
  8
DV1_Default
  6
Continuous
 62
     7
 48
25.4
100
AcDbLine
 10
181.4697200823
 20
247.4345790757
 30
0.0
 11
181.4697200823
 21
280.1595790757
 31
0.0
  0
LINE
  5
123
330
5D
100
AcDbEntity
  8
DV1_Default
  6
Continuous
 62
     7
 48
25.4
100
AcDbLine
 10
157.6697200823
 20
280.1595790757
 30
0.0
 11
157.6697200823
 21
312.8845790757
 31
0.0
  0
LINE
  5
124
330
5D
100
AcDbEntity
  8
DV1_Default
  6
Continuous
 62
     7
 48
25.4
100
AcDbLine
 10
164.6697200823
 20
312.8845790757
 30
0.0
 11
172.7197200823
 21
312.8845790757
 31
0.0
  0
LINE
  5
125
330
5D
100
AcDbEntity
  8
DV1_Default
  6
Continuous
 62
     7
 48
25.4
100
AcDbLine
 10
181.1197200823
 20
312.8845790757
 30
0.0
 11
181.1197200823
 21
280.1595790757
 31
0.0
  0
LINE
  5
126
330
5D
100
AcDbEntity
  8
DV1_Default
  6
Continuous
 62
     7
 48
25.4
100
AcDbLine
 10
164.6697200823
 20
312.8845790757
 30
0.0
 11
164.6697200823
 21
280.1595790757
 31
0.0
  0
LINE
  5
127
330
5D
100
AcDbEntity
  8
DV1_Default
  6
Continuous
 62
     7
 48
25.4
100
AcDbLine
 10
164.6697200823
 20
280.1595790757
 30
0.0
 11
164.6697200823
 21
294.1595790757
 31
0.0
  0
LINE
  5
128
330
5D
100
AcDbEntity
  8
DV1_Default
  6
Continuous
 62
     7
 48
25.4
100
AcDbLine
 10
164.6697200823
 20
294.1595790757
 30
0.0
 11
176.9197200823
 21
294.1595790757
 31
0.0
  0
LINE
  5
129
330
5D
100
AcDbEntity
  8
DV1_Default
  6
Continuous
 62
     7
 48
25.4
100
AcDbLine
 10
176.9197200823
 20
280.1595790757
 30
0.0
 11
176.9197200823
 21
310.7845790757
 31
0.0
  0
LINE
  5
12A
330
5D
100
AcDbEntity
  8
DV1_Default
  6
Continuous
 62
     7
 48
25.4
100
AcDbLine
 10
176.9197200823
 20
310.7845790757
 30
0.0
 11
178.6697200823
 21
310.7845790757
 31
0.0
  0
LINE
  5
12B
330
5D
100
AcDbEntity
  8
DV1_Default
  6
Continuous
 62
     7
 48
25.4
100
AcDbLine
 10
178.6697200823
 20
310.7845790757
 30
0.0
 11
178.6697200823
 21
280.1595790757
 31
0.0
  0
LINE
  5
12C
330
5D
100
AcDbEntity
  8
DV1_Default
  6
Continuous
 62
     7
 48
25.4
100
AcDbLine
 10
176.9197200823
 20
312.8845790757
 30
0.0
 11
176.9197200823
 21
315.6845790757
 31
0.0
  0
LINE
  5
12D
330
5D
100
AcDbEntity
  8
DV1_Default
  6
Continuous
 62
     7
 48
25.4
100
AcDbLine
 10
176.9197200823
 20
315.6845790757
 30
0.0
 11
172.7197200823
 21
315.6845790757
 31
0.0
  0
LINE
  5
12E
330
5D
100
AcDbEntity
  8
DV1_Default
  6
Continuous
 62
     7
 48
25.4
100
AcDbLine
 10
172.7197200823
 20
315.6845790757
 30
0.0
 11
172.7197200823
 21
312.8845790757
 31
0.0
  0
LINE
  5
12F
330
5D
100
AcDbEntity
  8
DV1_Default
  6
Continuous
 62
     7
 48
25.4
100
AcDbLine
 10
176.9197200823
 20
312.8845790757
 30
0.0
 11
181.1197200823
 21
312.8845790757
 31
0.0
  0
LINE
  5
130
330
5D
100
AcDbEntity
  8
DV1_Default
  6
Continuous
 62
     7
 48
25.4
100
AcDbLine
 10
176.9197200823
 20
310.6095790757
 30
0.0
 11
164.6697200823
 21
310.6095790757
 31
0.0
  0
LINE
  5
131
330
5D
100
AcDbEntity
  8
DV1_Default
  6
Continuous
 62
     7
 48
25.4
100
AcDbLine
 10
164.6697200823
 20
309.7345790757
 30
0.0
 11
176.9197200823
 21
309.7345790757
 31
0.0
  0
LINE
  5
132
330
5D
100
AcDbEntity
  8
DV1_Default
  6
Continuous
 62
     7
 48
25.4
100
AcDbLine
 10
178.6697200823
 20
308.9148049559
 30
0.0
 11
181.1197200823
 21
308.9148049559
 31
0.0
  0
LINE
  5
133
330
5D
100
AcDbEntity
  8
DV1_Default
  6
Continuous
 62
     7
 48
25.4
100
AcDbLine
 10
181.1197200823
 20
312.8845790757
 30
0.0
 11
181.4697200823
 21
312.8845790757
 31
0.0
  0
LINE
  5
134
330
5D
100
AcDbEntity
  8
DV1_Default
  6
Continuous
 62
     7
 48
25.4
100
AcDbLine
 10
181.4697200823
 20
312.8845790757
 30
0.0
 11
181.4697200823
 21
280.1595790757
 31
0.0
  0
LINE
  5
135
330
5D
100
AcDbEntity
  8
DV1_Default
  6
Continuous
 62
     7
 48
25.4
100
AcDbLine
 10
183.7447200823
 20
309.0345790757
 30
0.0
 11
207.7197200823
 21
309.0345790757
 31
0.0
  0
LINE
  5
136
330
5D
100
AcDbEntity
  8
DV1_Default
  6
Continuous
 62
     7
 48
25.4
100
AcDbLine
 10
165.7197200823
 20
331.2975501866
 30
0.0
 11
165.7197200823
 21
312.8845790757
 31
0.0
  0
LINE
  5
137
330
5D
100
AcDbEntity
  8
DV1_Default
  6
Continuous
 62
     7
 48
25.4
100
AcDbLine
 10
183.7447200823
 20
309.0345790757
 30
0.0
 11
182.5197200823
 21
310.2595790757
 31
0.0
  0
LINE
  5
138
330
5D
100
AcDbEntity
  8
DV1_Default
  6
Continuous
 62
     7
 48
25.4
100
AcDbLine
 10
182.5197200823
 20
310.2595790757
 30
0.0
 11
182.5197200823
 21
310.4345790757
 31
0.0
  0
LINE
  5
139
330
5D
100
AcDbEntity
  8
DV1_Default
  6
Continuous
 62
     7
 48
25.4
100
AcDbLine
 10
182.5197200823
 20
250.0595790757
 30
0.0
 11
182.5197200823
 21
249.8845790757
 31
0.0
  0
LINE
  5
13A
330
5D
100
AcDbEntity
  8
DV1_Default
  6
Continuous
 62
     7
 48
25.4
100
AcDbLine
 10
182.5197200823
 20
250.0595790757
 30
0.0
 11
183.7447200823
 21
251.2845790757
 31
0.0
  0
LINE
  5
13B
330
5D
100
AcDbEntity
  8
DV1_Default
  6
Continuous
 62
     7
 48
25.4
100
AcDbLine
 10
182.5197200823
 20
310.2595790757
 30
0.0
 11
182.5197200823
 21
250.0595790757
 31
0.0
  0
LINE
  5
13C
330
5D
100
AcDbEntity
  8
DV1_Default
  6
Continuous
 62
     7
 48
25.4
100
AcDbLine
 10
183.7447200823
 20
309.0345790757
 30
0.0
 11
183.7447200823
 21
251.2845790757
 31
0.0
  0
LINE
  5
13D
330
5D
100
AcDbEntity
  8
DV1_Default
  6
Continuous
 62
     7
 48
25.4
100
AcDbLine
 10
207.7197200823
 20
280.1595790757
 30
0.0
 11
207.7197200823
 21
317.9595790757
 31
0.0
  0
LINE
  5
13E
330
5D
100
AcDbEntity
  8
DV1_Default
  6
Continuous
 62
     7
 48
25.4
100
AcDbLine
 10
207.7197200823
 20
317.9595790757
 30
0.0
 11
204.2197200823
 21
317.9595790757
 31
0.0
  0
LINE
  5
13F
330
5D
100
AcDbEntity
  8
DV1_Default
  6
Continuous
 62
     7
 48
25.4
100
AcDbLine
 10
204.2197200823
 20
310.4345790757
 30
0.0
 11
204.2197200823
 21
317.9595790757
 31
0.0
  0
LINE
  5
140
330
5D
100
AcDbEntity
  8
DV1_Default
  6
HIDDEN2
 62
     7
 48
25.4
100
AcDbLine
 10
207.7197200823
 20
385.8595790757
 30
0.0
 11
207.7197200823
 21
317.9595790757
 31
0.0
  0
LINE
  5
141
330
5D
100
AcDbEntity
  8
DV1_Default
  6
Continuous
 62
     7
 48
25.4
100
AcDbLine
 10
208.7697200823
 20
319.0095790757
 30
0.0
 11
208.7697200823
 21
317.9595790757
 31
0.0
  0
LINE
  5
142
330
5D
100
AcDbEntity
  8
DV1_Default
  6
Continuous
 62
     7
 48
25.4
100
AcDbLine
 10
207.7197200823
 20
317.9595790757
 30
0.0
 11
208.7697200823
 21
317.9595790757
 31
0.0
  0
LINE
  5
143
330
5D
100
AcDbEntity
  8
DV1_Default
  6
Continuous
 62
     7
 48
25.4
100
AcDbLine
 10
209.485374944
 20
319.7252339373
 30
0.0
 11
209.485374944
 21
318.6752339373
 31
0.0
  0
LINE
  5
144
330
5D
100
AcDbEntity
  8
DV1_Default
  6
Continuous
 62
     7
 48
25.4
100
AcDbLine
 10
208.7697200823
 20
317.9595790757
 30
0.0
 11
209.485374944
 21
318.6752339373
 31
0.0
  0
LINE
  5
145
330
5D
100
AcDbEntity
  8
DV1_Default
  6
Continuous
 62
     7
 48
25.4
100
AcDbLine
 10
204.2197200823
 20
249.8845790757
 30
0.0
 11
204.2197200823
 21
242.3595790757
 31
0.0
  0
LINE
  5
146
330
5D
100
AcDbEntity
  8
DV1_Default
  6
Continuous
 62
     7
 48
25.4
100
AcDbLine
 10
204.2197200823
 20
242.3595790757
 30
0.0
 11
207.7197200823
 21
242.3595790757
 31
0.0
  0
ENDBLK
  5
148
330
5D
100
AcDbEntity
  8
0
100
AcDbBlockEnd
  0
BLOCK
  5
1E7
330
149
100
AcDbEntity
  8
0
100
AcDbBlockBegin
  2
SE1
 70
     0
 71
     0
 10
0.0
 20
0.0
 30
0.0
  3
SE1
  1

  0
TEXT
  5
14B
330
149
100
AcDbEntity
  8
DV2_Default
  6
Continuous
 62
     7
 48
25.4
100
AcDbText
 10
291.2679546675
 20
33.699626264
 30
0.0
 40
3.0
  1
0
  7
SEACAD_arial_ttf
 11
291.2679546675
 21
36.699626264
 31
0.0
100
AcDbText
 73
     3
  0
TEXT
  5
14D
330
149
100
AcDbEntity
  8
DV2_Default
  6
Continuous
 62
     7
 48
25.4
100
AcDbText
 10
368.3752956454
 20
34.3103363634
 30
0.0
 40
3.0
  1
1000
  7
SEACAD_arial_ttf
 11
368.3752956454
 21
37.3103363634
 31
0.0
100
AcDbText
 73
     3
  0
TEXT
  5
14E
330
149
100
AcDbEntity
  8
DV2_Default
  6
Continuous
 62
     7
 48
25.4
100
AcDbText
 10
410.3922958716
 20
34.1060152673
 30
0.0
 40
3.0
  1
1500
  7
SEACAD_arial_ttf
 11
410.3922958716
 21
37.1060152673
 31
0.0
100
AcDbText
 73
     3
  0
TEXT
  5
14F
330
149
100
AcDbEntity
  8
DV2_Default
  6
Continuous
 62
     7
 48
25.4
100
AcDbText
 10
287.3597669157
 20
45.3785176716
 30
0.0
 40
3.0
  1
20
  7
SEACAD_arial_ttf
 11
287.3597669157
 21
48.3785176716
 31
0.0
100
AcDbText
 73
     3
  0
TEXT
  5
150
330
149
100
AcDbEntity
  8
DV2_Default
  6
Continuous
 62
     7
 48
25.4
100
AcDbText
 10
287.2620665726
 20
52.7943439904
 30
0.0
 40
3.0
  1
40
  7
SEACAD_arial_ttf
 11
287.2620665726
 21
55.7943439904
 31
0.0
100
AcDbText
 73
     3
  0
TEXT
  5
151
330
149
100
AcDbEntity
  8
DV2_Default
  6
Continuous
 62
     7
 48
25.4
100
AcDbText
 10
287.2527477871
 20
60.3830833027
 30
0.0
 40
3.0
  1
60
  7
SEACAD_arial_ttf
 11
287.2527477871
 21
63.3830833027
 31
0.0
100
AcDbText
 73
     3
  0
TEXT
  5
152
330
149
100
AcDbEntity
  8
DV2_Default
  6
Continuous
 62
     7
 48
25.4
100
AcDbText
 10
285.3746835806
 20
76.5166994044
 30
0.0
 40
3.0
  1
100
  7
SEACAD_arial_ttf
 11
285.3746835806
 21
79.5166994044
 31
0.0
100
AcDbText
 73
     3
  0
TEXT
  5
153
330
149
100
AcDbEntity
  8
DV2_Default
  6
Continuous
 62
     7
 48
25.4
100
AcDbText
 10
287.4594732279
 20
68.4718251035
 30
0.0
 40
3.0
  1
80
  7
SEACAD_arial_ttf
 11
287.4594732279
 21
71.4718251035
 31
0.0
100
AcDbText
 73
     3
  0
TEXT
  5
154
330
149
100
AcDbEntity
  8
DV2_Default
  6
Continuous
 62
     7
 48
25.4
100
AcDbText
 10
285.3841637609
 20
83.9579069958
 30
0.0
 40
3.0
  1
120
  7
SEACAD_arial_ttf
 11
285.3841637609
 21
86.9579069958
 31
0.0
100
AcDbText
 73
     3
  0
TEXT
  5
155
330
149
100
AcDbEntity
  8
DV2_Default
  6
Continuous
 62
     7
 48
25.4
100
AcDbText
 10
331.4349689509
 20
125.6227169555
 30
0.0
 40
3.6
  1
Input Force
  7
SEACAD_arial_ttf
 11
331.4349689509
 21
129.2227169555
 31
0.0
100
AcDbText
 73
     3
  0
TEXT
  5
156
330
149
100
AcDbEntity
  8
DV2_Default
  6
Continuous
 62
     7
 48
25.4
100
AcDbText
 10
336.5141835937
 20
119.1225598321
 30
0.0
 40
3.0
  1
90KN
  7
SEACAD_arial_ttf
 11
336.5141835937
 21
122.1225598321
 31
0.0
100
AcDbText
 73
     3
  0
TEXT
  5
157
330
149
100
AcDbEntity
  8
DV2_Default
  6
Continuous
 62
     7
 48
25.4
100
AcDbText
 10
336.384694807
 20
103.1453939978
 30
0.0
 40
3.0
  1
73KN
  7
SEACAD_arial_ttf
 11
336.384694807
 21
106.1453939978
 31
0.0
100
AcDbText
 73
     3
  0
TEXT
  5
158
330
149
100
AcDbEntity
  8
DV2_Default
  6
Continuous
 62
     7
 48
25.4
100
AcDbText
 10
336.5968565641
 20
87.4231995339
 30
0.0
 40
3.0
  1
57.7KN
  7
SEACAD_arial_ttf
 11
336.5968565641
 21
90.4231995339
 31
0.0
100
AcDbText
 73
     3
  0
TEXT
  5
159
330
149
100
AcDbEntity
  8
DV2_Default
  6
Continuous
 62
     7
 48
25.4
100
AcDbText
 10
336.9751549329
 20
71.4366160228
 30
0.0
 40
3.0
  1
42.3KN
  7
SEACAD_arial_ttf
 11
336.9751549329
 21
74.4366160228
 31
0.0
100
AcDbText
 73
     3
  0
TEXT
  5
15A
330
149
100
AcDbEntity
  8
DV2_Default
  6
Continuous
 62
     7
 48
25.4
100
AcDbText
 10
341.9728571343
 20
22.2775803324
 30
0.0
 40
3.6
  1
Speed in min-
  7
SEACAD_arial_ttf
 11
341.9728571343
 21
25.8775803324
 31
0.0
100
AcDbText
 73
     3
  0
TEXT
  5
15B
330
149
100
AcDbEntity
  8
DV2_Default
  6
Continuous
 62
     7
 48
25.4
100
AcDbText
 10
373.1989440908
 20
22.2775803324
 30
0.0
 40
2.7516666667
  1
¹
  7
SEACAD_arial_ttf
 11
373.1989440908
 21
25.029246999
 31
0.0
100
AcDbText
 73
     3
  0
TEXT
  5
15C
330
149
100
AcDbEntity
  8
DV2_Default
  6
Continuous
 62
     7
 48
25.4
100
AcDbText
 10
249.5594117941
 20
87.0857315465
 30
0.0
 40
3.6
  1
Total Gripping 
  7
SEACAD_arial_ttf
 11
249.5594117941
 21
90.6857315465
 31
0.0
100
AcDbText
 73
     3
  0
TEXT
  5
15D
330
149
100
AcDbEntity
  8
DV2_Default
  6
Continuous
 62
     7
 48
25.4
100
AcDbText
 10
249.5594117941
 20
81.4509489378
 30
0.0
 40
3.6
  1
Force in KN
  7
SEACAD_arial_ttf
 11
249.5594117941
 21
85.0509489378
 31
0.0
100
AcDbText
 73
     3
  0
TEXT
  5
15E
330
149
100
AcDbEntity
  8
DV2_Default
  6
Continuous
 62
     7
 48
25.4
100
AcDbText
 10
304.6867248017
 20
142.9499111773
 30
0.0
 40
3.6
  1
Gripping Characteristic Graph For B-24A15
  7
SEACAD_arial_ttf
 11
304.6867248017
 21
146.5499111773
 31
0.0
100
AcDbText
 73
     3
  0
LWPOLYLINE
  5
15F
330
149
100
AcDbEntity
  8
DV2_Default
  6
Continuous
 62
     7
 48
25.4
100
AcDbPolyline
 90
        2
 70
     0
 43
0.0
 10
416.3484238392
 20
44.2822319243
 10
387.0547325791
 20
59.5063262343
  0
HATCH
  5
160
330
149
100
AcDbEntity
  8
DV2_Default
  6
Continuous
 62
     7
 48
25.4
100
AcDbHatch
 10
0.0
 20
0.0
 30
0.0
210
0.0
220
0.0
230
1.0
  2
SOLID
 70
     1
 71
     0
 91
        1
 92
        1
 93
        3
 72
     1
 10
390.5257862324168
 20
58.37859099611583
 11
387.0547325791185
 21
59.50632623432063
 72
     1
 10
387.0547325791185
 20
59.50632623432063
 11
389.9724097414694
 21
57.31380252684097
 72
     1
 10
389.9724097414694
 20
57.31380252684097
 11
390.5257862324168
 21
58.37859099611583
 97
        0
 75
     0
 76
     1
 98
        0
  0
LWPOLYLINE
  5
161
330
149
100
AcDbEntity
  8
DV2_Default
  6
Continuous
 62
     7
 48
25.4
370
    20
100
AcDbPolyline
 90
        4
 70
     1
 43
0.00025
 10
390.5257862324
 20
58.3785909961
 10
387.0547325791
 20
59.5063262343
 10
389.9724097415
 20
57.3138025268
 10
390.5257862324
 20
58.3785909961
  0
LINE
  5
162
330
149
100
AcDbEntity
  8
DV2_Default
  6
Continuous
 62
     7
 48
25.4
100
AcDbLine
 10
416.3484238392
 20
44.2822319243
 30
0.0
 11
468.3919021001
 21
44.2822319243
 31
0.0
  0
TEXT
  5
163
330
149
100
AcDbEntity
  8
DV2_Default
  6
Continuous
 62
     7
 48
25.4
100
AcDbText
 10
416.3484238392
 20
45.1822319243
 30
0.0
 40
3.6
  1
Revolution Speed Limit
  7
SEACAD_arial_ttf
 11
416.3484238392
 21
48.7822319243
 31
0.0
100
AcDbText
 73
     3
  0
TEXT
  5
164
330
149
100
AcDbEntity
  8
DV2_Default
  6
Continuous
 62
     7
 48
25.4
100
AcDbText
 10
19.4185943023
 20
127.0107239226
 30
0.0
 40
3.0
  1
SPINDLE NOSE SIZE
  7
SEACAD_arial_ttf
 11
19.4185943023
 21
130.0107239226
 31
0.0
100
AcDbText
 73
     3
  0
TEXT
  5
165
330
149
100
AcDbEntity
  8
DV2_Default
  6
Continuous
 62
     7
 48
25.4
100
AcDbText
 10
108.9349580389
 20
126.911665574
 30
0.0
 40
3.0
  1
A2-15
  7
SEACAD_arial_ttf
 11
108.9349580389
 21
129.911665574
 31
0.0
100
AcDbText
 73
     3
  0
TEXT
  5
166
330
149
100
AcDbEntity
  8
DV2_Default
  6
Continuous
 62
     7
 48
25.4
100
AcDbText
 10
19.7555772317
 20
62.5856804492
 30
0.0
 40
3.0
  1
TOTAL GRIPPING FORCE AT MAX. SPEED
  7
SEACAD_arial_ttf
 11
19.7555772317
 21
65.5856804492
 31
0.0
100
AcDbText
 73
     3
  0
TEXT
  5
167
330
149
100
AcDbEntity
  8
DV2_Default
  6
Continuous
 62
     7
 48
25.4
100
AcDbText
 10
108.6429144776
 20
19.1747248313
 30
0.0
 40
3.0
  1
SB18A2
  7
SEACAD_arial_ttf
 11
108.6429144776
 21
22.1747248313
 31
0.0
100
AcDbText
 73
     3
  0
LINE
  5
168
330
149
100
AcDbEntity
  8
DV2_Default
  6
Continuous
 62
     7
 48
25.4
100
AcDbLine
 10
17.0674745295
 20
24.117310771
 30
0.0
 11
161.0674745295
 21
24.117310771
 31
0.0
  0
LINE
  5
169
330
149
100
AcDbEntity
  8
DV2_Default
  6
Continuous
 62
     7
 48
25.4
100
AcDbLine
 10
161.0674745295
 20
132.117310771
 30
0.0
 11
17.0674745295
 21
132.117310771
 31
0.0
  0
LINE
  5
16A
330
149
100
AcDbEntity
  8
DV2_Default
  6
Continuous
 62
     7
 48
25.4
100
AcDbLine
 10
17.0674745295
 20
124.917310771
 30
0.0
 11
161.0674745295
 21
124.917310771
 31
0.0
  0
LINE
  5
16B
330
149
100
AcDbEntity
  8
DV2_Default
  6
Continuous
 62
     7
 48
25.4
100
AcDbLine
 10
161.0674745295
 20
117.717310771
 30
0.0
 11
17.0674745295
 21
117.717310771
 31
0.0
  0
LINE
  5
16C
330
149
100
AcDbEntity
  8
DV2_Default
  6
Continuous
 62
     7
 48
25.4
100
AcDbLine
 10
17.0674745295
 20
110.517310771
 30
0.0
 11
161.0674745295
 21
110.517310771
 31
0.0
  0
LINE
  5
16D
330
149
100
AcDbEntity
  8
DV2_Default
  6
Continuous
 62
     7
 48
25.4
100
AcDbLine
 10
161.0674745295
 20
103.317310771
 30
0.0
 11
17.0674745295
 21
103.317310771
 31
0.0
  0
LINE
  5
16E
330
149
100
AcDbEntity
  8
DV2_Default
  6
Continuous
 62
     7
 48
25.4
100
AcDbLine
 10
17.0674745295
 20
96.117310771
 30
0.0
 11
161.0674745295
 21
96.117310771
 31
0.0
  0
LINE
  5
16F
330
149
100
AcDbEntity
  8
DV2_Default
  6
Continuous
 62
     7
 48
25.4
100
AcDbLine
 10
161.0674745295
 20
88.917310771
 30
0.0
 11
17.0674745295
 21
88.917310771
 31
0.0
  0
LINE
  5
170
330
149
100
AcDbEntity
  8
DV2_Default
  6
Continuous
 62
     7
 48
25.4
100
AcDbLine
 10
17.0674745295
 20
81.717310771
 30
0.0
 11
161.0674745295
 21
81.717310771
 31
0.0
  0
LINE
  5
171
330
149
100
AcDbEntity
  8
DV2_Default
  6
Continuous
 62
     7
 48
25.4
100
AcDbLine
 10
161.0674745295
 20
74.517310771
 30
0.0
 11
17.0674745295
 21
74.517310771
 31
0.0
  0
LINE
  5
172
330
149
100
AcDbEntity
  8
DV2_Default
  6
Continuous
 62
     7
 48
25.4
100
AcDbLine
 10
17.0674745295
 20
67.317310771
 30
0.0
 11
161.0674745295
 21
67.317310771
 31
0.0
  0
LINE
  5
173
330
149
100
AcDbEntity
  8
DV2_Default
  6
Continuous
 62
     7
 48
25.4
100
AcDbLine
 10
161.0674745295
 20
60.117310771
 30
0.0
 11
17.0674745295
 21
60.117310771
 31
0.0
  0
LINE
  5
174
330
149
100
AcDbEntity
  8
DV2_Default
  6
Continuous
 62
     7
 48
25.4
100
AcDbLine
 10
17.0674745295
 20
52.917310771
 30
0.0
 11
161.0674745295
 21
52.917310771
 31
0.0
  0
LINE
  5
175
330
149
100
AcDbEntity
  8
DV2_Default
  6
Continuous
 62
     7
 48
25.4
100
AcDbLine
 10
161.0674745295
 20
45.717310771
 30
0.0
 11
17.0674745295
 21
45.717310771
 31
0.0
  0
LINE
  5
176
330
149
100
AcDbEntity
  8
DV2_Default
  6
Continuous
 62
     7
 48
25.4
100
AcDbLine
 10
17.0674745295
 20
38.517310771
 30
0.0
 11
161.0674745295
 21
38.517310771
 31
0.0
  0
LINE
  5
177
330
149
100
AcDbEntity
  8
DV2_Default
  6
Continuous
 62
     7
 48
25.4
100
AcDbLine
 10
161.0674745295
 20
31.317310771
 30
0.0
 11
17.0674745295
 21
31.317310771
 31
0.0
  0
TEXT
  5
178
330
149
100
AcDbEntity
  8
DV2_Default
  6
Continuous
 62
     7
 48
25.4
100
AcDbText
 10
69.5274583244
 20
145.6907412629
 30
0.0
 40
3.6
  1
Specifications
  7
SEACAD_arial_ttf
 11
69.5274583244
 21
149.2907412629
 31
0.0
100
AcDbText
 73
     3
  0
TEXT
  5
179
330
149
100
AcDbEntity
  8
DV2_Default
  6
Continuous
 62
     7
 48
25.4
100
AcDbText
 10
19.6570132654
 20
120.1063577551
 30
0.0
 40
3.0
  1
THROUGH HOLE
  7
SEACAD_arial_ttf
 11
19.6570132654
 21
123.1063577551
 31
0.0
100
AcDbText
 73
     3
  0
TEXT
  5
17A
330
149
100
AcDbEntity
  8
DV2_Default
  6
Continuous
 62
     7
 48
25.4
100
AcDbText
 10
108.3936914787
 20
119.818463771
 30
0.0
 40
3.0
  1
165mm
  7
SEACAD_arial_ttf
 11
108.3936914787
 21
122.818463771
 31
0.0
100
AcDbText
 73
     3
  0
TEXT
  5
17B
330
149
100
AcDbEntity
  8
DV2_Default
  6
Continuous
 62
     7
 48
25.4
100
AcDbText
 10
19.385100677
 20
112.4174691256
 30
0.0
 40
3.0
  1
MAX. GRIPPING RANGE
  7
SEACAD_arial_ttf
 11
19.385100677
 21
115.4174691256
 31
0.0
100
AcDbText
 73
     3
  0
TEXT
  5
17C
330
149
100
AcDbEntity
  8
DV2_Default
  6
Continuous
 62
     7
 48
25.4
100
AcDbText
 10
19.4814103109
 20
105.6155069874
 30
0.0
 40
3.0
  1
MIN. GRIPPING RANGE
  7
SEACAD_arial_ttf
 11
19.4814103109
 21
108.6155069874
 31
0.0
100
AcDbText
 73
     3
  0
TEXT
  5
17D
330
149
100
AcDbEntity
  8
DV2_Default
  6
Continuous
 62
     7
 48
25.4
100
AcDbText
 10
19.5016394035
 20
98.2212772311
 30
0.0
 40
3.0
  1
JAW STROKE
  7
SEACAD_arial_ttf
 11
19.5016394035
 21
101.2212772311
 31
0.0
100
AcDbText
 73
     3
  0
TEXT
  5
17E
330
149
100
AcDbEntity
  8
DV2_Default
  6
Continuous
 62
     7
 48
25.4
100
AcDbText
 10
19.4799305363
 20
90.8280899266
 30
0.0
 40
3.0
  1
PLUNGER STROKE
  7
SEACAD_arial_ttf
 11
19.4799305363
 21
93.8280899266
 31
0.0
100
AcDbText
 73
     3
  0
TEXT
  5
17F
330
149
100
AcDbEntity
  8
DV2_Default
  6
Continuous
 62
     7
 48
25.4
100
AcDbText
 10
19.4799305363
 20
83.560884308
 30
0.0
 40
3.0
  1
MAX. DRAW BAR PULL FORCE
  7
SEACAD_arial_ttf
 11
19.4799305363
 21
86.560884308
 31
0.0
100
AcDbText
 73
     3
  0
TEXT
  5
180
330
149
100
AcDbEntity
  8
DV2_Default
  6
Continuous
 62
     7
 48
25.4
100
AcDbText
 10
19.4568840697
 20
76.519656454
 30
0.0
 40
3.0
  1
MAX. GRIPPING FORCE
  7
SEACAD_arial_ttf
 11
19.4568840697
 21
79.519656454
 31
0.0
100
AcDbText
 73
     3
  0
TEXT
  5
181
330
149
100
AcDbEntity
  8
DV2_Default
  6
Continuous
 62
     7
 48
25.4
100
AcDbText
 10
19.522910948
 20
69.3426883986
 30
0.0
 40
3.0
  1
MAX. SPEED
  7
SEACAD_arial_ttf
 11
19.522910948
 21
72.3426883986
 31
0.0
100
AcDbText
 73
     3
  0
TEXT
  5
182
330
149
100
AcDbEntity
  8
DV2_Default
  6
Continuous
 62
     7
 48
25.4
100
AcDbText
 10
19.5788841632
 20
54.9414951363
 30
0.0
 40
3.0
  1
NET WEIGHT WITH SOFT TOP JAWS
  7
SEACAD_arial_ttf
 11
19.5788841632
 21
57.9414951363
 31
0.0
100
AcDbText
 73
     3
  0
TEXT
  5
183
330
149
100
AcDbEntity
  8
DV2_Default
  6
Continuous
 62
     7
 48
25.4
100
AcDbText
 10
19.4658952809
 20
47.7717633701
 30
0.0
 40
3.0
  1
MOMENT OF INERTIA
  7
SEACAD_arial_ttf
 11
19.4658952809
 21
50.7717633701
 31
0.0
100
AcDbText
 73
     3
  0
TEXT
  5
184
330
149
100
AcDbEntity
  8
DV2_Default
  6
Continuous
 62
     7
 48
25.4
100
AcDbText
 10
19.5146322071
 20
40.6460544673
 30
0.0
 40
3.0
  1
MATCHING CYLINDER
  7
SEACAD_arial_ttf
 11
19.5146322071
 21
43.6460544673
 31
0.0
100
AcDbText
 73
     3
  0
TEXT
  5
185
330
149
100
AcDbEntity
  8
DV2_Default
  6
Continuous
 62
     7
 48
25.4
100
AcDbText
 10
19.5200935741
 20
33.3348259852
 30
0.0
 40
3.0
  1
MAX. PRESSURE
  7
SEACAD_arial_ttf
 11
19.5200935741
 21
36.3348259852
 31
0.0
100
AcDbText
 73
     3
  0
TEXT
  5
186
330
149
100
AcDbEntity
  8
DV2_Default
  6
Continuous
 62
     7
 48
25.4
100
AcDbText
 10
19.4861243736
 20
26.2506177195
 30
0.0
 40
3.0
  1
MATCHING HARD TOP JAW
  7
SEACAD_arial_ttf
 11
19.4861243736
 21
29.2506177195
 31
0.0
100
AcDbText
 73
     3
  0
TEXT
  5
187
330
149
100
AcDbEntity
  8
DV2_Default
  6
Continuous
 62
     7
 48
25.4
100
AcDbText
 10
19.4861243736
 20
19.595613664
 30
0.0
 40
3.0
  1
MATCHING SOFT TOP JAW
  7
SEACAD_arial_ttf
 11
19.4861243736
 21
22.595613664
 31
0.0
100
AcDbText
 73
     3
  0
LINE
  5
188
330
149
100
AcDbEntity
  8
DV2_Default
  6
Continuous
 62
     7
 48
25.4
100
AcDbLine
 10
17.0674745295
 20
16.917310771
 30
0.0
 11
161.0674745295
 21
16.917310771
 31
0.0
  0
LINE
  5
189
330
149
100
AcDbEntity
  8
DV2_Default
  6
Continuous
 62
     7
 48
25.4
100
AcDbLine
 10
106.9577714296
 20
132.117310771
 30
0.0
 11
106.9577714296
 21
16.917310771
 31
0.0
  0
LINE
  5
18A
330
149
100
AcDbEntity
  8
DV2_Default
  6
Continuous
 62
     7
 48
25.4
100
AcDbLine
 10
17.0674745295
 20
132.117310771
 30
0.0
 11
17.0674745295
 21
16.917310771
 31
0.0
  0
LINE
  5
18B
330
149
100
AcDbEntity
  8
DV2_Default
  6
Continuous
 62
     7
 48
25.4
100
AcDbLine
 10
161.0674745295
 20
132.117310771
 30
0.0
 11
161.0674745295
 21
16.917310771
 31
0.0
  0
TEXT
  5
18C
330
149
100
AcDbEntity
  8
DV2_Default
  6
Continuous
 62
     7
 48
25.4
100
AcDbText
 10
108.6627077227
 20
112.6100811484
 30
0.0
 40
3.0
  1
610mm
  7
SEACAD_arial_ttf
 11
108.6627077227
 21
115.6100811484
 31
0.0
100
AcDbText
 73
     3
  0
TEXT
  5
18D
330
149
100
AcDbEntity
  8
DV2_Default
  6
Continuous
 62
     7
 48
25.4
100
AcDbText
 10
108.4607452057
 20
105.4933245324
 30
0.0
 40
3.0
  1
109mm
  7
SEACAD_arial_ttf
 11
108.4607452057
 21
108.4933245324
 31
0.0
100
AcDbText
 73
     3
  0
TEXT
  5
18E
330
149
100
AcDbEntity
  8
DV2_Default
  6
Continuous
 62
     7
 48
25.4
100
AcDbText
 10
108.4031097704
 20
98.1670468127
 30
0.0
 40
3.0
  1
10.6mm
  7
SEACAD_arial_ttf
 11
108.4031097704
 21
101.1670468127
 31
0.0
100
AcDbText
 73
     3
  0
TEXT
  5
18F
330
149
100
AcDbEntity
  8
DV2_Default
  6
Continuous
 62
     7
 48
25.4
100
AcDbText
 10
108.7485928842
 20
90.8959673697
 30
0.0
 40
3.0
  1
23mm
  7
SEACAD_arial_ttf
 11
108.7485928842
 21
93.8959673697
 31
0.0
100
AcDbText
 73
     3
  0
TEXT
  5
190
330
149
100
AcDbEntity
  8
DV2_Default
  6
Continuous
 62
     7
 48
25.4
100
AcDbText
 10
108.6402459515
 20
83.8830064376
 30
0.0
 40
3.0
  1
90kN
  7
SEACAD_arial_ttf
 11
108.6402459515
 21
86.8830064376
 31
0.0
100
AcDbText
 73
     3
  0
TEXT
  5
191
330
149
100
AcDbEntity
  8
DV2_Default
  6
Continuous
 62
     7
 48
25.4
100
AcDbText
 10
108.7864056614
 20
76.5118856113
 30
0.0
 40
3.0
  1
234kN
  7
SEACAD_arial_ttf
 11
108.7864056614
 21
79.5118856113
 31
0.0
100
AcDbText
 73
     3
  0
TEXT
  5
192
330
149
100
AcDbEntity
  8
DV2_Default
  6
Continuous
 62
     7
 48
25.4
100
AcDbText
 10
108.459098944
 20
69.3824235422
 30
0.0
 40
3.0
  1
1400min-
  7
SEACAD_arial_ttf
 11
108.459098944
 21
72.3824235422
 31
0.0
100
AcDbText
 73
     3
  0
TEXT
  5
193
330
149
100
AcDbEntity
  8
DV2_Default
  6
Continuous
 62
     7
 48
25.4
100
AcDbText
 10
126.0677945962
 20
69.3824235422
 30
0.0
 40
2.7516666667
  1
¹
  7
SEACAD_arial_ttf
 11
126.0677945962
 21
72.1340902088
 31
0.0
100
AcDbText
 73
     3
  0
TEXT
  5
194
330
149
100
AcDbEntity
  8
DV2_Default
  6
Continuous
 62
     7
 48
25.4
100
AcDbText
 10
108.6446657232
 20
54.9604776491
 30
0.0
 40
3.0
  1
304kg
  7
SEACAD_arial_ttf
 11
108.6446657232
 21
57.9604776491
 31
0.0
100
AcDbText
 73
     3
  0
TEXT
  5
195
330
149
100
AcDbEntity
  8
DV2_Default
  6
Continuous
 62
     7
 48
25.4
100
AcDbText
 10
108.4108236844
 20
47.940549505
 30
0.0
 40
3.0
  1
16.85kg.m
  7
SEACAD_arial_ttf
 11
108.4108236844
 21
50.940549505
 31
0.0
100
AcDbText
 73
     3
  0
TEXT
  5
196
330
149
100
AcDbEntity
  8
DV2_Default
  6
Continuous
 62
     7
 48
25.4
100
AcDbText
 10
128.2369106409
 20
47.940549505
 30
0.0
 40
2.7516666667
  1
²
  7
SEACAD_arial_ttf
 11
128.2369106409
 21
50.6922161717
 31
0.0
100
AcDbText
 73
     3
  0
TEXT
  5
197
330
149
100
AcDbEntity
  8
DV2_Default
  6
Continuous
 62
     7
 48
25.4
100
AcDbText
 10
108.5121280682
 20
40.5487269262
 30
0.0
 40
3.0
  1
F2511H
  7
SEACAD_arial_ttf
 11
108.5121280682
 21
43.5487269262
 31
0.0
100
AcDbText
 73
     3
  0
TEXT
  5
198
330
149
100
AcDbEntity
  8
DV2_Default
  6
Continuous
 62
     7
 48
25.4
100
AcDbText
 10
108.6353606343
 20
33.4158505572
 30
0.0
 40
3.0
  1
3.0MPa
  7
SEACAD_arial_ttf
 11
108.6353606343
 21
36.4158505572
 31
0.0
100
AcDbText
 73
     3
  0
TEXT
  5
199
330
149
100
AcDbEntity
  8
DV2_Default
  6
Continuous
 62
     7
 48
25.4
100
AcDbText
 10
108.5728434361
 20
26.3416804927
 30
0.0
 40
3.0
  1
HB18B2
  7
SEACAD_arial_ttf
 11
108.5728434361
 21
29.3416804927
 31
0.0
100
AcDbText
 73
     3
  0
TEXT
  5
19A
330
149
100
AcDbEntity
  8
DV2_Default
  6
Continuous
 62
     7
 48
25.4
100
AcDbText
 10
285.2809487727
 20
91.7992578246
 30
0.0
 40
3.0
  1
140
  7
SEACAD_arial_ttf
 11
285.2809487727
 21
94.7992578246
 31
0.0
100
AcDbText
 73
     3
  0
LINE
  5
19B
330
149
100
AcDbEntity
  8
DV2_Default
  6
CENTER2
 62
     7
 48
25.4
100
AcDbLine
 10
184.3056657635
 20
104.76881785
 30
0.0
 11
217.5928343425
 21
104.76881785
 31
0.0
  0
TEXT
  5
19C
330
149
100
AcDbEntity
  8
DV2_Default
  6
Continuous
 62
     7
 48
25.4
100
AcDbText
 10
285.4554907642
 20
99.5094424156
 30
0.0
 40
3.0
  1
160
  7
SEACAD_arial_ttf
 11
285.4554907642
 21
102.5094424156
 31
0.0
100
AcDbText
 73
     3
  0
TEXT
  5
19D
330
149
100
AcDbEntity
  8
DV2_Default
  6
Continuous
 62
     7
 48
25.4
100
AcDbText
 10
285.4554907642
 20
107.3328814825
 30
0.0
 40
3.0
  1
180
  7
SEACAD_arial_ttf
 11
285.4554907642
 21
110.3328814825
 31
0.0
100
AcDbText
 73
     3
  0
TEXT
  5
19E
330
149
100
AcDbEntity
  8
DV2_Default
  6
Continuous
 62
     7
 48
25.4
100
AcDbText
 10
329.4079214571
 20
34.2424255892
 30
0.0
 40
3.0
  1
500
  7
SEACAD_arial_ttf
 11
329.4079214571
 21
37.2424255892
 31
0.0
100
AcDbText
 73
     3
  0
TEXT
  5
19F
330
149
100
AcDbEntity
  8
DV2_Default
  6
Continuous
 62
     7
 48
25.4
100
AcDbText
 10
399.623089489
 20
34.0611587815
 30
0.0
 40
3.0
  1
1400
  7
SEACAD_arial_ttf
 11
399.623089489
 21
37.0611587815
 31
0.0
100
AcDbText
 73
     3
  0
TEXT
  5
1A0
330
149
100
AcDbEntity
  8
DV2_Default
  6
Continuous
 62
     7
 48
25.4
100
AcDbText
 10
108.7106884343
 20
61.9690413393
 30
0.0
 40
3.0
  1
78kN
  7
SEACAD_arial_ttf
 11
108.7106884343
 21
64.9690413393
 31
0.0
100
AcDbText
 73
     3
  0
LINE
  5
1A1
330
149
100
AcDbEntity
  8
DV2_Default
  6
Continuous
 62
     7
 48
25.4
100
AcDbLine
 10
292.673689925
 20
38.517310771
 30
0.0
 11
412.673689925
 21
38.517310771
 31
0.0
  0
LINE
  5
1A2
330
149
100
AcDbEntity
  8
DV2_Default
  6
Continuous
 62
     7
 48
25.4
100
AcDbLine
 10
292.673689925
 20
46.317310771
 30
0.0
 11
412.673689925
 21
46.317310771
 31
0.0
  0
LINE
  5
1A3
330
149
100
AcDbEntity
  8
DV2_Default
  6
Continuous
 62
     7
 48
25.4
100
AcDbLine
 10
412.673689925
 20
54.117310771
 30
0.0
 11
292.673689925
 21
54.117310771
 31
0.0
  0
LINE
  5
1A4
330
149
100
AcDbEntity
  8
DV2_Default
  6
Continuous
 62
     7
 48
25.4
100
AcDbLine
 10
292.673689925
 20
61.917310771
 30
0.0
 11
412.673689925
 21
61.917310771
 31
0.0
  0
LINE
  5
1A5
330
149
100
AcDbEntity
  8
DV2_Default
  6
Continuous
 62
     7
 48
25.4
100
AcDbLine
 10
412.673689925
 20
69.717310771
 30
0.0
 11
292.673689925
 21
69.717310771
 31
0.0
  0
LINE
  5
1A6
330
149
100
AcDbEntity
  8
DV2_Default
  6
Continuous
 62
     7
 48
25.4
100
AcDbLine
 10
292.673689925
 20
77.517310771
 30
0.0
 11
412.673689925
 21
77.517310771
 31
0.0
  0
LINE
  5
1A7
330
149
100
AcDbEntity
  8
DV2_Default
  6
Continuous
 62
     7
 48
25.4
100
AcDbLine
 10
292.673689925
 20
132.117310771
 30
0.0
 11
292.673689925
 21
38.517310771
 31
0.0
  0
LINE
  5
1A8
330
149
100
AcDbEntity
  8
DV2_Default
  6
Continuous
 62
     7
 48
25.4
100
AcDbLine
 10
412.673689925
 20
132.117310771
 30
0.0
 11
412.673689925
 21
38.517310771
 31
0.0
  0
LINE
  5
1A9
330
149
100
AcDbEntity
  8
DV2_Default
  6
Continuous
 62
     7
 48
25.4
100
AcDbLine
 10
292.673689925
 20
85.317310771
 30
0.0
 11
412.673689925
 21
85.317310771
 31
0.0
  0
LINE
  5
1AA
330
149
100
AcDbEntity
  8
DV2_Default
  6
Continuous
 62
     7
 48
25.4
100
AcDbLine
 10
292.673689925
 20
93.117310771
 30
0.0
 11
412.673689925
 21
93.117310771
 31
0.0
  0
LINE
  5
1AB
330
149
100
AcDbEntity
  8
DV2_Default
  6
Continuous
 62
     7
 48
25.4
100
AcDbLine
 10
412.673689925
 20
100.917310771
 30
0.0
 11
292.673689925
 21
100.917310771
 31
0.0
  0
LINE
  5
1AC
330
149
100
AcDbEntity
  8
DV2_Default
  6
Continuous
 62
     7
 48
25.4
100
AcDbLine
 10
292.673689925
 20
108.717310771
 30
0.0
 11
412.673689925
 21
108.717310771
 31
0.0
  0
LINE
  5
1AD
330
149
100
AcDbEntity
  8
DV2_Default
  6
Continuous
 62
     7
 48
25.4
100
AcDbLine
 10
412.673689925
 20
116.517310771
 30
0.0
 11
292.673689925
 21
116.517310771
 31
0.0
  0
LINE
  5
1AE
330
149
100
AcDbEntity
  8
DV2_Default
  6
Continuous
 62
     7
 48
25.4
100
AcDbLine
 10
292.673689925
 20
124.317310771
 30
0.0
 11
412.673689925
 21
124.317310771
 31
0.0
  0
LINE
  5
1AF
330
149
100
AcDbEntity
  8
DV2_Default
  6
Continuous
 62
     7
 48
25.4
100
AcDbLine
 10
412.673689925
 20
132.117310771
 30
0.0
 11
292.673689925
 21
132.117310771
 31
0.0
  0
TEXT
  5
1B0
330
149
100
AcDbEntity
  8
DV2_Default
  6
Continuous
 62
     7
 48
25.4
100
AcDbText
 10
285.3542304639
 20
114.8261437018
 30
0.0
 40
3.0
  1
200
  7
SEACAD_arial_ttf
 11
285.3542304639
 21
117.8261437018
 31
0.0
100
AcDbText
 73
     3
  0
TEXT
  5
1B1
330
149
100
AcDbEntity
  8
DV2_Default
  6
Continuous
 62
     7
 48
25.4
100
AcDbText
 10
285.3542304639
 20
122.7244471221
 30
0.0
 40
3.0
  1
220
  7
SEACAD_arial_ttf
 11
285.3542304639
 21
125.7244471221
 31
0.0
100
AcDbText
 73
     3
  0
TEXT
  5
1B2
330
149
100
AcDbEntity
  8
DV2_Default
  6
Continuous
 62
     7
 48
25.4
100
AcDbText
 10
285.4506779994
 20
126.4588540803
 30
0.0
 40
3.0
  1
234
  7
SEACAD_arial_ttf
 11
285.4506779994
 21
129.4588540803
 31
0.0
100
AcDbText
 73
     3
  0
ARC
  5
1B3
330
149
100
AcDbEntity
  8
DV2_Default
  6
Continuous
 62
     7
 48
25.4
100
AcDbCircle
 10
281.2420877951
 20
-49.1489763026
 30
0.0
 40
176.3652274342184
100
AcDbArc
 50
42.043408329
 51
86.2836094821
  0
ARC
  5
1B4
330
149
100
AcDbEntity
  8
DV2_Default
  6
Continuous
 62
     7
 48
25.4
100
AcDbCircle
 10
-24362.1204385871
 20
65960.9691027985
 30
0.0
 40
70395.48613188164
100
AcDbArc
 50
290.5678376192
 51
290.605455493
  0
ARC
  5
1B5
330
149
100
AcDbEntity
  8
DV2_Default
  6
Continuous
 62
     7
 48
25.4
100
AcDbCircle
 10
284.1575619724
 20
-45.278757216
 30
0.0
 40
156.655431085249
100
AcDbArc
 50
43.8661385813
 51
86.8837413697
  0
ARC
  5
1B6
330
149
100
AcDbEntity
  8
DV2_Default
  6
Continuous
 62
     7
 48
25.4
100
AcDbCircle
 10
275.4136103067
 20
-74.2428124117
 30
0.0
 40
171.9984653535042
100
AcDbArc
 50
50.5687356693
 51
84.240663361
  0
ARC
  5
1B7
330
149
100
AcDbEntity
  8
DV2_Default
  6
Continuous
 62
     7
 48
25.4
100
AcDbCircle
 10
277.5145759602
 20
-72.650824106
 30
0.0
 40
155.164056986534
100
AcDbArc
 50
53.8937102057
 51
84.3934121946
  0
LINE
  5
1B8
330
149
100
AcDbEntity
  8
DV2_Default
  6
Continuous
 62
     7
 48
25.4
100
AcDbLine
 10
214.2843617956
 20
104.76881785
 30
0.0
 11
214.2843617956
 21
97.26881785
 31
0.0
  0
LINE
  5
1B9
330
149
100
AcDbEntity
  8
DV2_Default
  6
Continuous
 62
     7
 48
25.4
100
AcDbLine
 10
210.0843617956
 20
97.26881785
 30
0.0
 11
198.6843617956
 21
97.26881785
 31
0.0
  0
LINE
  5
1BA
330
149
100
AcDbEntity
  8
DV2_Default
  6
Continuous
 62
     7
 48
25.4
100
AcDbLine
 10
187.2843617956
 20
95.31881785
 30
0.0
 11
187.2843617956
 21
104.76881785
 31
0.0
  0
LINE
  5
1BB
330
149
100
AcDbEntity
  8
DV2_Default
  6
Continuous
 62
     7
 48
25.4
100
AcDbLine
 10
202.1559693129
 20
96.66881785
 30
0.0
 11
199.2843617956
 21
96.66881785
 31
0.0
  0
LINE
  5
1BC
330
149
100
AcDbEntity
  8
DV2_Default
  6
Continuous
 62
     7
 48
25.4
100
AcDbLine
 10
186.6843617956
 20
95.91881785
 30
0.0
 11
186.6843617956
 21
104.76881785
 31
0.0
  0
LINE
  5
1BD
330
149
100
AcDbEntity
  8
DV2_Default
  6
Continuous
 62
     7
 48
25.4
100
AcDbLine
 10
210.0843617956
 20
85.26881785
 30
0.0
 11
197.6810912286
 21
85.26881785
 31
0.0
  0
LINE
  5
1BE
330
149
100
AcDbEntity
  8
DV2_Default
  6
Continuous
 62
     7
 48
25.4
100
AcDbLine
 10
210.6843617956
 20
85.86881785
 30
0.0
 11
210.6843617956
 21
96.66881785
 31
0.0
  0
LINE
  5
1BF
330
149
100
AcDbEntity
  8
DV2_Default
  6
Continuous
 62
     7
 48
25.4
100
AcDbLine
 10
198.0843617956
 20
93.51881785
 30
0.0
 11
189.0843617956
 21
93.51881785
 31
0.0
  0
LINE
  5
1C0
330
149
100
AcDbEntity
  8
DV2_Default
  6
Continuous
 62
     7
 48
25.4
100
AcDbLine
 10
198.6843617956
 20
94.11881785
 30
0.0
 11
198.6843617956
 21
97.26881785
 31
0.0
  0
LINE
  5
1C1
330
149
100
AcDbEntity
  8
DV2_Default
  6
Continuous
 62
     7
 48
25.4
100
AcDbLine
 10
198.0843617956
 20
92.91881785
 30
0.0
 11
189.6843617956
 21
92.91881785
 31
0.0
  0
LINE
  5
1C2
330
149
100
AcDbEntity
  8
DV2_Default
  6
Continuous
 62
     7
 48
25.4
100
AcDbLine
 10
199.2843617956
 20
96.66881785
 30
0.0
 11
199.2843617956
 21
94.11881785
 31
0.0
  0
LINE
  5
1C3
330
149
100
AcDbEntity
  8
DV2_Default
  6
Continuous
 62
     7
 48
25.4
100
AcDbLine
 10
189.0843617956
 20
93.51881785
 30
0.0
 11
187.2843617956
 21
95.31881785
 31
0.0
  0
ARC
  5
1C4
330
149
100
AcDbEntity
  8
DV2_Default
  6
Continuous
 62
     7
 48
25.4
100
AcDbCircle
 10
189.6843617956
 20
95.91881785
 30
0.0
 40
3.0
100
AcDbArc
 50
180.0
 51
270.0
  0
LINE
  5
1C5
330
149
100
AcDbEntity
  8
DV2_Default
  6
Continuous
 62
     7
 48
25.4
100
AcDbLine
 10
198.0843617956
 20
93.51881785
 30
0.0
 11
198.6843617956
 21
94.11881785
 31
0.0
  0
ARC
  5
1C6
330
149
100
AcDbEntity
  8
DV2_Default
  6
Continuous
 62
     7
 48
25.4
100
AcDbCircle
 10
198.0843617956
 20
94.11881785
 30
0.0
 40
1.2
100
AcDbArc
 50
270.0
 51
360.0
  0
LINE
  5
1C7
330
149
100
AcDbEntity
  8
DV2_Default
  6
Continuous
 62
     7
 48
25.4
100
AcDbLine
 10
202.1559693129
 20
96.66881785
 30
0.0
 11
203.9958590904
 21
96.66881785
 31
0.0
  0
LINE
  5
1C8
330
149
100
AcDbEntity
  8
DV2_Default
  6
Continuous
 62
     7
 48
25.4
100
AcDbLine
 10
203.9958590904
 20
96.66881785
 30
0.0
 11
203.9958590904
 21
97.26881785
 31
0.0
  0
LINE
  5
1C9
330
149
100
AcDbEntity
  8
DV2_Default
  6
Continuous
 62
     7
 48
25.4
100
AcDbLine
 10
210.0843617956
 20
97.26881785
 30
0.0
 11
210.6843617956
 21
96.66881785
 31
0.0
  0
LINE
  5
1CA
330
149
100
AcDbEntity
  8
DV2_Default
  6
Continuous
 62
     7
 48
25.4
100
AcDbLine
 10
210.0843617956
 20
85.26881785
 30
0.0
 11
210.6843617956
 21
85.86881785
 31
0.0
  0
LINE
  5
1CB
330
149
100
AcDbEntity
  8
DV2_Default
  6
Continuous
 62
     7
 48
25.4
100
AcDbLine
 10
210.0843617956
 20
97.26881785
 30
0.0
 11
210.0843617956
 21
85.26881785
 31
0.0
  0
LINE
  5
1CC
330
149
100
AcDbEntity
  8
DV2_Default
  6
Continuous
 62
     7
 48
25.4
100
AcDbLine
 10
210.0843617956
 20
97.26881785
 30
0.0
 11
214.2843617956
 21
97.26881785
 31
0.0
  0
LINE
  5
1CD
330
149
100
AcDbEntity
  8
DV2_Default
  6
Continuous
 62
     7
 48
25.4
100
AcDbLine
 10
207.6843617956
 20
85.26881785
 30
0.0
 11
207.6843617956
 21
73.26881785
 31
0.0
  0
LINE
  5
1CE
330
149
100
AcDbEntity
  8
DV2_Default
  6
Continuous
 62
     7
 48
25.4
100
AcDbLine
 10
214.2843617956
 20
104.76881785
 30
0.0
 11
214.2843617956
 21
112.26881785
 31
0.0
  0
LINE
  5
1CF
330
149
100
AcDbEntity
  8
DV2_Default
  6
Continuous
 62
     7
 48
25.4
100
AcDbLine
 10
210.0843617956
 20
112.26881785
 30
0.0
 11
198.6843617956
 21
112.26881785
 31
0.0
  0
LINE
  5
1D0
330
149
100
AcDbEntity
  8
DV2_Default
  6
Continuous
 62
     7
 48
25.4
100
AcDbLine
 10
187.2843617956
 20
114.21881785
 30
0.0
 11
187.2843617956
 21
104.76881785
 31
0.0
  0
LINE
  5
1D1
330
149
100
AcDbEntity
  8
DV2_Default
  6
Continuous
 62
     7
 48
25.4
100
AcDbLine
 10
202.1559693129
 20
112.86881785
 30
0.0
 11
199.2843617956
 21
112.86881785
 31
0.0
  0
LINE
  5
1D2
330
149
100
AcDbEntity
  8
DV2_Default
  6
Continuous
 62
     7
 48
25.4
100
AcDbLine
 10
186.6843617956
 20
113.61881785
 30
0.0
 11
186.6843617956
 21
104.76881785
 31
0.0
  0
LINE
  5
1D3
330
149
100
AcDbEntity
  8
DV2_Default
  6
Continuous
 62
     7
 48
25.4
100
AcDbLine
 10
210.0843617956
 20
124.26881785
 30
0.0
 11
197.6810912286
 21
124.26881785
 31
0.0
  0
LINE
  5
1D4
330
149
100
AcDbEntity
  8
DV2_Default
  6
Continuous
 62
     7
 48
25.4
100
AcDbLine
 10
210.6843617956
 20
123.66881785
 30
0.0
 11
210.6843617956
 21
112.86881785
 31
0.0
  0
LINE
  5
1D5
330
149
100
AcDbEntity
  8
DV2_Default
  6
Continuous
 62
     7
 48
25.4
100
AcDbLine
 10
198.0843617956
 20
116.01881785
 30
0.0
 11
189.0843617956
 21
116.01881785
 31
0.0
  0
LINE
  5
1D6
330
149
100
AcDbEntity
  8
DV2_Default
  6
Continuous
 62
     7
 48
25.4
100
AcDbLine
 10
198.6843617956
 20
115.41881785
 30
0.0
 11
198.6843617956
 21
112.26881785
 31
0.0
  0
LINE
  5
1D7
330
149
100
AcDbEntity
  8
DV2_Default
  6
Continuous
 62
     7
 48
25.4
100
AcDbLine
 10
198.0843617956
 20
116.61881785
 30
0.0
 11
189.6843617956
 21
116.61881785
 31
0.0
  0
LINE
  5
1D8
330
149
100
AcDbEntity
  8
DV2_Default
  6
Continuous
 62
     7
 48
25.4
100
AcDbLine
 10
199.2843617956
 20
112.86881785
 30
0.0
 11
199.2843617956
 21
115.41881785
 31
0.0
  0
LINE
  5
1D9
330
149
100
AcDbEntity
  8
DV2_Default
  6
Continuous
 62
     7
 48
25.4
100
AcDbLine
 10
189.0843617956
 20
116.01881785
 30
0.0
 11
187.2843617956
 21
114.21881785
 31
0.0
  0
ARC
  5
1DA
330
149
100
AcDbEntity
  8
DV2_Default
  6
Continuous
 62
     7
 48
25.4
100
AcDbCircle
 10
189.6843617956
 20
113.61881785
 30
0.0
 40
3.0
100
AcDbArc
 50
90.0
 51
180.0
  0
LINE
  5
1DB
330
149
100
AcDbEntity
  8
DV2_Default
  6
Continuous
 62
     7
 48
25.4
100
AcDbLine
 10
198.0843617956
 20
116.01881785
 30
0.0
 11
198.6843617956
 21
115.41881785
 31
0.0
  0
ARC
  5
1DC
330
149
100
AcDbEntity
  8
DV2_Default
  6
Continuous
 62
     7
 48
25.4
100
AcDbCircle
 10
198.0843617956
 20
115.41881785
 30
0.0
 40
1.2
100
AcDbArc
 50
0.0
 51
90.0
  0
LINE
  5
1DD
330
149
100
AcDbEntity
  8
DV2_Default
  6
Continuous
 62
     7
 48
25.4
100
AcDbLine
 10
202.1559693129
 20
112.86881785
 30
0.0
 11
203.9958590904
 21
112.86881785
 31
0.0
  0
LINE
  5
1DE
330
149
100
AcDbEntity
  8
DV2_Default
  6
Continuous
 62
     7
 48
25.4
100
AcDbLine
 10
203.9958590904
 20
112.86881785
 30
0.0
 11
203.9958590904
 21
112.26881785
 31
0.0
  0
LINE
  5
1DF
330
149
100
AcDbEntity
  8
DV2_Default
  6
Continuous
 62
     7
 48
25.4
100
AcDbLine
 10
210.0843617956
 20
112.26881785
 30
0.0
 11
210.6843617956
 21
112.86881785
 31
0.0
  0
LINE
  5
1E0
330
149
100
AcDbEntity
  8
DV2_Default
  6
Continuous
 62
     7
 48
25.4
100
AcDbLine
 10
210.0843617956
 20
124.26881785
 30
0.0
 11
210.6843617956
 21
123.66881785
 31
0.0
  0
LINE
  5
1E1
330
149
100
AcDbEntity
  8
DV2_Default
  6
Continuous
 62
     7
 48
25.4
100
AcDbLine
 10
210.0843617956
 20
112.26881785
 30
0.0
 11
210.0843617956
 21
124.26881785
 31
0.0
  0
LINE
  5
1E2
330
149
100
AcDbEntity
  8
DV2_Default
  6
Continuous
 62
     7
 48
25.4
100
AcDbLine
 10
210.0843617956
 20
112.26881785
 30
0.0
 11
214.2843617956
 21
112.26881785
 31
0.0
  0
LINE
  5
1E3
330
149
100
AcDbEntity
  8
DV2_Default
  6
Continuous
 62
     7
 48
25.4
100
AcDbLine
 10
207.6843617956
 20
124.26881785
 30
0.0
 11
207.6843617956
 21
136.26881785
 31
0.0
  0
LINE
  5
1E4
330
149
100
AcDbEntity
  8
DV2_Default
  6
Continuous
 62
     7
 48
25.4
100
AcDbLine
 10
332.873689925
 20
38.517310771
 30
0.0
 11
332.873689925
 21
132.117310771
 31
0.0
  0
LINE
  5
1E5
330
149
100
AcDbEntity
  8
DV2_Default
  6
Continuous
 62
     7
 48
25.4
100
AcDbLine
 10
373.073689925
 20
132.117310771
 30
0.0
 11
373.073689925
 21
38.517310771
 31
0.0
  0
LINE
  5
1E6
330
149
100
AcDbEntity
  8
DV2_Default
  6
Continuous
 62
     7
 48
25.4
100
AcDbLine
 10
404.273689925
 20
38.517310771
 30
0.0
 11
404.273689925
 21
132.117310771
 31
0.0
  0
ENDBLK
  5
1E8
330
149
100
AcDbEntity
  8
0
100
AcDbBlockEnd
  0
BLOCK
  5
2C1
330
1E9
100
AcDbEntity
  8
0
100
AcDbBlockBegin
  2
SE2
 70
     0
 71
     0
 10
0.0
 20
0.0
 30
0.0
  3
SE2
  1

  0
CIRCLE
  5
1EC
330
1E9
100
AcDbEntity
  8
DV3_Default
  6
Continuous
 62
     7
 48
25.4
100
AcDbCircle
 10
393.3687559837
 20
280.0485367003
 30
0.0
 40
6.300000000000001
  0
CIRCLE
  5
1ED
330
1E9
100
AcDbEntity
  8
DV3_Default
  6
Continuous
 62
     7
 48
25.4
100
AcDbCircle
 10
393.3687559837
 20
280.0485367003
 30
0.0
 40
3.85
  0
CIRCLE
  5
1EE
330
1E9
100
AcDbEntity
  8
DV3_Default
  6
Continuous
 62
     7
 48
25.4
100
AcDbCircle
 10
422.2612559837
 20
330.091814658
 30
0.0
 40
6.300000000000001
  0
CIRCLE
  5
1EF
330
1E9
100
AcDbEntity
  8
DV3_Default
  6
Continuous
 62
     7
 48
25.4
100
AcDbCircle
 10
422.2612559837
 20
330.091814658
 30
0.0
 40
3.85
  0
CIRCLE
  5
1F0
330
1E9
100
AcDbEntity
  8
DV3_Default
  6
HIDDEN2
 62
     7
 48
25.4
100
AcDbCircle
 10
395.3377321116
 20
295.0043952215
 30
0.0
 40
2.1
  0
CIRCLE
  5
1F1
330
1E9
100
AcDbEntity
  8
DV3_Default
  6
HIDDEN2
 62
     7
 48
25.4
100
AcDbCircle
 10
395.3377321116
 20
295.0043952215
 30
0.0
 40
1.925
  0
LINE
  5
1F2
330
1E9
100
AcDbEntity
  8
DV3_Default
  6
CENTER2
 62
     7
 48
25.4
100
AcDbLine
 10
425.6037559837
 20
324.3024348337
 30
0.0
 11
419.1112559837
 21
335.5477747018
 31
0.0
  0
LINE
  5
1F3
330
1E9
100
AcDbEntity
  8
DV3_Default
  6
CENTER2
 62
     7
 48
25.4
100
AcDbLine
 10
397.3661763468
 20
294.4608752268
 30
0.0
 11
393.3092878764
 21
295.5479152163
 31
0.0
  0
CIRCLE
  5
1F4
330
1E9
100
AcDbEntity
  8
DV3_Default
  6
Continuous
 62
     7
 48
25.4
100
AcDbCircle
 10
480.0462559837
 20
330.091814658
 30
0.0
 40
6.300000000000001
  0
CIRCLE
  5
1F5
330
1E9
100
AcDbEntity
  8
DV3_Default
  6
Continuous
 62
     7
 48
25.4
100
AcDbCircle
 10
480.0462559837
 20
330.091814658
 30
0.0
 40
3.85
  0
CIRCLE
  5
1F6
330
1E9
100
AcDbEntity
  8
DV3_Default
  6
Continuous
 62
     7
 48
25.4
100
AcDbCircle
 10
508.9387559837
 20
280.0485367003
 30
0.0
 40
6.300000000000001
  0
CIRCLE
  5
1F7
330
1E9
100
AcDbEntity
  8
DV3_Default
  6
Continuous
 62
     7
 48
25.4
100
AcDbCircle
 10
508.9387559837
 20
280.0485367003
 30
0.0
 40
3.85
  0
CIRCLE
  5
1F8
330
1E9
100
AcDbEntity
  8
DV3_Default
  6
HIDDEN2
 62
     7
 48
25.4
100
AcDbCircle
 10
492.0139213346
 20
320.9087020512
 30
0.0
 40
2.1
  0
CIRCLE
  5
1F9
330
1E9
100
AcDbEntity
  8
DV3_Default
  6
HIDDEN2
 62
     7
 48
25.4
100
AcDbCircle
 10
492.0139213346
 20
320.9087020512
 30
0.0
 40
1.925
  0
LINE
  5
1FA
330
1E9
100
AcDbEntity
  8
DV3_Default
  6
CENTER2
 62
     7
 48
25.4
100
AcDbLine
 10
490.5289970941
 20
319.4237778107
 30
0.0
 11
493.498845575
 21
322.3936262917
 31
0.0
  0
LINE
  5
1FB
330
1E9
100
AcDbEntity
  8
DV3_Default
  6
CENTER2
 62
     7
 48
25.4
100
AcDbLine
 10
476.7037559837
 20
324.3024348337
 30
0.0
 11
483.1962559837
 21
335.5477747018
 31
0.0
  0
ARC
  5
1FC
330
1E9
100
AcDbEntity
  8
DV3_Default
  6
CENTER2
 62
     7
 48
25.4
100
AcDbCircle
 10
451.1537559837
 20
280.0485367003
 30
0.0
 40
57.785
100
AcDbArc
 50
42.9176644597
 51
66.2497607299
  0
ARC
  5
1FD
330
1E9
100
AcDbEntity
  8
DV3_Default
  6
CENTER2
 62
     7
 48
25.4
100
AcDbCircle
 10
451.1537559837
 20
280.0485367003
 30
0.0
 40
57.785
100
AcDbArc
 50
162.9176644597
 51
186.2497607299
  0
ARC
  5
1FE
330
1E9
100
AcDbEntity
  8
DV3_Default
  6
CENTER2
 62
     7
 48
25.4
100
AcDbCircle
 10
451.1537559837
 20
280.0485367003
 30
0.0
 40
57.785
100
AcDbArc
 50
113.7502392701
 51
126.2497607299
  0
ARC
  5
1FF
330
1E9
100
AcDbEntity
  8
DV3_Default
  6
CENTER2
 62
     7
 48
25.4
100
AcDbCircle
 10
451.1537559837
 20
280.0485367003
 30
0.0
 40
57.785
100
AcDbArc
 50
353.7502392701
 51
6.2497607299
  0
LINE
  5
200
330
1E9
100
AcDbEntity
  8
DV3_Default
  6
Continuous
 62
     7
 48
25.4
100
AcDbLine
 10
451.1537559837
 20
388.5485367003
 30
0.0
 11
462.5287559837
 21
388.5485367003
 31
0.0
  0
LINE
  5
201
330
1E9
100
AcDbEntity
  8
DV3_Default
  6
Continuous
 62
     7
 48
25.4
100
AcDbLine
 10
439.7787559837
 20
388.5485367003
 30
0.0
 11
451.1537559837
 21
388.5485367003
 31
0.0
  0
CIRCLE
  5
202
330
1E9
100
AcDbEntity
  8
DV3_Default
  6
Continuous
 62
     7
 48
25.4
100
AcDbCircle
 10
451.1831386811
 20
374.5485367003
 30
0.0
 40
5.25
  0
CIRCLE
  5
203
330
1E9
100
AcDbEntity
  8
DV3_Default
  6
Continuous
 62
     7
 48
25.4
100
AcDbCircle
 10
451.182765396
 20
353.5570873226
 30
0.0
 40
5.25
  0
CIRCLE
  5
204
330
1E9
100
AcDbEntity
  8
DV3_Default
  6
Continuous
 62
     7
 48
25.4
100
AcDbCircle
 10
451.1831386811
 20
374.5485367003
 30
0.0
 40
4.9
  0
CIRCLE
  5
205
330
1E9
100
AcDbEntity
  8
DV3_Default
  6
Continuous
 62
     7
 48
25.4
100
AcDbCircle
 10
451.182765396
 20
353.5570873226
 30
0.0
 40
4.9
  0
LINE
  5
206
330
1E9
100
AcDbEntity
  8
DV3_Default
  6
Continuous
 62
     7
 48
25.4
100
AcDbLine
 10
451.1537559837
 20
388.5485367003
 30
0.0
 11
462.5287559837
 21
388.5485367003
 31
0.0
  0
LINE
  5
207
330
1E9
100
AcDbEntity
  8
DV3_Default
  6
Continuous
 62
     7
 48
25.4
100
AcDbLine
 10
462.5287559837
 20
387.4985367003
 30
0.0
 11
468.6140886893
 21
385.8679767162
 31
0.0
  0
LINE
  5
208
330
1E9
100
AcDbEntity
  8
DV3_Default
  6
Continuous
 62
     7
 48
25.4
100
AcDbLine
 10
468.6140886893
 20
385.8679767162
 30
0.0
 11
468.6140886893
 21
385.3434815846
 31
0.0
  0
LINE
  5
209
330
1E9
100
AcDbEntity
  8
DV3_Default
  6
Continuous
 62
     7
 48
25.4
100
AcDbLine
 10
439.7787559837
 20
387.4829906031
 30
0.0
 11
433.7514421027
 21
385.8679767162
 31
0.0
  0
LINE
  5
20A
330
1E9
100
AcDbEntity
  8
DV3_Default
  6
Continuous
 62
     7
 48
25.4
100
AcDbLine
 10
433.7514421027
 20
385.8679767162
 30
0.0
 11
433.7514421027
 21
385.3434815846
 31
0.0
  0
LINE
  5
20B
330
1E9
100
AcDbEntity
  8
DV3_Default
  6
Continuous
 62
     7
 48
25.4
100
AcDbLine
 10
448.4551586592
 20
376.1235367003
 30
0.0
 11
448.4551586592
 21
372.9735367003
 31
0.0
  0
LINE
  5
20C
330
1E9
100
AcDbEntity
  8
DV3_Default
  6
Continuous
 62
     7
 48
25.4
100
AcDbLine
 10
453.911118703
 20
372.9735367003
 30
0.0
 11
453.911118703
 21
376.1235367003
 31
0.0
  0
LINE
  5
20D
330
1E9
100
AcDbEntity
  8
DV3_Default
  6
Continuous
 62
     7
 48
25.4
100
AcDbLine
 10
448.4551586592
 20
376.1235367003
 30
0.0
 11
451.182765396
 21
377.6985367003
 31
0.0
  0
LINE
  5
20E
330
1E9
100
AcDbEntity
  8
DV3_Default
  6
Continuous
 62
     7
 48
25.4
100
AcDbLine
 10
451.182765396
 20
377.6985367003
 30
0.0
 11
453.911118703
 21
376.1235367003
 31
0.0
  0
LINE
  5
20F
330
1E9
100
AcDbEntity
  8
DV3_Default
  6
Continuous
 62
     7
 48
25.4
100
AcDbLine
 10
448.4551586592
 20
372.9735367003
 30
0.0
 11
451.182765396
 21
371.3985367003
 31
0.0
  0
LINE
  5
210
330
1E9
100
AcDbEntity
  8
DV3_Default
  6
Continuous
 62
     7
 48
25.4
100
AcDbLine
 10
451.182765396
 20
371.3985367003
 30
0.0
 11
453.911118703
 21
372.9735367003
 31
0.0
  0
LINE
  5
211
330
1E9
100
AcDbEntity
  8
DV3_Default
  6
CENTER2
 62
     7
 48
25.4
100
AcDbLine
 10
443.5616106203
 20
374.5485367003
 30
0.0
 11
459.2388714842
 21
374.5485367003
 31
0.0
  0
LINE
  5
212
330
1E9
100
AcDbEntity
  8
DV3_Default
  6
CENTER2
 62
     7
 48
25.4
100
AcDbLine
 10
443.6840892208
 20
353.5570873226
 30
0.0
 11
458.8714356827
 21
353.5570873226
 31
0.0
  0
LINE
  5
213
330
1E9
100
AcDbEntity
  8
DV3_Default
  6
Continuous
 62
     7
 48
25.4
100
AcDbLine
 10
448.4551586592
 20
351.9906379416
 30
0.0
 11
448.4551586592
 21
355.1406379416
 31
0.0
  0
LINE
  5
214
330
1E9
100
AcDbEntity
  8
DV3_Default
  6
Continuous
 62
     7
 48
25.4
100
AcDbLine
 10
453.911118703
 20
355.1406379416
 30
0.0
 11
453.911118703
 21
351.9906379416
 31
0.0
  0
LINE
  5
215
330
1E9
100
AcDbEntity
  8
DV3_Default
  6
Continuous
 62
     7
 48
25.4
100
AcDbLine
 10
448.4551586592
 20
351.9906379416
 30
0.0
 11
451.182765396
 21
350.4156379416
 31
0.0
  0
LINE
  5
216
330
1E9
100
AcDbEntity
  8
DV3_Default
  6
Continuous
 62
     7
 48
25.4
100
AcDbLine
 10
451.182765396
 20
350.4156379416
 30
0.0
 11
453.911118703
 21
351.9906379416
 31
0.0
  0
LINE
  5
217
330
1E9
100
AcDbEntity
  8
DV3_Default
  6
Continuous
 62
     7
 48
25.4
100
AcDbLine
 10
448.4551586592
 20
355.1406379416
 30
0.0
 11
451.182765396
 21
356.7156379416
 31
0.0
  0
LINE
  5
218
330
1E9
100
AcDbEntity
  8
DV3_Default
  6
Continuous
 62
     7
 48
25.4
100
AcDbLine
 10
451.182765396
 20
356.7156379416
 30
0.0
 11
453.911118703
 21
355.1406379416
 31
0.0
  0
ARC
  5
219
330
1E9
100
AcDbEntity
  8
DV3_Default
  6
Continuous
 62
     7
 48
25.4
100
AcDbCircle
 10
451.1537559837
 20
280.0485367003
 30
0.0
 40
106.75
100
AcDbArc
 50
216.085583381
 51
323.8830988602
  0
LINE
  5
21A
330
1E9
100
AcDbEntity
  8
DV3_Default
  6
CENTER2
 62
     7
 48
25.4
100
AcDbLine
 10
451.1537559837
 20
398.7472749072
 30
0.0
 11
451.1537559837
 21
157.654123018
 31
0.0
  0
ARC
  5
21B
330
1E9
100
AcDbEntity
  8
DV3_Default
  6
Continuous
 62
     7
 48
25.4
100
AcDbCircle
 10
451.1537559837
 20
280.0485367003
 30
0.0
 40
63.0
100
AcDbArc
 50
243.3570187077
 51
296.6429812923
  0
ARC
  5
21C
330
1E9
100
AcDbEntity
  8
DV3_Default
  6
Continuous
 62
     7
 48
25.4
100
AcDbCircle
 10
451.1537559837
 20
280.0485367003
 30
0.0
 40
63.0
100
AcDbArc
 50
123.3570187077
 51
176.6429812923
  0
ARC
  5
21D
330
1E9
100
AcDbEntity
  8
DV3_Default
  6
Continuous
 62
     7
 48
25.4
100
AcDbCircle
 10
451.1537559837
 20
280.0485367003
 30
0.0
 40
63.0
100
AcDbArc
 50
100.402121009
 51
116.6429812923
  0
ARC
  5
21E
330
1E9
100
AcDbEntity
  8
DV3_Default
  6
Continuous
 62
     7
 48
25.4
100
AcDbCircle
 10
451.1537559837
 20
280.0485367003
 30
0.0
 40
63.0
100
AcDbArc
 50
3.3570187077
 51
56.6429812923
  0
CIRCLE
  5
21F
330
1E9
100
AcDbEntity
  8
DV3_Default
  6
Continuous
 62
     7
 48
25.4
100
AcDbCircle
 10
451.1537559837
 20
280.0485367003
 30
0.0
 40
14.0
  0
CIRCLE
  5
220
330
1E9
100
AcDbEntity
  8
DV3_Default
  6
Continuous
 62
     7
 48
25.4
100
AcDbCircle
 10
451.1537559837
 20
280.0485367003
 30
0.0
 40
28.875
  0
LINE
  5
221
330
1E9
100
AcDbEntity
  8
DV3_Default
  6
Continuous
 62
     7
 48
25.4
100
AcDbLine
 10
538.5206856203
 20
216.4724977323
 30
0.0
 11
534.0659128988
 21
212.0177250108
 31
0.0
  0
LINE
  5
222
330
1E9
100
AcDbEntity
  8
DV3_Default
  6
Continuous
 62
     7
 48
25.4
100
AcDbLine
 10
534.0659128988
 20
212.0177250108
 30
0.0
 11
533.6267938583
 21
212.271250507
 31
0.0
  0
LINE
  5
223
330
1E9
100
AcDbEntity
  8
DV3_Default
  6
Continuous
 62
     7
 48
25.4
100
AcDbLine
 10
549.866676208
 20
236.1243298923
 30
0.0
 11
551.4972361922
 21
242.209662598
 31
0.0
  0
LINE
  5
224
330
1E9
100
AcDbEntity
  8
DV3_Default
  6
Continuous
 62
     7
 48
25.4
100
AcDbLine
 10
551.4972361922
 20
242.209662598
 30
0.0
 11
551.0664334613
 21
242.4583866706
 31
0.0
  0
LINE
  5
225
330
1E9
100
AcDbEntity
  8
DV3_Default
  6
Continuous
 62
     7
 48
25.4
100
AcDbLine
 10
538.5206856203
 20
216.4724977323
 30
0.0
 11
544.1936809142
 21
226.2984138123
 31
0.0
  0
LINE
  5
226
330
1E9
100
AcDbEntity
  8
DV3_Default
  6
Continuous
 62
     7
 48
25.4
100
AcDbLine
 10
544.1936809142
 20
226.2984138123
 30
0.0
 11
549.866676208
 21
236.1243298923
 31
0.0
  0
LINE
  5
227
330
1E9
100
AcDbEntity
  8
DV3_Default
  6
Continuous
 62
     7
 48
25.4
100
AcDbLine
 10
476.7012496042
 20
252.2295819939
 30
0.0
 11
488.0472401919
 21
271.881414154
 31
0.0
  0
LINE
  5
228
330
1E9
100
AcDbEntity
  8
DV3_Default
  6
Continuous
 62
     7
 48
25.4
100
AcDbLine
 10
488.0239755472
 20
263.8454394182
 30
0.0
 11
491.4810581771
 21
269.8332821793
 31
0.0
  0
LINE
  5
229
330
1E9
100
AcDbEntity
  8
DV3_Default
  6
Continuous
 62
     7
 48
25.4
100
AcDbLine
 10
507.6887019219
 20
247.3745732603
 30
0.0
 11
506.1137019219
 21
244.6465932383
 31
0.0
  0
LINE
  5
22A
330
1E9
100
AcDbEntity
  8
DV3_Default
  6
Continuous
 62
     7
 48
25.4
100
AcDbLine
 10
507.6887019219
 20
247.3745732603
 30
0.0
 11
509.2637019219
 21
250.1025532822
 31
0.0
  0
LINE
  5
22B
330
1E9
100
AcDbEntity
  8
DV3_Default
  6
Continuous
 62
     7
 48
25.4
100
AcDbLine
 10
506.1137019219
 20
244.6465932383
 30
0.0
 11
506.5620830415
 21
242.9732121187
 31
0.0
  0
LINE
  5
22C
330
1E9
100
AcDbEntity
  8
DV3_Default
  6
Continuous
 62
     7
 48
25.4
100
AcDbLine
 10
510.9370830415
 20
250.5509344018
 30
0.0
 11
509.2637019219
 21
250.1025532822
 31
0.0
  0
CIRCLE
  5
22D
330
1E9
100
AcDbEntity
  8
DV3_Default
  6
Continuous
 62
     7
 48
25.4
100
AcDbCircle
 10
513.7542967939
 20
243.8654526781
 30
0.0
 40
3.5
  0
CIRCLE
  5
22E
330
1E9
100
AcDbEntity
  8
DV3_Default
  6
Continuous
 62
     7
 48
25.4
100
AcDbCircle
 10
528.915370796
 20
235.1564023746
 30
0.0
 40
3.5
  0
CIRCLE
  5
22F
330
1E9
100
AcDbEntity
  8
DV3_Default
  6
Continuous
 62
     7
 48
25.4
100
AcDbCircle
 10
513.7542967939
 20
243.8654526781
 30
0.0
 40
3.15
  0
CIRCLE
  5
230
330
1E9
100
AcDbEntity
  8
DV3_Default
  6
Continuous
 62
     7
 48
25.4
100
AcDbCircle
 10
528.915370796
 20
235.1564023746
 30
0.0
 40
3.15
  0
LINE
  5
231
330
1E9
100
AcDbEntity
  8
DV3_Default
  6
Continuous
 62
     7
 48
25.4
100
AcDbLine
 10
536.4245910543
 20
227.1465932383
 30
0.0
 11
535.8120910543
 21
226.0857121187
 31
0.0
  0
LINE
  5
232
330
1E9
100
AcDbEntity
  8
DV3_Default
  6
Continuous
 62
     7
 48
25.4
100
AcDbLine
 10
535.8120910543
 20
226.0857121187
 30
0.0
 11
540.1870910543
 21
233.6634344018
 31
0.0
  0
LINE
  5
233
330
1E9
100
AcDbEntity
  8
DV3_Default
  6
CENTER2
 62
     7
 48
25.4
100
AcDbLine
 10
516.459168995
 20
248.5353896798
 30
0.0
 11
511.1959541083
 21
239.4192340848
 31
0.0
  0
LINE
  5
234
330
1E9
100
AcDbEntity
  8
DV3_Default
  6
CENTER2
 62
     7
 48
25.4
100
AcDbLine
 10
531.6017179916
 20
239.8254523531
 30
0.0
 11
526.3823082613
 21
230.7851695148
 31
0.0
  0
LINE
  5
235
330
1E9
100
AcDbEntity
  8
DV3_Default
  6
Continuous
 62
     7
 48
25.4
100
AcDbLine
 10
471.2155418823
 20
248.0116088426
 30
0.0
 11
488.929442317
 21
278.6929843956
 31
0.0
  0
LINE
  5
236
330
1E9
100
AcDbEntity
  8
DV3_Default
  6
Continuous
 62
     7
 48
25.4
100
AcDbLine
 10
538.5206856203
 20
216.4724977323
 30
0.0
 11
476.684632483
 21
252.1735596567
 31
0.0
  0
LINE
  5
237
330
1E9
100
AcDbEntity
  8
DV3_Default
  6
Continuous
 62
     7
 48
25.4
100
AcDbLine
 10
549.866676208
 20
236.1243298923
 30
0.0
 11
488.018827528
 21
271.8322019765
 31
0.0
  0
LINE
  5
238
330
1E9
100
AcDbEntity
  8
DV3_Default
  6
Continuous
 62
     7
 48
25.4
100
AcDbLine
 10
488.0239755472
 20
263.8454394182
 30
0.0
 11
546.4095935781
 21
230.1364871313
 31
0.0
  0
LINE
  5
239
330
1E9
100
AcDbEntity
  8
DV3_Default
  6
Continuous
 62
     7
 48
25.4
100
AcDbLine
 10
542.0061809142
 20
222.5095526707
 30
0.0
 11
483.6205628833
 21
256.2185049577
 31
0.0
  0
ARC
  5
23A
330
1E9
100
AcDbEntity
  8
DV3_Default
  6
Continuous
 62
     7
 48
25.4
100
AcDbCircle
 10
488.2223679776
 20
258.6462745214
 30
0.0
 40
4.586242284987826
100
AcDbArc
 50
76.2325156295
 51
223.7674843705
  0
ARC
  5
23B
330
1E9
100
AcDbEntity
  8
DV3_Default
  6
Continuous
 62
     7
 48
25.4
100
AcDbCircle
 10
489.9050898961
 20
257.6659302284
 30
0.0
 40
6.533709354807193
100
AcDbArc
 50
106.2389840329
 51
193.7610159671
  0
LINE
  5
23C
330
1E9
100
AcDbEntity
  8
DV3_Default
  6
Continuous
 62
     7
 48
25.4
100
AcDbLine
 10
352.411826347
 20
236.1745756683
 30
0.0
 11
350.7812663629
 21
242.259908374
 31
0.0
  0
LINE
  5
23D
330
1E9
100
AcDbEntity
  8
DV3_Default
  6
Continuous
 62
     7
 48
25.4
100
AcDbLine
 10
350.7812663629
 20
242.259908374
 30
0.0
 11
351.2203854034
 21
242.5134338702
 31
0.0
  0
LINE
  5
23E
330
1E9
100
AcDbEntity
  8
DV3_Default
  6
Continuous
 62
     7
 48
25.4
100
AcDbLine
 10
363.7578169347
 20
216.5227435083
 30
0.0
 11
368.2125896562
 21
212.0679707868
 31
0.0
  0
LINE
  5
23F
330
1E9
100
AcDbEntity
  8
DV3_Default
  6
Continuous
 62
     7
 48
25.4
100
AcDbLine
 10
368.2125896562
 20
212.0679707868
 30
0.0
 11
368.6433923871
 21
212.3166948594
 31
0.0
  0
LINE
  5
240
330
1E9
100
AcDbEntity
  8
DV3_Default
  6
Continuous
 62
     7
 48
25.4
100
AcDbLine
 10
352.411826347
 20
236.1745756683
 30
0.0
 11
358.0848216409
 21
226.3486595883
 31
0.0
  0
LINE
  5
241
330
1E9
100
AcDbEntity
  8
DV3_Default
  6
Continuous
 62
     7
 48
25.4
100
AcDbLine
 10
358.0848216409
 20
226.3486595883
 30
0.0
 11
363.7578169347
 21
216.5227435083
 31
0.0
  0
LINE
  5
242
330
1E9
100
AcDbEntity
  8
DV3_Default
  6
Continuous
 62
     7
 48
25.4
100
AcDbLine
 10
414.288087691
 20
271.8332355751
 30
0.0
 11
425.6340782787
 21
252.181403415
 31
0.0
  0
LINE
  5
243
330
1E9
100
AcDbEntity
  8
DV3_Default
  6
Continuous
 62
     7
 48
25.4
100
AcDbLine
 10
418.6863523357
 20
256.2195385562
 30
0.0
 11
422.1434349656
 21
250.2316957952
 31
0.0
  0
LINE
  5
244
330
1E9
100
AcDbEntity
  8
DV3_Default
  6
Continuous
 62
     7
 48
25.4
100
AcDbLine
 10
394.5898006332
 20
247.4248190363
 30
0.0
 11
393.0148006332
 21
250.1527990582
 31
0.0
  0
LINE
  5
245
330
1E9
100
AcDbEntity
  8
DV3_Default
  6
Continuous
 62
     7
 48
25.4
100
AcDbLine
 10
394.5898006332
 20
247.4248190363
 30
0.0
 11
396.1648006332
 21
244.6968390143
 31
0.0
  0
LINE
  5
246
330
1E9
100
AcDbEntity
  8
DV3_Default
  6
Continuous
 62
     7
 48
25.4
100
AcDbLine
 10
393.0148006332
 20
250.1527990582
 30
0.0
 11
391.3414195135
 21
250.6011801778
 31
0.0
  0
LINE
  5
247
330
1E9
100
AcDbEntity
  8
DV3_Default
  6
Continuous
 62
     7
 48
25.4
100
AcDbLine
 10
395.7164195135
 20
243.0234578947
 30
0.0
 11
396.1648006332
 21
244.6968390143
 31
0.0
  0
CIRCLE
  5
248
330
1E9
100
AcDbEntity
  8
DV3_Default
  6
Continuous
 62
     7
 48
25.4
100
AcDbCircle
 10
388.5180156281
 20
243.9264200791
 30
0.0
 40
3.5
  0
CIRCLE
  5
249
330
1E9
100
AcDbEntity
  8
DV3_Default
  6
Continuous
 62
     7
 48
25.4
100
AcDbCircle
 10
373.3952198214
 20
235.1510699964
 30
0.0
 40
3.5
  0
CIRCLE
  5
24A
330
1E9
100
AcDbEntity
  8
DV3_Default
  6
Continuous
 62
     7
 48
25.4
100
AcDbCircle
 10
388.5180156281
 20
243.9264200791
 30
0.0
 40
3.15
  0
CIRCLE
  5
24B
330
1E9
100
AcDbEntity
  8
DV3_Default
  6
Continuous
 62
     7
 48
25.4
100
AcDbCircle
 10
373.3952198214
 20
235.1510699964
 30
0.0
 40
3.15
  0
LINE
  5
24C
330
1E9
100
AcDbEntity
  8
DV3_Default
  6
Continuous
 62
     7
 48
25.4
100
AcDbLine
 10
362.7039115007
 20
232.6527990582
 30
0.0
 11
362.0914115007
 21
233.7136801778
 31
0.0
  0
LINE
  5
24D
330
1E9
100
AcDbEntity
  8
DV3_Default
  6
Continuous
 62
     7
 48
25.4
100
AcDbLine
 10
362.0914115007
 20
233.7136801778
 30
0.0
 11
366.4664115007
 21
226.1359578947
 31
0.0
  0
LINE
  5
24E
330
1E9
100
AcDbEntity
  8
DV3_Default
  6
CENTER2
 62
     7
 48
25.4
100
AcDbLine
 10
391.209863605
 20
239.2489635381
 30
0.0
 11
385.9466487183
 21
248.3651191331
 31
0.0
  0
LINE
  5
24F
330
1E9
100
AcDbEntity
  8
DV3_Default
  6
CENTER2
 62
     7
 48
25.4
100
AcDbLine
 10
376.0955621165
 20
230.4901000923
 30
0.0
 11
370.8761523862
 21
239.5303829307
 31
0.0
  0
LINE
  5
250
330
1E9
100
AcDbEntity
  8
DV3_Default
  6
Continuous
 62
     7
 48
25.4
100
AcDbLine
 10
413.3780696504
 20
278.6929843956
 30
0.0
 11
431.0919700851
 21
248.0116088426
 31
0.0
  0
LINE
  5
251
330
1E9
100
AcDbEntity
  8
DV3_Default
  6
Continuous
 62
     7
 48
25.4
100
AcDbLine
 10
352.411826347
 20
236.1745756683
 30
0.0
 11
414.2478794844
 21
271.8756375928
 31
0.0
  0
LINE
  5
252
330
1E9
100
AcDbEntity
  8
DV3_Default
  6
Continuous
 62
     7
 48
25.4
100
AcDbLine
 10
363.7578169347
 20
216.5227435083
 30
0.0
 11
425.6056656148
 21
252.2306155925
 31
0.0
  0
LINE
  5
253
330
1E9
100
AcDbEntity
  8
DV3_Default
  6
Continuous
 62
     7
 48
25.4
100
AcDbLine
 10
418.6863523357
 20
256.2195385562
 30
0.0
 11
360.3007343048
 21
222.5105862693
 31
0.0
  0
LINE
  5
254
330
1E9
100
AcDbEntity
  8
DV3_Default
  6
Continuous
 62
     7
 48
25.4
100
AcDbLine
 10
355.8973216409
 20
230.1375207299
 30
0.0
 11
414.2829396718
 21
263.8464730168
 31
0.0
  0
ARC
  5
255
330
1E9
100
AcDbEntity
  8
DV3_Default
  6
Continuous
 62
     7
 48
25.4
100
AcDbCircle
 10
414.0845472414
 20
258.64730812
 30
0.0
 40
4.586242284987826
100
AcDbArc
 50
316.2325156295
 51
103.7674843705
  0
ARC
  5
256
330
1E9
100
AcDbEntity
  8
DV3_Default
  6
Continuous
 62
     7
 48
25.4
100
AcDbCircle
 10
412.3941832199
 20
257.6802003376
 30
0.0
 40
6.533709354807193
100
AcDbArc
 50
346.2389840329
 51
73.7610159671
  0
ARC
  5
257
330
1E9
100
AcDbEntity
  8
DV3_Default
  6
Continuous
 62
     7
 48
25.4
100
AcDbCircle
 10
451.1537559837
 20
280.0485367003
 30
0.0
 40
37.8
100
AcDbArc
 50
347.4210310386
 51
72.4867751391
  0
ARC
  5
258
330
1E9
100
AcDbEntity
  8
DV3_Default
  6
Continuous
 62
     7
 48
25.4
100
AcDbCircle
 10
451.1537559837
 20
280.0485367003
 30
0.0
 40
37.8
100
AcDbArc
 50
227.4210310386
 51
312.4867751391
  0
ARC
  5
259
330
1E9
100
AcDbEntity
  8
DV3_Default
  6
Continuous
 62
     7
 48
25.4
100
AcDbCircle
 10
451.1537559837
 20
280.0485367003
 30
0.0
 40
63.0
100
AcDbArc
 50
340.3484782901
 51
356.6429812923
  0
ARC
  5
25A
330
1E9
100
AcDbEntity
  8
DV3_Default
  6
Continuous
 62
     7
 48
25.4
100
AcDbCircle
 10
451.1537559837
 20
280.0485367003
 30
0.0
 40
106.75
100
AcDbArc
 50
336.085583381
 51
83.8830988602
  0
ARC
  5
25B
330
1E9
100
AcDbEntity
  8
DV3_Default
  6
Continuous
 62
     7
 48
25.4
100
AcDbCircle
 10
451.1537559837
 20
280.0485367003
 30
0.0
 40
63.0
100
AcDbArc
 50
183.3570187077
 51
199.597878991
  0
ARC
  5
25C
330
1E9
100
AcDbEntity
  8
DV3_Default
  6
Continuous
 62
     7
 48
25.4
100
AcDbCircle
 10
451.1537559837
 20
280.0485367003
 30
0.0
 40
106.75
100
AcDbArc
 50
96.1169011398
 51
203.8830988602
  0
LINE
  5
25D
330
1E9
100
AcDbEntity
  8
DV3_Default
  6
Continuous
 62
     7
 48
25.4
100
AcDbLine
 10
439.7787559837
 20
325.5485367003
 30
0.0
 11
462.5287559837
 21
325.5485367003
 31
0.0
  0
LINE
  5
25E
330
1E9
100
AcDbEntity
  8
DV3_Default
  6
Continuous
 62
     7
 48
25.4
100
AcDbLine
 10
446.7509400682
 20
320.0806321264
 30
0.0
 11
439.7787559837
 21
320.0806321264
 31
0.0
  0
LINE
  5
25F
330
1E9
100
AcDbEntity
  8
DV3_Default
  6
Continuous
 62
     7
 48
25.4
100
AcDbLine
 10
468.8676564183
 20
313.4410168626
 30
0.0
 11
433.439855549
 21
313.4410168626
 31
0.0
  0
ARC
  5
260
330
1E9
100
AcDbEntity
  8
DV3_Default
  6
Continuous
 62
     7
 48
25.4
100
AcDbCircle
 10
451.1543527321
 20
322.8520274595
 30
0.0
 40
4.586242284987826
100
AcDbArc
 50
196.2325156295
 51
343.7674843705
  0
LINE
  5
261
330
1E9
100
AcDbEntity
  8
DV3_Default
  6
Continuous
 62
     7
 48
25.4
100
AcDbLine
 10
439.7787559837
 20
388.5485367003
 30
0.0
 11
439.7787559837
 21
315.6892985316
 31
0.0
  0
LINE
  5
262
330
1E9
100
AcDbEntity
  8
DV3_Default
  6
Continuous
 62
     7
 48
25.4
100
AcDbLine
 10
462.5287559837
 20
388.5485367003
 30
0.0
 11
462.5287559837
 21
315.6892985316
 31
0.0
  0
LINE
  5
263
330
1E9
100
AcDbEntity
  8
DV3_Default
  6
Continuous
 62
     7
 48
25.4
100
AcDbLine
 10
438.5610558726
 20
315.6892985316
 30
0.0
 11
463.7464560948
 21
315.6892985316
 31
0.0
  0
ARC
  5
264
330
1E9
100
AcDbEntity
  8
DV3_Default
  6
Continuous
 62
     7
 48
25.4
100
AcDbCircle
 10
451.1537559837
 20
280.0485367003
 30
0.0
 40
37.8
100
AcDbArc
 50
107.5132248609
 51
192.4867751391
  0
LINE
  5
265
330
1E9
100
AcDbEntity
  8
DV3_Default
  6
Continuous
 62
     7
 48
25.4
100
AcDbLine
 10
446.7509400682
 20
320.0806321264
 30
0.0
 11
446.7509400682
 21
325.5485367003
 31
0.0
  0
LINE
  5
266
330
1E9
100
AcDbEntity
  8
DV3_Default
  6
Continuous
 62
     7
 48
25.4
100
AcDbLine
 10
455.557765396
 20
325.5485367003
 30
0.0
 11
455.557765396
 21
320.0806321264
 31
0.0
  0
ARC
  5
267
330
1E9
100
AcDbEntity
  8
DV3_Default
  6
Continuous
 62
     7
 48
25.4
100
AcDbCircle
 10
451.1537559837
 20
280.0485367003
 30
0.0
 40
63.0
100
AcDbArc
 50
63.3570187077
 51
79.597878991
  0
LINE
  5
268
330
1E9
100
AcDbEntity
  8
DV3_Default
  6
Continuous
 62
     7
 48
25.4
100
AcDbLine
 10
483.5589218269
 20
256.1117395161
 30
0.0
 11
480.1350675894
 21
250.1814500192
 31
0.0
  0
LINE
  5
269
330
1E9
100
AcDbEntity
  8
DV3_Default
  6
Continuous
 62
     7
 48
25.4
100
AcDbLine
 10
414.2212986154
 20
263.9532384584
 30
0.0
 11
410.7974443779
 21
269.8835279553
 31
0.0
  0
LINE
  5
26A
330
1E9
100
AcDbEntity
  8
DV3_Default
  6
Continuous
 62
     7
 48
25.4
100
AcDbLine
 10
455.557765396
 20
320.0806321264
 30
0.0
 11
462.5287559837
 21
320.0806321264
 31
0.0
  0
LINE
  5
26B
330
1E9
100
AcDbEntity
  8
DV3_Default
  6
CENTER2
 62
     7
 48
25.4
100
AcDbLine
 10
451.1537559837
 20
280.0485367003
 30
0.0
 11
335.6537559837
 21
280.0485367003
 31
0.0
  0
LINE
  5
26C
330
1E9
100
AcDbEntity
  8
DV3_Default
  6
CENTER2
 62
     7
 48
25.4
100
AcDbLine
 10
451.1537559837
 20
280.0485367003
 30
0.0
 11
566.6537559837
 21
280.0485367003
 31
0.0
  0
LINE
  5
26D
330
1E9
100
AcDbEntity
  8
DV3_Default
  6
CENTER2
 62
     7
 48
25.4
100
AcDbLine
 10
451.1537559837
 20
280.0485367003
 30
0.0
 11
351.1278218466
 21
222.2985367003
 31
0.0
  0
LINE
  5
26E
330
1E9
100
AcDbEntity
  8
DV3_Default
  6
CENTER2
 62
     7
 48
25.4
100
AcDbLine
 10
451.1537559837
 20
280.0485367003
 30
0.0
 11
551.1796901208
 21
222.2985367003
 31
0.0
  0
CIRCLE
  5
26F
330
1E9
100
AcDbEntity
  8
DV3_Default
  6
Continuous
 62
     7
 48
25.4
100
AcDbCircle
 10
475.5312622651
 20
304.4260429817
 30
0.0
 40
2.625
  0
CIRCLE
  5
270
330
1E9
100
AcDbEntity
  8
DV3_Default
  6
Continuous
 62
     7
 48
25.4
100
AcDbCircle
 10
475.5312622651
 20
304.4260429817
 30
0.0
 40
2.8
  0
LINE
  5
271
330
1E9
100
AcDbEntity
  8
DV3_Default
  6
Continuous
 62
     7
 48
25.4
100
AcDbLine
 10
474.7888001448
 20
303.6835808615
 30
0.0
 11
475.8030222624
 21
303.4118208641
 31
0.0
  0
LINE
  5
272
330
1E9
100
AcDbEntity
  8
DV3_Default
  6
Continuous
 62
     7
 48
25.4
100
AcDbLine
 10
475.8030222624
 20
303.4118208641
 30
0.0
 11
476.5454843827
 21
304.1542829843
 31
0.0
  0
LINE
  5
273
330
1E9
100
AcDbEntity
  8
DV3_Default
  6
Continuous
 62
     7
 48
25.4
100
AcDbLine
 10
476.5454843827
 20
304.1542829843
 30
0.0
 11
476.2737243853
 21
305.168505102
 31
0.0
  0
LINE
  5
274
330
1E9
100
AcDbEntity
  8
DV3_Default
  6
Continuous
 62
     7
 48
25.4
100
AcDbLine
 10
476.2737243853
 20
305.168505102
 30
0.0
 11
475.2595022677
 21
305.4402650993
 31
0.0
  0
LINE
  5
275
330
1E9
100
AcDbEntity
  8
DV3_Default
  6
Continuous
 62
     7
 48
25.4
100
AcDbLine
 10
475.2595022677
 20
305.4402650993
 30
0.0
 11
474.5170401475
 21
304.6978029791
 31
0.0
  0
LINE
  5
276
330
1E9
100
AcDbEntity
  8
DV3_Default
  6
Continuous
 62
     7
 48
25.4
100
AcDbLine
 10
474.5170401475
 20
304.6978029791
 30
0.0
 11
474.7888001448
 21
303.6835808615
 31
0.0
  0
LINE
  5
277
330
1E9
100
AcDbEntity
  8
DV3_Default
  6
CENTER2
 62
     7
 48
25.4
100
AcDbLine
 10
474.0463380246
 20
302.9411187412
 30
0.0
 11
477.0161865056
 21
305.9109672222
 31
0.0
  0
CIRCLE
  5
278
330
1E9
100
AcDbEntity
  8
DV3_Default
  6
Continuous
 62
     7
 48
25.4
100
AcDbCircle
 10
484.454048845
 20
288.9713232802
 30
0.0
 40
2.625
  0
CIRCLE
  5
279
330
1E9
100
AcDbEntity
  8
DV3_Default
  6
Continuous
 62
     7
 48
25.4
100
AcDbCircle
 10
484.454048845
 20
288.9713232802
 30
0.0
 40
2.8
  0
LINE
  5
27A
330
1E9
100
AcDbEntity
  8
DV3_Default
  6
Continuous
 62
     7
 48
25.4
100
AcDbLine
 10
483.4398267274
 20
288.6995632829
 30
0.0
 11
484.1822888476
 21
287.9571011626
 31
0.0
  0
LINE
  5
27B
330
1E9
100
AcDbEntity
  8
DV3_Default
  6
Continuous
 62
     7
 48
25.4
100
AcDbLine
 10
484.1822888476
 20
287.9571011626
 30
0.0
 11
485.1965109652
 21
288.22886116
 31
0.0
  0
LINE
  5
27C
330
1E9
100
AcDbEntity
  8
DV3_Default
  6
Continuous
 62
     7
 48
25.4
100
AcDbLine
 10
485.1965109652
 20
288.22886116
 30
0.0
 11
485.4682709626
 21
289.2430832776
 31
0.0
  0
LINE
  5
27D
330
1E9
100
AcDbEntity
  8
DV3_Default
  6
Continuous
 62
     7
 48
25.4
100
AcDbLine
 10
485.4682709626
 20
289.2430832776
 30
0.0
 11
484.7258088424
 21
289.9855453978
 31
0.0
  0
LINE
  5
27E
330
1E9
100
AcDbEntity
  8
DV3_Default
  6
Continuous
 62
     7
 48
25.4
100
AcDbLine
 10
484.7258088424
 20
289.9855453978
 30
0.0
 11
483.7115867248
 21
289.7137854005
 31
0.0
  0
LINE
  5
27F
330
1E9
100
AcDbEntity
  8
DV3_Default
  6
Continuous
 62
     7
 48
25.4
100
AcDbLine
 10
483.7115867248
 20
289.7137854005
 30
0.0
 11
483.4398267274
 21
288.6995632829
 31
0.0
  0
LINE
  5
280
330
1E9
100
AcDbEntity
  8
DV3_Default
  6
CENTER2
 62
     7
 48
25.4
100
AcDbLine
 10
482.4256046098
 20
288.4278032855
 30
0.0
 11
486.4824930802
 21
289.5148432749
 31
0.0
  0
ARC
  5
281
330
1E9
100
AcDbEntity
  8
DV3_Default
  6
CENTER2
 62
     7
 48
25.4
100
AcDbCircle
 10
451.1537559837
 20
280.0485367003
 30
0.0
 40
34.47500000000001
100
AcDbArc
 50
40.9273613934
 51
49.0726386066
  0
ARC
  5
282
330
1E9
100
AcDbEntity
  8
DV3_Default
  6
CENTER2
 62
     7
 48
25.4
100
AcDbCircle
 10
451.1537559837
 20
280.0485367003
 30
0.0
 40
34.47500000000001
100
AcDbArc
 50
10.9273613934
 51
19.0726386066
  0
CIRCLE
  5
283
330
1E9
100
AcDbEntity
  8
DV3_Default
  6
Continuous
 62
     7
 48
25.4
100
AcDbCircle
 10
480.0462559837
 20
230.0052587426
 30
0.0
 40
6.300000000000001
  0
CIRCLE
  5
284
330
1E9
100
AcDbEntity
  8
DV3_Default
  6
Continuous
 62
     7
 48
25.4
100
AcDbCircle
 10
480.0462559837
 20
230.0052587426
 30
0.0
 40
3.85
  0
CIRCLE
  5
285
330
1E9
100
AcDbEntity
  8
DV3_Default
  6
Continuous
 62
     7
 48
25.4
100
AcDbCircle
 10
422.2612559837
 20
230.0052587426
 30
0.0
 40
6.300000000000001
  0
CIRCLE
  5
286
330
1E9
100
AcDbEntity
  8
DV3_Default
  6
Continuous
 62
     7
 48
25.4
100
AcDbCircle
 10
422.2612559837
 20
230.0052587426
 30
0.0
 40
3.85
  0
CIRCLE
  5
287
330
1E9
100
AcDbEntity
  8
DV3_Default
  6
HIDDEN2
 62
     7
 48
25.4
100
AcDbCircle
 10
466.1096145049
 20
224.2325128282
 30
0.0
 40
2.1
  0
CIRCLE
  5
288
330
1E9
100
AcDbEntity
  8
DV3_Default
  6
HIDDEN2
 62
     7
 48
25.4
100
AcDbCircle
 10
466.1096145049
 20
224.2325128282
 30
0.0
 40
1.925
  0
LINE
  5
289
330
1E9
100
AcDbEntity
  8
DV3_Default
  6
CENTER2
 62
     7
 48
25.4
100
AcDbLine
 10
465.5660945102
 20
226.2609570634
 30
0.0
 11
466.6531344997
 21
222.204068593
 31
0.0
  0
LINE
  5
28A
330
1E9
100
AcDbEntity
  8
DV3_Default
  6
CENTER2
 62
     7
 48
25.4
100
AcDbLine
 10
476.7037559837
 20
235.7946385669
 30
0.0
 11
483.1962559837
 21
224.5492986988
 31
0.0
  0
ARC
  5
28B
330
1E9
100
AcDbEntity
  8
DV3_Default
  6
CENTER2
 62
     7
 48
25.4
100
AcDbCircle
 10
451.1537559837
 20
280.0485367003
 30
0.0
 40
57.785
100
AcDbArc
 50
282.9176644597
 51
306.2497607299
  0
ARC
  5
28C
330
1E9
100
AcDbEntity
  8
DV3_Default
  6
CENTER2
 62
     7
 48
25.4
100
AcDbCircle
 10
451.1537559837
 20
280.0485367003
 30
0.0
 40
57.785
100
AcDbArc
 50
233.7502392701
 51
246.2497607299
  0
CIRCLE
  5
28D
330
1E9
100
AcDbEntity
  8
DV3_Default
  6
Continuous
 62
     7
 48
25.4
100
AcDbCircle
 10
460.0765425636
 20
246.748243839
 30
0.0
 40
2.625
  0
CIRCLE
  5
28E
330
1E9
100
AcDbEntity
  8
DV3_Default
  6
Continuous
 62
     7
 48
25.4
100
AcDbCircle
 10
460.0765425636
 20
246.748243839
 30
0.0
 40
2.8
  0
LINE
  5
28F
330
1E9
100
AcDbEntity
  8
DV3_Default
  6
Continuous
 62
     7
 48
25.4
100
AcDbLine
 10
459.8047825662
 20
247.7624659566
 30
0.0
 11
459.062320446
 21
247.0200038363
 31
0.0
  0
LINE
  5
290
330
1E9
100
AcDbEntity
  8
DV3_Default
  6
Continuous
 62
     7
 48
25.4
100
AcDbLine
 10
459.062320446
 20
247.0200038363
 30
0.0
 11
459.3340804433
 21
246.0057817187
 31
0.0
  0
LINE
  5
291
330
1E9
100
AcDbEntity
  8
DV3_Default
  6
Continuous
 62
     7
 48
25.4
100
AcDbLine
 10
459.3340804433
 20
246.0057817187
 30
0.0
 11
460.348302561
 21
245.7340217214
 31
0.0
  0
LINE
  5
292
330
1E9
100
AcDbEntity
  8
DV3_Default
  6
Continuous
 62
     7
 48
25.4
100
AcDbLine
 10
460.348302561
 20
245.7340217214
 30
0.0
 11
461.0907646812
 21
246.4764838416
 31
0.0
  0
LINE
  5
293
330
1E9
100
AcDbEntity
  8
DV3_Default
  6
Continuous
 62
     7
 48
25.4
100
AcDbLine
 10
461.0907646812
 20
246.4764838416
 30
0.0
 11
460.8190046838
 21
247.4907059592
 31
0.0
  0
LINE
  5
294
330
1E9
100
AcDbEntity
  8
DV3_Default
  6
Continuous
 62
     7
 48
25.4
100
AcDbLine
 10
460.8190046838
 20
247.4907059592
 30
0.0
 11
459.8047825662
 21
247.7624659566
 31
0.0
  0
LINE
  5
295
330
1E9
100
AcDbEntity
  8
DV3_Default
  6
CENTER2
 62
     7
 48
25.4
100
AcDbLine
 10
459.5330225689
 20
248.7766880742
 30
0.0
 11
460.6200625583
 21
244.7197996038
 31
0.0
  0
CIRCLE
  5
296
330
1E9
100
AcDbEntity
  8
DV3_Default
  6
Continuous
 62
     7
 48
25.4
100
AcDbCircle
 10
442.2309694038
 20
246.748243839
 30
0.0
 40
2.625
  0
CIRCLE
  5
297
330
1E9
100
AcDbEntity
  8
DV3_Default
  6
Continuous
 62
     7
 48
25.4
100
AcDbCircle
 10
442.2309694038
 20
246.748243839
 30
0.0
 40
2.8
  0
LINE
  5
298
330
1E9
100
AcDbEntity
  8
DV3_Default
  6
Continuous
 62
     7
 48
25.4
100
AcDbLine
 10
442.5027294011
 20
247.7624659566
 30
0.0
 11
441.4885072835
 21
247.4907059592
 31
0.0
  0
LINE
  5
299
330
1E9
100
AcDbEntity
  8
DV3_Default
  6
Continuous
 62
     7
 48
25.4
100
AcDbLine
 10
441.4885072835
 20
247.4907059592
 30
0.0
 11
441.2167472862
 21
246.4764838416
 31
0.0
  0
LINE
  5
29A
330
1E9
100
AcDbEntity
  8
DV3_Default
  6
Continuous
 62
     7
 48
25.4
100
AcDbLine
 10
441.2167472862
 20
246.4764838416
 30
0.0
 11
441.9592094064
 21
245.7340217214
 31
0.0
  0
LINE
  5
29B
330
1E9
100
AcDbEntity
  8
DV3_Default
  6
Continuous
 62
     7
 48
25.4
100
AcDbLine
 10
441.9592094064
 20
245.7340217214
 30
0.0
 11
442.973431524
 21
246.0057817187
 31
0.0
  0
LINE
  5
29C
330
1E9
100
AcDbEntity
  8
DV3_Default
  6
Continuous
 62
     7
 48
25.4
100
AcDbLine
 10
442.973431524
 20
246.0057817187
 30
0.0
 11
443.2451915214
 21
247.0200038363
 31
0.0
  0
LINE
  5
29D
330
1E9
100
AcDbEntity
  8
DV3_Default
  6
Continuous
 62
     7
 48
25.4
100
AcDbLine
 10
443.2451915214
 20
247.0200038363
 30
0.0
 11
442.5027294011
 21
247.7624659566
 31
0.0
  0
LINE
  5
29E
330
1E9
100
AcDbEntity
  8
DV3_Default
  6
CENTER2
 62
     7
 48
25.4
100
AcDbLine
 10
442.7744893985
 20
248.7766880742
 30
0.0
 11
441.6874494091
 21
244.7197996038
 31
0.0
  0
ARC
  5
29F
330
1E9
100
AcDbEntity
  8
DV3_Default
  6
CENTER2
 62
     7
 48
25.4
100
AcDbCircle
 10
451.1537559837
 20
280.0485367003
 30
0.0
 40
34.47500000000001
100
AcDbArc
 50
280.9273613934
 51
289.0726386066
  0
ARC
  5
2A0
330
1E9
100
AcDbEntity
  8
DV3_Default
  6
CENTER2
 62
     7
 48
25.4
100
AcDbCircle
 10
451.1537559837
 20
280.0485367003
 30
0.0
 40
34.47500000000001
100
AcDbArc
 50
250.9273613934
 51
259.0726386066
  0
CIRCLE
  5
2A1
330
1E9
100
AcDbEntity
  8
DV3_Default
  6
Continuous
 62
     7
 48
25.4
100
AcDbCircle
 10
417.8534631224
 20
288.9713232802
 30
0.0
 40
2.625
  0
CIRCLE
  5
2A2
330
1E9
100
AcDbEntity
  8
DV3_Default
  6
Continuous
 62
     7
 48
25.4
100
AcDbCircle
 10
417.8534631224
 20
288.9713232802
 30
0.0
 40
2.8
  0
LINE
  5
2A3
330
1E9
100
AcDbEntity
  8
DV3_Default
  6
Continuous
 62
     7
 48
25.4
100
AcDbLine
 10
418.86768524
 20
288.6995632829
 30
0.0
 11
418.5959252426
 21
289.7137854005
 31
0.0
  0
LINE
  5
2A4
330
1E9
100
AcDbEntity
  8
DV3_Default
  6
Continuous
 62
     7
 48
25.4
100
AcDbLine
 10
418.5959252426
 20
289.7137854005
 30
0.0
 11
417.581703125
 21
289.9855453978
 31
0.0
  0
LINE
  5
2A5
330
1E9
100
AcDbEntity
  8
DV3_Default
  6
Continuous
 62
     7
 48
25.4
100
AcDbLine
 10
417.581703125
 20
289.9855453978
 30
0.0
 11
416.8392410048
 21
289.2430832776
 31
0.0
  0
LINE
  5
2A6
330
1E9
100
AcDbEntity
  8
DV3_Default
  6
Continuous
 62
     7
 48
25.4
100
AcDbLine
 10
416.8392410048
 20
289.2430832776
 30
0.0
 11
417.1110010021
 21
288.22886116
 31
0.0
  0
LINE
  5
2A7
330
1E9
100
AcDbEntity
  8
DV3_Default
  6
Continuous
 62
     7
 48
25.4
100
AcDbLine
 10
417.1110010021
 20
288.22886116
 30
0.0
 11
418.1252231197
 21
287.9571011626
 31
0.0
  0
LINE
  5
2A8
330
1E9
100
AcDbEntity
  8
DV3_Default
  6
Continuous
 62
     7
 48
25.4
100
AcDbLine
 10
418.1252231197
 20
287.9571011626
 30
0.0
 11
418.86768524
 21
288.6995632829
 31
0.0
  0
LINE
  5
2A9
330
1E9
100
AcDbEntity
  8
DV3_Default
  6
CENTER2
 62
     7
 48
25.4
100
AcDbLine
 10
419.8819073576
 20
288.4278032855
 30
0.0
 11
415.8250188872
 21
289.5148432749
 31
0.0
  0
CIRCLE
  5
2AA
330
1E9
100
AcDbEntity
  8
DV3_Default
  6
Continuous
 62
     7
 48
25.4
100
AcDbCircle
 10
426.7762497023
 20
304.4260429817
 30
0.0
 40
2.625
  0
CIRCLE
  5
2AB
330
1E9
100
AcDbEntity
  8
DV3_Default
  6
Continuous
 62
     7
 48
25.4
100
AcDbCircle
 10
426.7762497023
 20
304.4260429817
 30
0.0
 40
2.8
  0
LINE
  5
2AC
330
1E9
100
AcDbEntity
  8
DV3_Default
  6
Continuous
 62
     7
 48
25.4
100
AcDbLine
 10
427.5187118225
 20
303.6835808615
 30
0.0
 11
427.7904718199
 21
304.6978029791
 31
0.0
  0
LINE
  5
2AD
330
1E9
100
AcDbEntity
  8
DV3_Default
  6
Continuous
 62
     7
 48
25.4
100
AcDbLine
 10
427.7904718199
 20
304.6978029791
 30
0.0
 11
427.0480096996
 21
305.4402650993
 31
0.0
  0
LINE
  5
2AE
330
1E9
100
AcDbEntity
  8
DV3_Default
  6
Continuous
 62
     7
 48
25.4
100
AcDbLine
 10
427.0480096996
 20
305.4402650993
 30
0.0
 11
426.033787582
 21
305.168505102
 31
0.0
  0
LINE
  5
2AF
330
1E9
100
AcDbEntity
  8
DV3_Default
  6
Continuous
 62
     7
 48
25.4
100
AcDbLine
 10
426.033787582
 20
305.168505102
 30
0.0
 11
425.7620275847
 21
304.1542829843
 31
0.0
  0
LINE
  5
2B0
330
1E9
100
AcDbEntity
  8
DV3_Default
  6
Continuous
 62
     7
 48
25.4
100
AcDbLine
 10
425.7620275847
 20
304.1542829843
 30
0.0
 11
426.5044897049
 21
303.4118208641
 31
0.0
  0
LINE
  5
2B1
330
1E9
100
AcDbEntity
  8
DV3_Default
  6
Continuous
 62
     7
 48
25.4
100
AcDbLine
 10
426.5044897049
 20
303.4118208641
 30
0.0
 11
427.5187118225
 21
303.6835808615
 31
0.0
  0
LINE
  5
2B2
330
1E9
100
AcDbEntity
  8
DV3_Default
  6
CENTER2
 62
     7
 48
25.4
100
AcDbLine
 10
428.2611739428
 20
302.9411187412
 30
0.0
 11
425.2913254618
 21
305.9109672222
 31
0.0
  0
ARC
  5
2B3
330
1E9
100
AcDbEntity
  8
DV3_Default
  6
CENTER2
 62
     7
 48
25.4
100
AcDbCircle
 10
451.1537559837
 20
280.0485367003
 30
0.0
 40
34.47500000000001
100
AcDbArc
 50
160.9273613934
 51
169.0726386066
  0
ARC
  5
2B4
330
1E9
100
AcDbEntity
  8
DV3_Default
  6
CENTER2
 62
     7
 48
25.4
100
AcDbCircle
 10
451.1537559837
 20
280.0485367003
 30
0.0
 40
34.47500000000001
100
AcDbArc
 50
130.9273613934
 51
139.0726386066
  0
ARC
  5
2B5
330
1E9
100
AcDbEntity
  8
DV3_Default
  6
Continuous
 62
     7
 48
25.4
100
AcDbCircle
 10
451.1537559837
 20
280.0485367003
 30
0.0
 40
54.6
100
AcDbArc
 50
5.546717514
 51
54.453282486
  0
ARC
  5
2B6
330
1E9
100
AcDbEntity
  8
DV3_Default
  6
Continuous
 62
     7
 48
25.4
100
AcDbCircle
 10
451.1537559837
 20
280.0485367003
 30
0.0
 40
54.6
100
AcDbArc
 50
65.546717514
 51
77.9753008194
  0
ARC
  5
2B7
330
1E9
100
AcDbEntity
  8
DV3_Default
  6
Continuous
 62
     7
 48
25.4
100
AcDbCircle
 10
451.1537559837
 20
280.0485367003
 30
0.0
 40
54.6
100
AcDbArc
 50
102.0246991806
 51
114.453282486
  0
ARC
  5
2B8
330
1E9
100
AcDbEntity
  8
DV3_Default
  6
Continuous
 62
     7
 48
25.4
100
AcDbCircle
 10
451.1537559837
 20
280.0485367003
 30
0.0
 40
54.6
100
AcDbArc
 50
125.546717514
 51
174.453282486
  0
ARC
  5
2B9
330
1E9
100
AcDbEntity
  8
DV3_Default
  6
Continuous
 62
     7
 48
25.4
100
AcDbCircle
 10
451.1537559837
 20
280.0485367003
 30
0.0
 40
54.6
100
AcDbArc
 50
221.9624570859
 51
234.453282486
  0
ARC
  5
2BA
330
1E9
100
AcDbEntity
  8
DV3_Default
  6
Continuous
 62
     7
 48
25.4
100
AcDbCircle
 10
451.1537559837
 20
280.0485367003
 30
0.0
 40
54.6
100
AcDbArc
 50
245.546717514
 51
294.453282486
  0
ARC
  5
2BB
330
1E9
100
AcDbEntity
  8
DV3_Default
  6
Continuous
 62
     7
 48
25.4
100
AcDbCircle
 10
451.1537559837
 20
280.0485367003
 30
0.0
 40
54.6
100
AcDbArc
 50
341.9624570859
 51
354.453282486
  0
ARC
  5
2BC
330
1E9
100
AcDbEntity
  8
DV3_Default
  6
Continuous
 62
     7
 48
25.4
100
AcDbCircle
 10
451.1537559837
 20
280.0485367003
 30
0.0
 40
54.6
100
AcDbArc
 50
305.546717514
 51
317.9753008194
  0
ARC
  5
2BD
330
1E9
100
AcDbEntity
  8
DV3_Default
  6
Continuous
 62
     7
 48
25.4
100
AcDbCircle
 10
451.1537559837
 20
280.0485367003
 30
0.0
 40
54.6
100
AcDbArc
 50
185.546717514
 51
197.9753008194
  0
ARC
  5
2BE
330
1E9
100
AcDbEntity
  8
DV3_Default
  6
Continuous
 62
     7
 48
25.4
100
AcDbCircle
 10
451.1537559837
 20
280.0485367003
 30
0.0
 40
63.0
100
AcDbArc
 50
220.3484782901
 51
236.6429812923
  0
ARC
  5
2BF
330
1E9
100
AcDbEntity
  8
DV3_Default
  6
Continuous
 62
     7
 48
25.4
100
AcDbCircle
 10
451.1537559837
 20
280.0485367003
 30
0.0
 40
63.0
100
AcDbArc
 50
303.3570187077
 51
319.597878991
  0
LINE
  5
2C0
330
1E9
100
AcDbEntity
  8
DV3_Default
  6
CENTER2
 62
     7
 48
25.4
100
AcDbLine
 10
425.6037559837
 20
235.7946385669
 30
0.0
 11
419.1112559837
 21
224.5492986988
 31
0.0
  0
ENDBLK
  5
2C2
330
1E9
100
AcDbEntity
  8
0
100
AcDbBlockEnd
  0
BLOCK
  5
2CD
330
2C3
100
AcDbEntity
  8
0
100
AcDbBlockBegin
  2
GDimGGroup
 70
     0
 71
     0
 10
0.0
 20
0.0
 30
0.0
  3
GDimGGroup
  1

  0
HATCH
  5
2C5
330
2C3
100
AcDbEntity
  8
Default
  6
Continuous
 62
     7
 48
25.4
100
AcDbHatch
 10
0.0
 20
0.0
 30
0.0
210
0.0
220
0.0
230
1.0
  2
SOLID
 70
     1
 71
     0
 91
        1
 92
        1
 93
        3
 72
     1
 10
244.0547639343741
 20
89.26881803995406
 11
242.7214305377108
 21
89.26881803995406
 72
     1
 10
242.7214305377108
 20
89.26881803995406
 11
243.3880972360424
 21
85.26881784996425
 72
     1
 10
243.3880972360424
 20
85.26881784996425
 11
244.0547639343741
 21
89.26881803995406
 97
        0
 75
     0
 76
     1
 98
        0
  0
LWPOLYLINE
  5
2C6
330
2C3
100
AcDbEntity
  8
Default
  6
Continuous
 62
     7
 48
25.4
370
    20
100
AcDbPolyline
 90
        4
 70
     1
 43
0.00025
 10
244.0547639344
 20
89.26881804
 10
243.388097236
 20
85.26881785
 10
242.7214305377
 20
89.26881804
 10
244.0547639344
 20
89.26881804
  0
HATCH
  5
2C7
330
2C3
100
AcDbEntity
  8
Default
  6
Continuous
 62
     7
 48
25.4
100
AcDbHatch
 10
0.0
 20
0.0
 30
0.0
210
0.0
220
0.0
230
1.0
  2
SOLID
 70
     1
 71
     0
 91
        1
 92
        1
 93
        3
 72
     1
 10
244.0547639343741
 20
120.2688184646372
 11
243.3880972360424
 21
124.268818654627
 72
     1
 10
243.3880972360424
 20
124.268818654627
 11
242.7214305377108
 21
120.2688184646372
 72
     1
 10
242.7214305377108
 20
120.2688184646372
 11
244.0547639343741
 21
120.2688184646372
 97
        0
 75
     0
 76
     1
 98
        0
  0
LWPOLYLINE
  5
2C8
330
2C3
100
AcDbEntity
  8
Default
  6
Continuous
 62
     7
 48
25.4
370
    20
100
AcDbPolyline
 90
        4
 70
     1
 43
0.00025
 10
244.0547639344
 20
120.2688184646
 10
243.388097236
 20
124.2688186546
 10
242.7214305377
 20
120.2688184646
 10
244.0547639344
 20
120.2688184646
  0
LINE
  5
2C9
330
2C3
100
AcDbEntity
  8
Default
  6
Continuous
 62
     7
 48
25.4
100
AcDbLine
 10
210.0843614583
 20
85.26881785
 30
0.0
 11
245.388097331
 21
85.26881785
 31
0.0
  0
LINE
  5
2CA
330
2C3
100
AcDbEntity
  8
Default
  6
Continuous
 62
     7
 48
25.4
100
AcDbLine
 10
210.0843614583
 20
124.26881785
 30
0.0
 11
245.388097331
 21
124.26881785
 31
0.0
  0
LINE
  5
2CB
330
2C3
100
AcDbEntity
  8
Default
  6
Continuous
 62
     7
 48
25.4
100
AcDbLine
 10
243.388097236
 20
85.26881785
 30
0.0
 11
243.388097236
 21
124.2688186546
 31
0.0
  0
TEXT
  5
2CC
330
2C3
100
AcDbEntity
  8
Default
  6
Continuous
 62
     7
 48
25.4
100
AcDbText
 10
242.388097236
 20
101.6383834697
 30
0.0
 40
4.0
  1
65
 50
90.0
  7
SEACAD_arial_ttf
 11
238.388097236
 21
101.6383834697
 31
0.0
100
AcDbText
 73
     3
  0
ENDBLK
  5
2CE
330
2C3
100
AcDbEntity
  8
0
100
AcDbBlockEnd
  0
BLOCK
  5
2DA
330
2CF
100
AcDbEntity
  8
0
100
AcDbBlockBegin
  2
GDimGGroup1
 70
     0
 71
     0
 10
0.0
 20
0.0
 30
0.0
  3
GDimGGroup1
  1

  0
HATCH
  5
2D1
330
2CF
100
AcDbEntity
  8
Default
  6
Continuous
 62
     7
 48
25.4
100
AcDbHatch
 10
0.0
 20
0.0
 30
0.0
210
0.0
220
0.0
230
1.0
  2
SOLID
 70
     1
 71
     0
 91
        1
 92
        1
 93
        3
 72
     1
 10
229.0332538494404
 20
101.2688180399541
 11
227.6999204527772
 21
101.2688180399541
 72
     1
 10
227.6999204527772
 20
101.2688180399541
 11
228.3665871511088
 21
97.26881784996425
 72
     1
 10
228.3665871511088
 20
97.26881784996425
 11
229.0332538494404
 21
101.2688180399541
 97
        0
 75
     0
 76
     1
 98
        0
  0
LWPOLYLINE
  5
2D2
330
2CF
100
AcDbEntity
  8
Default
  6
Continuous
 62
     7
 48
25.4
370
    20
100
AcDbPolyline
 90
        4
 70
     1
 43
0.00025
 10
229.0332538494
 20
101.26881804
 10
228.3665871511
 20
97.26881785
 10
227.6999204528
 20
101.26881804
 10
229.0332538494
 20
101.26881804
  0
HATCH
  5
2D3
330
2CF
100
AcDbEntity
  8
Default
  6
Continuous
 62
     7
 48
25.4
100
AcDbHatch
 10
0.0
 20
0.0
 30
0.0
210
0.0
220
0.0
230
1.0
  2
SOLID
 70
     1
 71
     0
 91
        1
 92
        1
 93
        3
 72
     1
 10
229.0332538494404
 20
108.2688173246983
 11
228.3665871511088
 21
112.2688175146881
 72
     1
 10
228.3665871511088
 20
112.2688175146881
 11
227.6999204527772
 21
108.2688173246983
 72
     1
 10
227.6999204527772
 20
108.2688173246983
 11
229.0332538494404
 21
108.2688173246983
 97
        0
 75
     0
 76
     1
 98
        0
  0
LWPOLYLINE
  5
2D4
330
2CF
100
AcDbEntity
  8
Default
  6
Continuous
 62
     7
 48
25.4
370
    20
100
AcDbPolyline
 90
        4
 70
     1
 43
0.00025
 10
229.0332538494
 20
108.2688173247
 10
228.3665871511
 20
112.2688175147
 10
227.6999204528
 20
108.2688173247
 10
229.0332538494
 20
108.2688173247
  0
LINE
  5
2D5
330
2CF
100
AcDbEntity
  8
Default
  6
Continuous
 62
     7
 48
25.4
100
AcDbLine
 10
210.0843617956
 20
97.26881785
 30
0.0
 11
230.3665872461
 21
97.26881785
 31
0.0
  0
LINE
  5
2D6
330
2CF
100
AcDbEntity
  8
Default
  6
Continuous
 62
     7
 48
25.4
100
AcDbLine
 10
210.0843617956
 20
112.26881785
 30
0.0
 11
230.3665872461
 21
112.26881785
 31
0.0
  0
LINE
  5
2D7
330
2CF
100
AcDbEntity
  8
Default
  6
Continuous
 62
     7
 48
25.4
100
AcDbLine
 10
228.3665871511
 20
57.5099158069
 30
0.0
 11
228.3665871511
 21
112.2688175147
 31
0.0
  0
TEXT
  5
2D8
330
2CF
100
AcDbEntity
  8
Default
  6
Continuous
 62
     7
 48
25.4
100
AcDbText
 10
227.3665871511
 20
58.9099158772
 30
0.0
 40
4.0
  1
25
 50
90.0
  7
SEACAD_arial_ttf
 11
223.3665871511
 21
58.9099158772
 31
0.0
100
AcDbText
 73
     3
  0
TEXT
  5
2D9
330
2CF
100
AcDbEntity
  8
Default
  6
Continuous
 62
     7
 48
25.4
100
AcDbText
 10
227.3665871511
 20
67.5707854424
 30
0.0
 40
4.0
  1
H8/h8
 50
90.0
  7
SEACAD_arial_ttf
 11
223.3665871511
 21
67.5707854424
 31
0.0
100
AcDbText
 73
     3
  0
ENDBLK
  5
2DB
330
2CF
100
AcDbEntity
  8
0
100
AcDbBlockEnd
  0
BLOCK
  5
2E6
330
2DC
100
AcDbEntity
  8
0
100
AcDbBlockBegin
  2
GDimGGroup2
 70
     0
 71
     0
 10
0.0
 20
0.0
 30
0.0
  3
GDimGGroup2
  1

  0
HATCH
  5
2DE
330
2DC
100
AcDbEntity
  8
Default
  6
Continuous
 62
     7
 48
25.4
100
AcDbHatch
 10
0.0
 20
0.0
 30
0.0
210
0.0
220
0.0
230
1.0
  2
SOLID
 70
     1
 71
     0
 91
        1
 92
        1
 93
        3
 72
     1
 10
203.6843616056131
 20
141.3291982013835
 11
203.6843616056131
 21
139.9958648047202
 72
     1
 10
203.6843616056131
 20
139.9958648047202
 11
207.6843617956029
 21
140.6625315030519
 72
     1
 10
207.6843617956029
 20
140.6625315030519
 11
203.6843616056131
 21
141.3291982013835
 97
        0
 75
     0
 76
     1
 98
        0
  0
LWPOLYLINE
  5
2DF
330
2DC
100
AcDbEntity
  8
Default
  6
Continuous
 62
     7
 48
25.4
370
    20
100
AcDbPolyline
 90
        4
 70
     1
 43
0.00025
 10
203.6843616056
 20
141.3291982014
 10
207.6843617956
 20
140.6625315031
 10
203.6843616056
 20
139.9958648047
 10
203.6843616056
 20
141.3291982014
  0
HATCH
  5
2E0
330
2DC
100
AcDbEntity
  8
Default
  6
Continuous
 62
     7
 48
25.4
100
AcDbHatch
 10
0.0
 20
0.0
 30
0.0
210
0.0
220
0.0
230
1.0
  2
SOLID
 70
     1
 71
     0
 91
        1
 92
        1
 93
        3
 72
     1
 10
214.6843619855927
 20
141.3291982013835
 11
210.6843617956029
 21
140.6625315030519
 72
     1
 10
210.6843617956029
 20
140.6625315030519
 11
214.6843619855927
 21
139.9958648047202
 72
     1
 10
214.6843619855927
 20
139.9958648047202
 11
214.6843619855927
 21
141.3291982013835
 97
        0
 75
     0
 76
     1
 98
        0
  0
LWPOLYLINE
  5
2E1
330
2DC
100
AcDbEntity
  8
Default
  6
Continuous
 62
     7
 48
25.4
370
    20
100
AcDbPolyline
 90
        4
 70
     1
 43
0.00025
 10
214.6843619856
 20
141.3291982014
 10
210.6843617956
 20
140.6625315031
 10
214.6843619856
 20
139.9958648047
 10
214.6843619856
 20
141.3291982014
  0
LINE
  5
2E2
330
2DC
100
AcDbEntity
  8
Default
  6
Continuous
 62
     7
 48
25.4
100
AcDbLine
 10
207.6843617956
 20
136.2688179543
 30
0.0
 11
207.6843617956
 21
142.662531598
 31
0.0
  0
LINE
  5
2E3
330
2DC
100
AcDbEntity
  8
Default
  6
Continuous
 62
     7
 48
25.4
100
AcDbLine
 10
210.6843617956
 20
112.86881785
 30
0.0
 11
210.6843617956
 21
142.662531598
 31
0.0
  0
LINE
  5
2E4
330
2DC
100
AcDbEntity
  8
Default
  6
Continuous
 62
     7
 48
25.4
100
AcDbLine
 10
197.0873572404
 20
140.6625315031
 30
0.0
 11
218.684361736
 21
140.6625315031
 31
0.0
  0
TEXT
  5
2E5
330
2DC
100
AcDbEntity
  8
Default
  6
Continuous
 62
     7
 48
25.4
100
AcDbText
 10
198.4873569046
 20
141.6625315031
 30
0.0
 40
4.0
  1
5
  7
SEACAD_arial_ttf
 11
198.4873569046
 21
145.6625315031
 31
0.0
100
AcDbText
 73
     3
  0
ENDBLK
  5
2E7
330
2DC
100
AcDbEntity
  8
0
100
AcDbBlockEnd
  0
BLOCK
  5
2F2
330
2E8
100
AcDbEntity
  8
0
100
AcDbBlockBegin
  2
GDimGGroup3
 70
     0
 71
     0
 10
0.0
 20
0.0
 30
0.0
  3
GDimGGroup3
  1

  0
HATCH
  5
2EA
330
2E8
100
AcDbEntity
  8
Default
  6
Continuous
 62
     7
 48
25.4
100
AcDbHatch
 10
0.0
 20
0.0
 30
0.0
210
0.0
220
0.0
230
1.0
  2
SOLID
 70
     1
 71
     0
 91
        1
 92
        1
 93
        3
 72
     1
 10
218.2843619855927
 20
141.3291983056916
 11
214.2843617956029
 21
140.66253160736
 72
     1
 10
214.2843617956029
 20
140.66253160736
 11
218.2843619855927
 21
139.9958649090284
 72
     1
 10
218.2843619855927
 20
139.9958649090284
 11
218.2843619855927
 21
141.3291983056916
 97
        0
 75
     0
 76
     1
 98
        0
  0
LWPOLYLINE
  5
2EB
330
2E8
100
AcDbEntity
  8
Default
  6
Continuous
 62
     7
 48
25.4
370
    20
100
AcDbPolyline
 90
        4
 70
     1
 43
0.00025
 10
218.2843619856
 20
141.3291983057
 10
214.2843617956
 20
140.6625316074
 10
218.2843619856
 20
139.995864909
 10
218.2843619856
 20
141.3291983057
  0
HATCH
  5
2EC
330
2E8
100
AcDbEntity
  8
Default
  6
Continuous
 62
     7
 48
25.4
100
AcDbHatch
 10
0.0
 20
0.0
 30
0.0
210
0.0
220
0.0
230
1.0
  2
SOLID
 70
     1
 71
     0
 91
        1
 92
        1
 93
        3
 72
     1
 10
206.6843616056131
 20
141.3291983056916
 11
206.6843616056131
 21
139.9958649090284
 72
     1
 10
206.6843616056131
 20
139.9958649090284
 11
210.6843617956029
 21
140.66253160736
 72
     1
 10
210.6843617956029
 20
140.66253160736
 11
206.6843616056131
 21
141.3291983056916
 97
        0
 75
     0
 76
     1
 98
        0
  0
LWPOLYLINE
  5
2ED
330
2E8
100
AcDbEntity
  8
Default
  6
Continuous
 62
     7
 48
25.4
370
    20
100
AcDbPolyline
 90
        4
 70
     1
 43
0.00025
 10
206.6843616056
 20
141.3291983057
 10
210.6843617956
 20
140.6625316074
 10
206.6843616056
 20
139.995864909
 10
206.6843616056
 20
141.3291983057
  0
LINE
  5
2EE
330
2E8
100
AcDbEntity
  8
Default
  6
Continuous
 62
     7
 48
25.4
100
AcDbLine
 10
214.2843617956
 20
112.26881785
 30
0.0
 11
214.2843617956
 21
142.6625317024
 31
0.0
  0
LINE
  5
2EF
330
2E8
100
AcDbEntity
  8
Default
  6
Continuous
 62
     7
 48
25.4
100
AcDbLine
 10
210.6843617956
 20
123.66881785
 30
0.0
 11
210.6843617956
 21
142.6625317024
 31
0.0
  0
LINE
  5
2F0
330
2E8
100
AcDbEntity
  8
Default
  6
Continuous
 62
     7
 48
25.4
100
AcDbLine
 10
223.5941975276
 20
140.6625316074
 30
0.0
 11
202.6843619431
 21
140.6625316074
 31
0.0
  0
TEXT
  5
2F1
330
2E8
100
AcDbEntity
  8
Default
  6
Continuous
 62
     7
 48
25.4
100
AcDbText
 10
219.063762848
 20
141.6625316074
 30
0.0
 40
4.0
  1
6
  7
SEACAD_arial_ttf
 11
219.063762848
 21
145.6625316074
 31
0.0
100
AcDbText
 73
     3
  0
ENDBLK
  5
2F3
330
2E8
100
AcDbEntity
  8
0
100
AcDbBlockEnd
  0
BLOCK
  5
2FF
330
2F4
100
AcDbEntity
  8
0
100
AcDbBlockBegin
  2
GDimGGroup4
 70
     0
 71
     0
 10
0.0
 20
0.0
 30
0.0
  3
GDimGGroup4
  1

  0
HATCH
  5
2F6
330
2F4
100
AcDbEntity
  8
Default
  6
Continuous
 62
     7
 48
25.4
100
AcDbHatch
 10
0.0
 20
0.0
 30
0.0
210
0.0
220
0.0
230
1.0
  2
SOLID
 70
     1
 71
     0
 91
        1
 92
        1
 93
        3
 72
     1
 10
76.5608071137938
 20
234.148954265642
 11
77.22747381212544
 21
230.1489540756522
 72
     1
 10
77.22747381212544
 20
230.1489540756522
 11
77.89414051045708
 21
234.148954265642
 72
     1
 10
77.89414051045708
 20
234.148954265642
 11
76.5608071137938
 21
234.148954265642
 97
        0
 75
     0
 76
     1
 98
        0
  0
LWPOLYLINE
  5
2F7
330
2F4
100
AcDbEntity
  8
Default
  6
Continuous
 62
     7
 48
25.4
370
    20
100
AcDbPolyline
 90
        4
 70
     1
 43
0.00025
 10
76.5608071138
 20
234.1489542656
 10
77.2274738121
 20
230.1489540757
 10
77.8941405105
 20
234.1489542656
 10
76.5608071138
 20
234.1489542656
  0
HATCH
  5
2F8
330
2F4
100
AcDbEntity
  8
Default
  6
Continuous
 62
     7
 48
25.4
100
AcDbHatch
 10
0.0
 20
0.0
 30
0.0
210
0.0
220
0.0
230
1.0
  2
SOLID
 70
     1
 71
     0
 91
        1
 92
        1
 93
        3
 72
     1
 10
76.5608071137938
 20
326.1702044316409
 11
77.89414051045708
 21
326.1702044316409
 72
     1
 10
77.89414051045708
 20
326.1702044316409
 11
77.22747381212544
 21
330.1702046216307
 72
     1
 10
77.22747381212544
 20
330.1702046216307
 11
76.5608071137938
 21
326.1702044316409
 97
        0
 75
     0
 76
     1
 98
        0
  0
LWPOLYLINE
  5
2F9
330
2F4
100
AcDbEntity
  8
Default
  6
Continuous
 62
     7
 48
25.4
370
    20
100
AcDbPolyline
 90
        4
 70
     1
 43
0.00025
 10
76.5608071138
 20
326.1702044316
 10
77.2274738121
 20
330.1702046216
 10
77.8941405105
 20
326.1702044316
 10
76.5608071138
 20
326.1702044316
  0
LINE
  5
2FA
330
2F4
100
AcDbEntity
  8
Default
  6
Continuous
 62
     7
 48
25.4
100
AcDbLine
 10
148.2197200823
 20
230.1489540757
 30
0.0
 11
75.2274737171
 21
230.1489540757
 31
0.0
  0
LINE
  5
2FB
330
2F4
100
AcDbEntity
  8
Default
  6
Continuous
 62
     7
 48
25.4
100
AcDbLine
 10
148.2197200823
 20
330.1702040757
 30
0.0
 11
75.2274737171
 21
330.1702040757
 31
0.0
  0
LINE
  5
2FC
330
2F4
100
AcDbEntity
  8
Default
  6
Continuous
 62
     7
 48
25.4
100
AcDbLine
 10
77.2274738121
 20
230.1489540757
 30
0.0
 11
77.2274738121
 21
330.1702046216
 31
0.0
  0
TEXT
  5
2FD
330
2F4
100
AcDbEntity
  8
Default
  6
Continuous
 62
     7
 48
25.4
100
AcDbText
 10
76.2274738121
 20
273.6663680595
 30
0.0
 40
4.0
  1
285.775
 50
90.0
  7
SEACAD_arial_ttf
 11
72.2274738121
 21
273.6663680595
 31
0.0
100
AcDbText
 73
     3
  0
TEXT
  5
2FE
330
2F4
100
AcDbEntity
  8
Default
  6
Continuous
 62
     7
 48
25.4
100
AcDbText
 10
76.2274738121
 20
266.3049645508
 30
0.0
 40
4.0
  1
O
 50
90.0
  7
SEACAD_semeca1_ttf
 11
72.2274738121
 21
266.3049645508
 31
0.0
100
AcDbText
 73
     3
  0
ENDBLK
  5
300
330
2F4
100
AcDbEntity
  8
0
100
AcDbBlockEnd
  0
BLOCK
  5
30B
330
301
100
AcDbEntity
  8
0
100
AcDbBlockBegin
  2
GDimGGroup5
 70
     0
 71
     0
 10
0.0
 20
0.0
 30
0.0
  3
GDimGGroup5
  1

  0
HATCH
  5
303
330
301
100
AcDbEntity
  8
Default
  6
Continuous
 62
     7
 48
25.4
100
AcDbHatch
 10
0.0
 20
0.0
 30
0.0
210
0.0
220
0.0
230
1.0
  2
SOLID
 70
     1
 71
     0
 91
        1
 92
        1
 93
        3
 72
     1
 10
310.783507900136
 20
329.659579265642
 11
309.4501745034727
 21
329.659579265642
 72
     1
 10
309.4501745034727
 20
329.659579265642
 11
310.1168412018044
 21
325.6595790756522
 72
     1
 10
310.1168412018044
 20
325.6595790756522
 11
310.783507900136
 21
329.659579265642
 97
        0
 75
     0
 76
     1
 98
        0
  0
LWPOLYLINE
  5
304
330
301
100
AcDbEntity
  8
Default
  6
Continuous
 62
     7
 48
25.4
370
    20
100
AcDbPolyline
 90
        4
 70
     1
 43
0.00025
 10
310.7835079001
 20
329.6595792656
 10
310.1168412018
 20
325.6595790757
 10
309.4501745035
 20
329.6595792656
 10
310.7835079001
 20
329.6595792656
  0
HATCH
  5
305
330
301
100
AcDbEntity
  8
Default
  6
Continuous
 62
     7
 48
25.4
100
AcDbHatch
 10
0.0
 20
0.0
 30
0.0
210
0.0
220
0.0
230
1.0
  2
SOLID
 70
     1
 71
     0
 91
        1
 92
        1
 93
        3
 72
     1
 10
310.783507900136
 20
384.6595798989413
 11
310.1168412018044
 21
388.6595800889311
 72
     1
 10
310.1168412018044
 20
388.6595800889311
 11
309.4501745034727
 21
384.6595798989413
 72
     1
 10
309.4501745034727
 20
384.6595798989413
 11
310.783507900136
 21
384.6595798989413
 97
        0
 75
     0
 76
     1
 98
        0
  0
LWPOLYLINE
  5
306
330
301
100
AcDbEntity
  8
Default
  6
Continuous
 62
     7
 48
25.4
370
    20
100
AcDbPolyline
 90
        4
 70
     1
 43
0.00025
 10
310.7835079001
 20
384.6595798989
 10
310.1168412018
 20
388.6595800889
 10
309.4501745035
 20
384.6595798989
 10
310.7835079001
 20
384.6595798989
  0
LINE
  5
307
330
301
100
AcDbEntity
  8
Default
  6
Continuous
 62
     7
 48
25.4
100
AcDbLine
 10
233.2697200823
 20
325.6595790757
 30
0.0
 11
312.1168412968
 21
325.6595790757
 31
0.0
  0
LINE
  5
308
330
301
100
AcDbEntity
  8
Default
  6
Continuous
 62
     7
 48
25.4
100
AcDbLine
 10
233.2697200823
 20
388.6595790757
 30
0.0
 11
312.1168412968
 21
388.6595790757
 31
0.0
  0
LINE
  5
309
330
301
100
AcDbEntity
  8
Default
  6
Continuous
 62
     7
 48
25.4
100
AcDbLine
 10
310.1168412018
 20
325.6595790757
 30
0.0
 11
310.1168412018
 21
388.6595800889
 31
0.0
  0
TEXT
  5
30A
330
301
100
AcDbEntity
  8
Default
  6
Continuous
 62
     7
 48
25.4
100
AcDbText
 10
309.1168412018
 20
352.4639274084
 30
0.0
 40
4.0
  1
180
 50
90.0
  7
SEACAD_arial_ttf
 11
305.1168412018
 21
352.4639274084
 31
0.0
100
AcDbText
 73
     3
  0
ENDBLK
  5
30C
330
301
100
AcDbEntity
  8
0
100
AcDbBlockEnd
  0
BLOCK
  5
317
330
30D
100
AcDbEntity
  8
0
100
AcDbBlockBegin
  2
GDimGGroup6
 70
     0
 71
     0
 10
0.0
 20
0.0
 30
0.0
  3
GDimGGroup6
  1

  0
HATCH
  5
30F
330
30D
100
AcDbEntity
  8
Default
  6
Continuous
 62
     7
 48
25.4
100
AcDbHatch
 10
0.0
 20
0.0
 30
0.0
210
0.0
220
0.0
230
1.0
  2
SOLID
 70
     1
 71
     0
 91
        1
 92
        1
 93
        3
 72
     1
 10
161.669720272295
 20
189.7846660687554
 11
161.669720272295
 21
191.1179994654187
 72
     1
 10
161.669720272295
 20
191.1179994654187
 11
157.6697200823052
 21
190.451332767087
 72
     1
 10
157.6697200823052
 20
190.451332767087
 11
161.669720272295
 21
189.7846660687554
 97
        0
 75
     0
 76
     1
 98
        0
  0
LWPOLYLINE
  5
310
330
30D
100
AcDbEntity
  8
Default
  6
Continuous
 62
     7
 48
25.4
370
    20
100
AcDbPolyline
 90
        4
 70
     1
 43
0.00025
 10
161.6697202723
 20
189.7846660688
 10
157.6697200823
 20
190.4513327671
 10
161.6697202723
 20
191.1179994654
 10
161.6697202723
 20
189.7846660688
  0
HATCH
  5
311
330
30D
100
AcDbEntity
  8
Default
  6
Continuous
 62
     7
 48
25.4
100
AcDbHatch
 10
0.0
 20
0.0
 30
0.0
210
0.0
220
0.0
230
1.0
  2
SOLID
 70
     1
 71
     0
 91
        1
 92
        1
 93
        3
 72
     1
 10
144.2197198923154
 20
189.7846660687554
 11
148.2197200823052
 21
190.451332767087
 72
     1
 10
148.2197200823052
 20
190.451332767087
 11
144.2197198923154
 21
191.1179994654187
 72
     1
 10
144.2197198923154
 20
191.1179994654187
 11
144.2197198923154
 21
189.7846660687554
 97
        0
 75
     0
 76
     1
 98
        0
  0
LWPOLYLINE
  5
312
330
30D
100
AcDbEntity
  8
Default
  6
Continuous
 62
     7
 48
25.4
370
    20
100
AcDbPolyline
 90
        4
 70
     1
 43
0.00025
 10
144.2197198923
 20
189.7846660688
 10
148.2197200823
 20
190.4513327671
 10
144.2197198923
 20
191.1179994654
 10
144.2197198923
 20
189.7846660688
  0
LINE
  5
313
330
30D
100
AcDbEntity
  8
Default
  6
Continuous
 62
     7
 48
25.4
100
AcDbLine
 10
157.6697200823
 20
214.3595790757
 30
0.0
 11
157.6697200823
 21
188.4513326721
 31
0.0
  0
LINE
  5
314
330
30D
100
AcDbEntity
  8
Default
  6
Continuous
 62
     7
 48
25.4
100
AcDbLine
 10
148.2197200823
 20
214.3595790757
 30
0.0
 11
148.2197200823
 21
188.4513326721
 31
0.0
  0
LINE
  5
315
330
30D
100
AcDbEntity
  8
Default
  6
Continuous
 62
     7
 48
25.4
100
AcDbLine
 10
165.6697204623
 20
190.4513327671
 30
0.0
 11
137.3580459792
 21
190.4513327671
 31
0.0
  0
TEXT
  5
316
330
30D
100
AcDbEntity
  8
Default
  6
Continuous
 62
     7
 48
25.4
100
AcDbText
 10
138.75804727
 20
191.4513327671
 30
0.0
 40
4.0
  1
27
  7
SEACAD_arial_ttf
 11
138.75804727
 21
195.4513327671
 31
0.0
100
AcDbText
 73
     3
  0
ENDBLK
  5
318
330
30D
100
AcDbEntity
  8
0
100
AcDbBlockEnd
  0
BLOCK
  5
323
330
319
100
AcDbEntity
  8
0
100
AcDbBlockBegin
  2
GDimGGroup7
 70
     0
 71
     0
 10
0.0
 20
0.0
 30
0.0
  3
GDimGGroup7
  1

  0
HATCH
  5
31B
330
319
100
AcDbEntity
  8
Default
  6
Continuous
 62
     7
 48
25.4
100
AcDbHatch
 10
0.0
 20
0.0
 30
0.0
210
0.0
220
0.0
230
1.0
  2
SOLID
 70
     1
 71
     0
 91
        1
 92
        1
 93
        3
 72
     1
 10
194.9697198923154
 20
189.534964255296
 11
198.9697200823052
 21
190.2016309536276
 72
     1
 10
198.9697200823052
 20
190.2016309536276
 11
194.9697198923154
 21
190.8682976519593
 72
     1
 10
194.9697198923154
 20
190.8682976519593
 11
194.9697198923154
 21
189.534964255296
 97
        0
 75
     0
 76
     1
 98
        0
  0
LWPOLYLINE
  5
31C
330
319
100
AcDbEntity
  8
Default
  6
Continuous
 62
     7
 48
25.4
370
    20
100
AcDbPolyline
 90
        4
 70
     1
 43
0.00025
 10
194.9697198923
 20
189.5349642553
 10
198.9697200823
 20
190.2016309536
 10
194.9697198923
 20
190.868297652
 10
194.9697198923
 20
189.5349642553
  0
HATCH
  5
31D
330
319
100
AcDbEntity
  8
Default
  6
Continuous
 62
     7
 48
25.4
100
AcDbHatch
 10
0.0
 20
0.0
 30
0.0
210
0.0
220
0.0
230
1.0
  2
SOLID
 70
     1
 71
     0
 91
        1
 92
        1
 93
        3
 72
     1
 10
211.719720272295
 20
189.534964255296
 11
211.719720272295
 21
190.8682976519593
 72
     1
 10
211.719720272295
 20
190.8682976519593
 11
207.7197200823052
 21
190.2016309536276
 72
     1
 10
207.7197200823052
 20
190.2016309536276
 11
211.719720272295
 21
189.534964255296
 97
        0
 75
     0
 76
     1
 98
        0
  0
LWPOLYLINE
  5
31E
330
319
100
AcDbEntity
  8
Default
  6
Continuous
 62
     7
 48
25.4
370
    20
100
AcDbPolyline
 90
        4
 70
     1
 43
0.00025
 10
211.7197202723
 20
189.5349642553
 10
207.7197200823
 20
190.2016309536
 10
211.7197202723
 20
190.868297652
 10
211.7197202723
 20
189.5349642553
  0
LINE
  5
31F
330
319
100
AcDbEntity
  8
Default
  6
Continuous
 62
     7
 48
25.4
100
AcDbLine
 10
198.9697200823
 20
216.0745790675
 30
0.0
 11
198.9697200823
 21
188.2016308586
 31
0.0
  0
LINE
  5
320
330
319
100
AcDbEntity
  8
Default
  6
Continuous
 62
     7
 48
25.4
100
AcDbLine
 10
207.7197200823
 20
216.0745790757
 30
0.0
 11
207.7197200823
 21
188.2016308586
 31
0.0
  0
LINE
  5
321
330
319
100
AcDbEntity
  8
Default
  6
Continuous
 62
     7
 48
25.4
100
AcDbLine
 10
190.9697197023
 20
190.2016309536
 30
0.0
 11
215.7197204995
 21
190.2016309536
 31
0.0
  0
TEXT
  5
322
330
319
100
AcDbEntity
  8
Default
  6
Continuous
 62
     7
 48
25.4
100
AcDbText
 10
200.2142853183
 20
191.2016309536
 30
0.0
 40
4.0
  1
25
  7
SEACAD_arial_ttf
 11
200.2142853183
 21
195.2016309536
 31
0.0
100
AcDbText
 73
     3
  0
ENDBLK
  5
324
330
319
100
AcDbEntity
  8
0
100
AcDbBlockEnd
  0
BLOCK
  5
330
330
325
100
AcDbEntity
  8
0
100
AcDbBlockBegin
  2
GDimGGroup8
 70
     0
 71
     0
 10
0.0
 20
0.0
 30
0.0
  3
GDimGGroup8
  1

  0
HATCH
  5
327
330
325
100
AcDbEntity
  8
Default
  6
Continuous
 62
     7
 48
25.4
100
AcDbHatch
 10
0.0
 20
0.0
 30
0.0
210
0.0
220
0.0
230
1.0
  2
SOLID
 70
     1
 71
     0
 91
        1
 92
        1
 93
        3
 72
     1
 10
224.9545269446545
 20
224.6745788856624
 11
224.2878602463229
 21
228.6745790756522
 72
     1
 10
224.2878602463229
 20
228.6745790756522
 11
223.6211935479912
 21
224.6745788856624
 72
     1
 10
223.6211935479912
 20
224.6745788856624
 11
224.9545269446545
 21
224.6745788856624
 97
        0
 75
     0
 76
     1
 98
        0
  0
LWPOLYLINE
  5
328
330
325
100
AcDbEntity
  8
Default
  6
Continuous
 62
     7
 48
25.4
370
    20
100
AcDbPolyline
 90
        4
 70
     1
 43
0.00025
 10
224.9545269447
 20
224.6745788857
 10
224.2878602463
 20
228.6745790757
 10
223.621193548
 20
224.6745788857
 10
224.9545269447
 20
224.6745788857
  0
HATCH
  5
329
330
325
100
AcDbEntity
  8
Default
  6
Continuous
 62
     7
 48
25.4
100
AcDbHatch
 10
0.0
 20
0.0
 30
0.0
210
0.0
220
0.0
230
1.0
  2
SOLID
 70
     1
 71
     0
 91
        1
 92
        1
 93
        3
 72
     1
 10
224.9545269446545
 20
220.0745792492507
 11
223.6211935479912
 21
220.0745792492507
 72
     1
 10
223.6211935479912
 20
220.0745792492507
 11
224.2878602463229
 21
216.0745790592609
 72
     1
 10
224.2878602463229
 20
216.0745790592609
 11
224.9545269446545
 21
220.0745792492507
 97
        0
 75
     0
 76
     1
 98
        0
  0
LWPOLYLINE
  5
32A
330
325
100
AcDbEntity
  8
Default
  6
Continuous
 62
     7
 48
25.4
370
    20
100
AcDbPolyline
 90
        4
 70
     1
 43
0.00025
 10
224.9545269447
 20
220.0745792493
 10
224.2878602463
 20
216.0745790593
 10
223.621193548
 20
220.0745792493
 10
224.9545269447
 20
220.0745792493
  0
LINE
  5
32B
330
325
100
AcDbEntity
  8
Default
  6
Continuous
 62
     7
 48
25.4
100
AcDbLine
 10
207.7197201196
 20
228.6745790757
 30
0.0
 11
226.2878603413
 21
228.6745790757
 31
0.0
  0
LINE
  5
32C
330
325
100
AcDbEntity
  8
Default
  6
Continuous
 62
     7
 48
25.4
100
AcDbLine
 10
207.7197200823
 20
216.0745790757
 30
0.0
 11
226.2878603413
 21
216.0745790757
 31
0.0
  0
LINE
  5
32D
330
325
100
AcDbEntity
  8
Default
  6
Continuous
 62
     7
 48
25.4
100
AcDbLine
 10
224.2878602463
 20
245.7282279051
 30
0.0
 11
224.2878602463
 21
216.0745790593
 31
0.0
  0
TEXT
  5
32E
330
325
100
AcDbEntity
  8
Default
  6
Continuous
 62
     7
 48
25.4
100
AcDbText
 10
223.2878602463
 20
238.0673577063
 30
0.0
 40
4.0
  1
36
 50
90.0
  7
SEACAD_arial_ttf
 11
219.2878602463
 21
238.0673577063
 31
0.0
100
AcDbText
 73
     3
  0
TEXT
  5
32F
330
325
100
AcDbEntity
  8
Default
  6
Continuous
 62
     7
 48
25.4
100
AcDbText
 10
223.2878602463
 20
230.7059541975
 30
0.0
 40
4.0
  1
O
 50
90.0
  7
SEACAD_semeca1_ttf
 11
219.2878602463
 21
230.7059541975
 31
0.0
100
AcDbText
 73
     3
  0
ENDBLK
  5
331
330
325
100
AcDbEntity
  8
0
100
AcDbBlockEnd
  0
BLOCK
  5
33E
330
332
100
AcDbEntity
  8
0
100
AcDbBlockBegin
  2
GDimGGroup9
 70
     0
 71
     0
 10
0.0
 20
0.0
 30
0.0
  3
GDimGGroup9
  1

  0
HATCH
  5
334
330
332
100
AcDbEntity
  8
Default
  6
Continuous
 62
     7
 48
25.4
100
AcDbHatch
 10
0.0
 20
0.0
 30
0.0
210
0.0
220
0.0
230
1.0
  2
SOLID
 70
     1
 71
     0
 91
        1
 92
        1
 93
        3
 72
     1
 10
77.63905051705588
 20
342.8837680695186
 11
77.69917235500114
 21
338.8290385629812
 72
     1
 10
77.69917235500114
 20
338.8290385629812
 11
78.95734775365963
 21
342.6840924760663
 72
     1
 10
78.95734775365963
 20
342.6840924760663
 11
77.63905051705588
 21
342.8837680695186
 97
        0
 75
     0
 76
     1
 98
        0
  0
LWPOLYLINE
  5
335
330
332
100
AcDbEntity
  8
Default
  6
Continuous
 62
     7
 48
25.4
370
    20
100
AcDbPolyline
 90
        4
 70
     1
 43
0.00025
 10
77.6390505171
 20
342.8837680695
 10
77.699172355
 20
338.829038563
 10
78.9573477537
 20
342.6840924761
 10
77.6390505171
 20
342.8837680695
  0
HATCH
  5
336
330
332
100
AcDbEntity
  8
Default
  6
Continuous
 62
     7
 48
25.4
100
AcDbHatch
 10
0.0
 20
0.0
 30
0.0
210
0.0
220
0.0
230
1.0
  2
SOLID
 70
     1
 71
     0
 91
        1
 92
        1
 93
        3
 72
     1
 10
77.94855961647674
 20
326.1905521411682
 11
77.16957535030674
 21
330.1702040756522
 72
     1
 10
77.16957535030674
 20
330.1702040756522
 11
76.6157544341484
 21
326.1530249161662
 72
     1
 10
76.6157544341484
 20
326.1530249161662
 11
77.94855961647674
 21
326.1905521411682
 97
        0
 75
     0
 76
     1
 98
        0
  0
LWPOLYLINE
  5
337
330
332
100
AcDbEntity
  8
Default
  6
Continuous
 62
     7
 48
25.4
370
    20
100
AcDbPolyline
 90
        4
 70
     1
 43
0.00025
 10
77.9485596165
 20
326.1905521412
 10
77.1695753503
 20
330.1702040757
 10
76.6157544341
 20
326.1530249162
 10
77.9485596165
 20
326.1905521412
  0
LINE
  5
338
330
332
100
AcDbEntity
  8
Default
  6
Continuous
 62
     7
 48
25.4
100
AcDbLine
 10
155.5697201128
 20
329.2677375493
 30
0.0
 11
75.7140834239
 21
339.0727768357
 31
0.0
  0
LINE
  5
339
330
332
100
AcDbEntity
  8
Default
  6
Continuous
 62
     7
 48
25.4
100
AcDbLine
 10
148.2197200823
 20
330.1702040757
 30
0.0
 11
75.1695787478
 21
330.1702040757
 31
0.0
  0
ARC
  5
33A
330
332
100
AcDbEntity
  8
Default
  6
Continuous
 62
     7
 48
25.4
100
AcDbCircle
 10
148.2197200823
 20
330.1702040757
 30
0.0
 40
71.05014473199996
100
AcDbArc
 50
166.548693803
 51
180.0000000525
  0
ARC
  5
33B
330
332
100
AcDbEntity
  8
Default
  6
Continuous
 62
     7
 48
25.4
100
AcDbCircle
 10
148.2197200823
 20
330.1702040757
 30
0.0
 40
71.05014473199347
100
AcDbArc
 50
180.0
 51
186.451306197
  0
TEXT
  5
33C
330
332
100
AcDbEntity
  8
Default
  6
Continuous
 62
     7
 48
25.4
100
AcDbText
 10
75.6743671515
 20
324.2749526115
 30
0.0
 40
4.0
  1
7°
 50
86.5
  7
SEACAD_arial_ttf
 11
71.6818279578
 21
324.5191467697
 31
0.0
100
AcDbText
 73
     3
  0
TEXT
  5
33D
330
332
100
AcDbEntity
  8
Default
  6
Continuous
 62
     7
 48
25.4
100
AcDbText
 10
76.1744343188
 20
332.4509785256
 30
0.0
 40
4.0
  1
7'30"
 50
86.5
  7
SEACAD_arial_ttf
 11
72.1818951251
 21
332.6951726837
 31
0.0
100
AcDbText
 73
     3
  0
ENDBLK
  5
33F
330
332
100
AcDbEntity
  8
0
100
AcDbBlockEnd
  0
BLOCK
  5
349
330
340
100
AcDbEntity
  8
0
100
AcDbBlockBegin
  2
GDimGGroup10
 70
     0
 71
     0
 10
0.0
 20
0.0
 30
0.0
  3
GDimGGroup10
  1

  0
LINE
  5
342
330
340
100
AcDbEntity
  8
Default
  6
Continuous
 62
     7
 48
25.4
100
AcDbLine
 10
451.1537559837
 20
280.0485367003
 30
0.0
 11
397.9594919296
 21
302.6201244182
 31
0.0
  0
HATCH
  5
343
330
340
100
AcDbEntity
  8
Default
  6
Continuous
 62
     7
 48
25.4
100
AcDbHatch
 10
0.0
 20
0.0
 30
0.0
210
0.0
220
0.0
230
1.0
  2
SOLID
 70
     1
 71
     0
 91
        1
 92
        1
 93
        3
 72
     1
 10
401.381303349857
 20
300.4439677539134
 11
401.9021210599963
 21
301.6713743122563
 72
     1
 10
401.9021210599963
 20
301.6713743122563
 11
397.9594925298982
 21
302.6201241635025
 72
     1
 10
397.9594925298983
 20
302.6201241635025
 11
401.3813033498571
 21
300.4439677539134
 97
        0
 75
     0
 76
     1
 98
        0
  0
LWPOLYLINE
  5
344
330
340
100
AcDbEntity
  8
Default
  6
Continuous
 62
     7
 48
25.4
370
    20
100
AcDbPolyline
 90
        4
 70
     1
 43
0.00025
 10
401.3813033499
 20
300.4439677539
 10
397.9594925299
 20
302.6201241635
 10
401.90212106
 20
301.6713743123
 10
401.3813033499
 20
300.4439677539
  0
ARC
  5
345
330
340
100
AcDbEntity
  8
Default
  6
Continuous
 62
     7
 48
25.4
100
AcDbCircle
 10
451.1537559837
 20
280.0485367003
 30
0.0
 40
57.78500000000411
100
AcDbArc
 50
155.0242685775
 51
162.9176644597
  0
TEXT
  5
346
330
340
100
AcDbEntity
  8
Default
  6
Continuous
 62
     7
 48
25.4
100
AcDbText
 10
400.5964543055
 20
302.5875000939
 30
0.0
 40
4.0
  1
R
 50
337.0073361388
  7
SEACAD_arial_ttf
 11
402.1589073617
 21
306.269719594
 31
0.0
100
AcDbText
 73
     3
  0
TEXT
  5
347
330
340
100
AcDbEntity
  8
Default
  6
Continuous
 62
     7
 48
25.4
100
AcDbText
 10
406.4880055057
 20
300.0875752039
 30
0.0
 40
4.0
  1
165.1
 50
337.0073361388
  7
SEACAD_arial_ttf
 11
408.0504585619
 21
303.7697947041
 31
0.0
100
AcDbText
 73
     3
  0
TEXT
  5
348
330
340
100
AcDbEntity
  8
Default
  6
Continuous
 62
     7
 48
25.4
100
AcDbText
 10
421.2969317562
 20
293.8037966083
 30
0.0
 40
4.0
  1
±0.2
 50
337.0073361388
  7
SEACAD_arial_ttf
 11
422.8593848124
 21
297.4860161085
 31
0.0
100
AcDbText
 73
     3
  0
ENDBLK
  5
34A
330
340
100
AcDbEntity
  8
0
100
AcDbBlockEnd
  0
BLOCK
  5
355
330
34B
100
AcDbEntity
  8
0
100
AcDbBlockBegin
  2
GDimGGroup11
 70
     0
 71
     0
 10
0.0
 20
0.0
 30
0.0
  3
GDimGGroup11
  1

  0
HATCH
  5
34D
330
34B
100
AcDbEntity
  8
Default
  6
Continuous
 62
     7
 48
25.4
100
AcDbHatch
 10
0.0
 20
0.0
 30
0.0
210
0.0
220
0.0
230
1.0
  2
SOLID
 70
     1
 71
     0
 91
        1
 92
        1
 93
        3
 72
     1
 10
443.7787561736753
 20
402.6836673037857
 11
439.7787559836855
 21
402.0170006054541
 72
     1
 10
439.7787559836855
 20
402.0170006054541
 11
443.7787561736753
 21
401.3503339071224
 72
     1
 10
443.7787561736753
 20
401.3503339071224
 11
443.7787561736753
 21
402.6836673037857
 97
        0
 75
     0
 76
     1
 98
        0
  0
LWPOLYLINE
  5
34E
330
34B
100
AcDbEntity
  8
Default
  6
Continuous
 62
     7
 48
25.4
370
    20
100
AcDbPolyline
 90
        4
 70
     1
 43
0.00025
 10
443.7787561737
 20
402.6836673038
 10
439.7787559837
 20
402.0170006055
 10
443.7787561737
 20
401.3503339071
 10
443.7787561737
 20
402.6836673038
  0
HATCH
  5
34F
330
34B
100
AcDbEntity
  8
Default
  6
Continuous
 62
     7
 48
25.4
100
AcDbHatch
 10
0.0
 20
0.0
 30
0.0
210
0.0
220
0.0
230
1.0
  2
SOLID
 70
     1
 71
     0
 91
        1
 92
        1
 93
        3
 72
     1
 10
458.5287553317597
 20
402.6836673037857
 11
458.5287553317597
 21
401.3503339071224
 72
     1
 10
458.5287553317597
 20
401.3503339071224
 11
462.5287555217495
 21
402.0170006054541
 72
     1
 10
462.5287555217495
 20
402.0170006054541
 11
458.5287553317597
 21
402.6836673037857
 97
        0
 75
     0
 76
     1
 98
        0
  0
LWPOLYLINE
  5
350
330
34B
100
AcDbEntity
  8
Default
  6
Continuous
 62
     7
 48
25.4
370
    20
100
AcDbPolyline
 90
        4
 70
     1
 43
0.00025
 10
458.5287553318
 20
402.6836673038
 10
462.5287555217
 20
402.0170006055
 10
458.5287553318
 20
401.3503339071
 10
458.5287553318
 20
402.6836673038
  0
LINE
  5
351
330
34B
100
AcDbEntity
  8
Default
  6
Continuous
 62
     7
 48
25.4
100
AcDbLine
 10
439.7787559837
 20
388.5485367003
 30
0.0
 11
439.7787559837
 21
404.0170007004
 31
0.0
  0
LINE
  5
352
330
34B
100
AcDbEntity
  8
Default
  6
Continuous
 62
     7
 48
25.4
100
AcDbLine
 10
462.5287559837
 20
388.5485367003
 30
0.0
 11
462.5287559837
 21
404.0170007004
 31
0.0
  0
LINE
  5
353
330
34B
100
AcDbEntity
  8
Default
  6
Continuous
 62
     7
 48
25.4
100
AcDbLine
 10
439.7787559837
 20
402.0170006055
 30
0.0
 11
462.5287555217
 21
402.0170006055
 31
0.0
  0
TEXT
  5
354
330
34B
100
AcDbEntity
  8
Default
  6
Continuous
 62
     7
 48
25.4
100
AcDbText
 10
448.0233209701
 20
403.0170006055
 30
0.0
 40
4.0
  1
65
  7
SEACAD_arial_ttf
 11
448.0233209701
 21
407.0170006055
 31
0.0
100
AcDbText
 73
     3
  0
ENDBLK
  5
356
330
34B
100
AcDbEntity
  8
0
100
AcDbBlockEnd
  0
BLOCK
  5
361
330
357
100
AcDbEntity
  8
0
100
AcDbBlockBegin
  2
GDimGGroup12
 70
     0
 71
     0
 10
0.0
 20
0.0
 30
0.0
  3
GDimGGroup12
  1

  0
HATCH
  5
359
330
357
100
AcDbEntity
  8
Default
  6
Continuous
 62
     7
 48
25.4
100
AcDbHatch
 10
0.0
 20
0.0
 30
0.0
210
0.0
220
0.0
230
1.0
  2
SOLID
 70
     1
 71
     0
 91
        1
 92
        1
 93
        3
 72
     1
 10
288.5166021453314
 20
384.6595788856624
 11
287.8499354469998
 21
388.6595790756522
 72
     1
 10
287.8499354469998
 20
388.6595790756522
 11
287.1832687486681
 21
384.6595788856624
 72
     1
 10
287.1832687486681
 20
384.6595788856624
 11
288.5166021453314
 21
384.6595788856624
 97
        0
 75
     0
 76
     1
 98
        0
  0
LWPOLYLINE
  5
35A
330
357
100
AcDbEntity
  8
Default
  6
Continuous
 62
     7
 48
25.4
370
    20
100
AcDbPolyline
 90
        4
 70
     1
 43
0.00025
 10
288.5166021453
 20
384.6595788857
 10
287.849935447
 20
388.6595790757
 10
287.1832687487
 20
384.6595788857
 10
288.5166021453
 20
384.6595788857
  0
HATCH
  5
35B
330
357
100
AcDbEntity
  8
Default
  6
Continuous
 62
     7
 48
25.4
100
AcDbHatch
 10
0.0
 20
0.0
 30
0.0
210
0.0
220
0.0
230
1.0
  2
SOLID
 70
     1
 71
     0
 91
        1
 92
        1
 93
        3
 72
     1
 10
288.5166021453314
 20
378.6595788335083
 11
287.1832687486681
 21
378.6595788335083
 72
     1
 10
287.1832687486681
 20
378.6595788335083
 11
287.8499354469998
 21
374.6595786435185
 72
     1
 10
287.8499354469998
 20
374.6595786435185
 11
288.5166021453314
 21
378.6595788335083
 97
        0
 75
     0
 76
     1
 98
        0
  0
LWPOLYLINE
  5
35C
330
357
100
AcDbEntity
  8
Default
  6
Continuous
 62
     7
 48
25.4
370
    20
100
AcDbPolyline
 90
        4
 70
     1
 43
0.00025
 10
288.5166021453
 20
378.6595788335
 10
287.849935447
 20
374.6595786435
 10
287.1832687487
 20
378.6595788335
 10
288.5166021453
 20
378.6595788335
  0
LINE
  5
35D
330
357
100
AcDbEntity
  8
Default
  6
Continuous
 62
     7
 48
25.4
100
AcDbLine
 10
233.2697200823
 20
388.6595790757
 30
0.0
 11
289.849935542
 21
388.6595790757
 31
0.0
  0
LINE
  5
35E
330
357
100
AcDbEntity
  8
Default
  6
Continuous
 62
     7
 48
25.4
100
AcDbLine
 10
239.7986851756
 20
374.6595790757
 30
0.0
 11
289.849935542
 21
374.6595790757
 31
0.0
  0
LINE
  5
35F
330
357
100
AcDbEntity
  8
Default
  6
Continuous
 62
     7
 48
25.4
100
AcDbLine
 10
287.849935447
 20
388.6595790757
 30
0.0
 11
287.849935447
 21
374.6595786435
 31
0.0
  0
TEXT
  5
360
330
357
100
AcDbEntity
  8
Default
  6
Continuous
 62
     7
 48
25.4
100
AcDbText
 10
286.849935447
 20
378.529144077
 30
0.0
 40
4.0
  1
40
 50
90.0
  7
SEACAD_arial_ttf
 11
282.849935447
 21
378.529144077
 31
0.0
100
AcDbText
 73
     3
  0
ENDBLK
  5
362
330
357
100
AcDbEntity
  8
0
100
AcDbBlockEnd
  0
BLOCK
  5
36D
330
363
100
AcDbEntity
  8
0
100
AcDbBlockBegin
  2
GDimGGroup13
 70
     0
 71
     0
 10
0.0
 20
0.0
 30
0.0
  3
GDimGGroup13
  1

  0
HATCH
  5
365
330
363
100
AcDbEntity
  8
Default
  6
Continuous
 62
     7
 48
25.4
100
AcDbHatch
 10
0.0
 20
0.0
 30
0.0
210
0.0
220
0.0
230
1.0
  2
SOLID
 70
     1
 71
     0
 91
        1
 92
        1
 93
        3
 72
     1
 10
288.5166011097938
 20
370.6595788856624
 11
287.8499344114621
 21
374.6595790756522
 72
     1
 10
287.8499344114621
 20
374.6595790756522
 11
287.1832677131305
 21
370.6595788856624
 72
     1
 10
287.1832677131305
 20
370.6595788856624
 11
288.5166011097938
 21
370.6595788856624
 97
        0
 75
     0
 76
     1
 98
        0
  0
LWPOLYLINE
  5
366
330
363
100
AcDbEntity
  8
Default
  6
Continuous
 62
     7
 48
25.4
370
    20
100
AcDbPolyline
 90
        4
 70
     1
 43
0.00025
 10
288.5166011098
 20
370.6595788857
 10
287.8499344115
 20
374.6595790757
 10
287.1832677131
 20
370.6595788857
 10
288.5166011098
 20
370.6595788857
  0
HATCH
  5
367
330
363
100
AcDbEntity
  8
Default
  6
Continuous
 62
     7
 48
25.4
100
AcDbHatch
 10
0.0
 20
0.0
 30
0.0
210
0.0
220
0.0
230
1.0
  2
SOLID
 70
     1
 71
     0
 91
        1
 92
        1
 93
        3
 72
     1
 10
288.5166011097938
 20
357.659579548764
 11
287.1832677131305
 21
357.659579548764
 72
     1
 10
287.1832677131305
 20
357.659579548764
 11
287.8499344114621
 21
353.6595793587742
 72
     1
 10
287.8499344114621
 20
353.6595793587742
 11
288.5166011097938
 21
357.659579548764
 97
        0
 75
     0
 76
     1
 98
        0
  0
LWPOLYLINE
  5
368
330
363
100
AcDbEntity
  8
Default
  6
Continuous
 62
     7
 48
25.4
370
    20
100
AcDbPolyline
 90
        4
 70
     1
 43
0.00025
 10
288.5166011098
 20
357.6595795488
 10
287.8499344115
 20
353.6595793588
 10
287.1832677131
 20
357.6595795488
 10
288.5166011098
 20
357.6595795488
  0
LINE
  5
369
330
363
100
AcDbEntity
  8
Default
  6
Continuous
 62
     7
 48
25.4
100
AcDbLine
 10
239.7986851756
 20
374.6595790757
 30
0.0
 11
289.8499345065
 21
374.6595790757
 31
0.0
  0
LINE
  5
36A
330
363
100
AcDbEntity
  8
Default
  6
Continuous
 62
     7
 48
25.4
100
AcDbLine
 10
238.8465926381
 20
353.6595790757
 30
0.0
 11
289.8499345065
 21
353.6595790757
 31
0.0
  0
LINE
  5
36B
330
363
100
AcDbEntity
  8
Default
  6
Continuous
 62
     7
 48
25.4
100
AcDbLine
 10
287.8499344115
 20
374.6595790757
 30
0.0
 11
287.8499344115
 21
353.6595793588
 31
0.0
  0
TEXT
  5
36C
330
363
100
AcDbEntity
  8
Default
  6
Continuous
 62
     7
 48
25.4
100
AcDbText
 10
286.8499344115
 20
361.0291444346
 30
0.0
 40
4.0
  1
60
 50
90.0
  7
SEACAD_arial_ttf
 11
282.8499344115
 21
361.0291444346
 31
0.0
100
AcDbText
 73
     3
  0
ENDBLK
  5
36E
330
363
100
AcDbEntity
  8
0
100
AcDbBlockEnd
  0
BLOCK
  5
379
330
36F
100
AcDbEntity
  8
0
100
AcDbBlockBegin
  2
GDimGGroup14
 70
     0
 71
     0
 10
0.0
 20
0.0
 30
0.0
  3
GDimGGroup14
  1

  0
HATCH
  5
371
330
36F
100
AcDbEntity
  8
Default
  6
Continuous
 62
     7
 48
25.4
100
AcDbHatch
 10
0.0
 20
0.0
 30
0.0
210
0.0
220
0.0
230
1.0
  2
SOLID
 70
     1
 71
     0
 91
        1
 92
        1
 93
        3
 72
     1
 10
288.5166033656388
 20
349.6595788856624
 11
287.8499366673071
 21
353.6595790756522
 72
     1
 10
287.8499366673071
 20
353.6595790756522
 11
287.1832699689755
 21
349.6595788856624
 72
     1
 10
287.1832699689755
 20
349.6595788856624
 11
288.5166033656388
 21
349.6595788856624
 97
        0
 75
     0
 76
     1
 98
        0
  0
LWPOLYLINE
  5
372
330
36F
100
AcDbEntity
  8
Default
  6
Continuous
 62
     7
 48
25.4
370
    20
100
AcDbPolyline
 90
        4
 70
     1
 43
0.00025
 10
288.5166033656
 20
349.6595788857
 10
287.8499366673
 20
353.6595790757
 10
287.183269969
 20
349.6595788857
 10
288.5166033656
 20
349.6595788857
  0
HATCH
  5
373
330
36F
100
AcDbEntity
  8
Default
  6
Continuous
 62
     7
 48
25.4
100
AcDbHatch
 10
0.0
 20
0.0
 30
0.0
210
0.0
220
0.0
230
1.0
  2
SOLID
 70
     1
 71
     0
 91
        1
 92
        1
 93
        3
 72
     1
 10
288.5166033656388
 20
329.6595784013746
 11
287.1832699689755
 21
329.6595784013746
 72
     1
 10
287.1832699689755
 20
329.6595784013746
 11
287.8499366673071
 21
325.6595782113848
 72
     1
 10
287.8499366673071
 20
325.6595782113848
 11
288.5166033656388
 21
329.6595784013746
 97
        0
 75
     0
 76
     1
 98
        0
  0
LWPOLYLINE
  5
374
330
36F
100
AcDbEntity
  8
Default
  6
Continuous
 62
     7
 48
25.4
370
    20
100
AcDbPolyline
 90
        4
 70
     1
 43
0.00025
 10
288.5166033656
 20
329.6595784014
 10
287.8499366673
 20
325.6595782114
 10
287.183269969
 20
329.6595784014
 10
288.5166033656
 20
329.6595784014
  0
LINE
  5
375
330
36F
100
AcDbEntity
  8
Default
  6
Continuous
 62
     7
 48
25.4
100
AcDbLine
 10
238.8465926381
 20
353.6595790757
 30
0.0
 11
289.8499367623
 21
353.6595790757
 31
0.0
  0
LINE
  5
376
330
36F
100
AcDbEntity
  8
Default
  6
Continuous
 62
     7
 48
25.4
100
AcDbLine
 10
233.2697200823
 20
325.6595790757
 30
0.0
 11
289.8499367623
 21
325.6595790757
 31
0.0
  0
LINE
  5
377
330
36F
100
AcDbEntity
  8
Default
  6
Continuous
 62
     7
 48
25.4
100
AcDbLine
 10
287.8499366673
 20
353.6595790757
 30
0.0
 11
287.8499366673
 21
325.6595782114
 31
0.0
  0
TEXT
  5
378
330
36F
100
AcDbEntity
  8
Default
  6
Continuous
 62
     7
 48
25.4
100
AcDbText
 10
286.8499366673
 20
336.5291438609
 30
0.0
 40
4.0
  1
80
 50
90.0
  7
SEACAD_arial_ttf
 11
282.8499366673
 21
336.5291438609
 31
0.0
100
AcDbText
 73
     3
  0
ENDBLK
  5
37A
330
36F
100
AcDbEntity
  8
0
100
AcDbBlockEnd
  0
BLOCK
  5
385
330
37B
100
AcDbEntity
  8
0
100
AcDbBlockBegin
  2
GDimGGroup15
 70
     0
 71
     0
 10
0.0
 20
0.0
 30
0.0
  3
GDimGGroup15
  1

  0
HATCH
  5
37D
330
37B
100
AcDbEntity
  8
Default
  6
Continuous
 62
     7
 48
25.4
100
AcDbHatch
 10
0.0
 20
0.0
 30
0.0
210
0.0
220
0.0
230
1.0
  2
SOLID
 70
     1
 71
     0
 91
        1
 92
        1
 93
        3
 72
     1
 10
229.2697198923154
 20
400.975618761433
 11
229.2697198923154
 21
399.6422853647697
 72
     1
 10
229.2697198923154
 20
399.6422853647697
 11
233.2697200823052
 21
400.3089520631013
 72
     1
 10
233.2697200823052
 20
400.3089520631013
 11
229.2697198923154
 21
400.975618761433
 97
        0
 75
     0
 76
     1
 98
        0
  0
LWPOLYLINE
  5
37E
330
37B
100
AcDbEntity
  8
Default
  6
Continuous
 62
     7
 48
25.4
370
    20
100
AcDbPolyline
 90
        4
 70
     1
 43
0.00025
 10
229.2697198923
 20
400.9756187614
 10
233.2697200823
 20
400.3089520631
 10
229.2697198923
 20
399.6422853648
 10
229.2697198923
 20
400.9756187614
  0
HATCH
  5
37F
330
37B
100
AcDbEntity
  8
Default
  6
Continuous
 62
     7
 48
25.4
100
AcDbHatch
 10
0.0
 20
0.0
 30
0.0
210
0.0
220
0.0
230
1.0
  2
SOLID
 70
     1
 71
     0
 91
        1
 92
        1
 93
        3
 72
     1
 10
211.7197199027462
 20
400.975618761433
 11
207.7197197127564
 21
400.3089520631013
 72
     1
 10
207.7197197127564
 20
400.3089520631013
 11
211.7197199027462
 21
399.6422853647697
 72
     1
 10
211.7197199027462
 20
399.6422853647697
 11
211.7197199027462
 21
400.975618761433
 97
        0
 75
     0
 76
     1
 98
        0
  0
LWPOLYLINE
  5
380
330
37B
100
AcDbEntity
  8
Default
  6
Continuous
 62
     7
 48
25.4
370
    20
100
AcDbPolyline
 90
        4
 70
     1
 43
0.00025
 10
211.7197199027
 20
400.9756187614
 10
207.7197197128
 20
400.3089520631
 10
211.7197199027
 20
399.6422853648
 10
211.7197199027
 20
400.9756187614
  0
LINE
  5
381
330
37B
100
AcDbEntity
  8
Default
  6
Continuous
 62
     7
 48
25.4
100
AcDbLine
 10
233.2697200823
 20
388.6595790757
 30
0.0
 11
233.2697200823
 21
402.3089521581
 31
0.0
  0
LINE
  5
382
330
37B
100
AcDbEntity
  8
Default
  6
Continuous
 62
     7
 48
25.4
100
AcDbLine
 10
207.7197200823
 20
385.8595790757
 30
0.0
 11
207.7197200823
 21
402.3089521581
 31
0.0
  0
LINE
  5
383
330
37B
100
AcDbEntity
  8
Default
  6
Continuous
 62
     7
 48
25.4
100
AcDbLine
 10
233.2697200823
 20
400.3089520631
 30
0.0
 11
207.7197197128
 21
400.3089520631
 31
0.0
  0
TEXT
  5
384
330
37B
100
AcDbEntity
  8
Default
  6
Continuous
 62
     7
 48
25.4
100
AcDbText
 10
217.3642851149
 20
401.3089520631
 30
0.0
 40
4.0
  1
73
  7
SEACAD_arial_ttf
 11
217.3642851149
 21
405.3089520631
 31
0.0
100
AcDbText
 73
     3
  0
ENDBLK
  5
386
330
37B
100
AcDbEntity
  8
0
100
AcDbBlockEnd
  0
BLOCK
  5
393
330
387
100
AcDbEntity
  8
0
100
AcDbBlockBegin
  2
GDimGGroup16
 70
     0
 71
     0
 10
0.0
 20
0.0
 30
0.0
  3
GDimGGroup16
  1

  0
HATCH
  5
389
330
387
100
AcDbEntity
  8
Default
  6
Continuous
 62
     7
 48
25.4
100
AcDbHatch
 10
0.0
 20
0.0
 30
0.0
210
0.0
220
0.0
230
1.0
  2
SOLID
 70
     1
 71
     0
 91
        1
 92
        1
 93
        3
 72
     1
 10
265.3408449644457
 20
284.159579265642
 11
264.0075115677824
 21
284.159579265642
 72
     1
 10
264.0075115677824
 20
284.159579265642
 11
264.674178266114
 21
280.1595790756522
 72
     1
 10
264.674178266114
 20
280.1595790756522
 11
265.3408449644457
 21
284.159579265642
 97
        0
 75
     0
 76
     1
 98
        0
  0
LWPOLYLINE
  5
38A
330
387
100
AcDbEntity
  8
Default
  6
Continuous
 62
     7
 48
25.4
370
    20
100
AcDbPolyline
 90
        4
 70
     1
 43
0.00025
 10
265.3408449644
 20
284.1595792656
 10
264.6741782661
 20
280.1595790757
 10
264.0075115678
 20
284.1595792656
 10
265.3408449644
 20
284.1595792656
  0
HATCH
  5
38B
330
387
100
AcDbEntity
  8
Default
  6
Continuous
 62
     7
 48
25.4
100
AcDbHatch
 10
0.0
 20
0.0
 30
0.0
210
0.0
220
0.0
230
1.0
  2
SOLID
 70
     1
 71
     0
 91
        1
 92
        1
 93
        3
 72
     1
 10
265.3408449644457
 20
313.9595780035136
 11
264.674178266114
 21
317.9595781935034
 72
     1
 10
264.674178266114
 20
317.9595781935034
 11
264.0075115677824
 21
313.9595780035136
 72
     1
 10
264.0075115677824
 20
313.9595780035136
 11
265.3408449644457
 21
313.9595780035136
 97
        0
 75
     0
 76
     1
 98
        0
  0
LWPOLYLINE
  5
38C
330
387
100
AcDbEntity
  8
Default
  6
Continuous
 62
     7
 48
25.4
370
    20
100
AcDbPolyline
 90
        4
 70
     1
 43
0.00025
 10
265.3408449644
 20
313.9595780035
 10
264.6741782661
 20
317.9595781935
 10
264.0075115678
 20
313.9595780035
 10
265.3408449644
 20
313.9595780035
  0
LINE
  5
38D
330
387
100
AcDbEntity
  8
Default
  6
Continuous
 62
     7
 48
25.4
100
AcDbLine
 10
226.7774259086
 20
280.1595790757
 30
0.0
 11
266.6741783611
 21
280.1595790757
 31
0.0
  0
LINE
  5
38E
330
387
100
AcDbEntity
  8
Default
  6
Continuous
 62
     7
 48
25.4
100
AcDbLine
 10
204.2197200823
 20
317.9595790757
 30
0.0
 11
266.6741783611
 21
317.9595790757
 31
0.0
  0
LINE
  5
38F
330
387
100
AcDbEntity
  8
Default
  6
Continuous
 62
     7
 48
25.4
100
AcDbLine
 10
264.6741782661
 20
280.1595790757
 30
0.0
 11
264.6741782661
 21
317.9595781935
 31
0.0
  0
TEXT
  5
390
330
387
100
AcDbEntity
  8
Default
  6
Continuous
 62
     7
 48
25.4
100
AcDbText
 10
257.6741782661
 20
301.7204481998
 30
0.0
 40
4.0
  1
108
 50
90.0
  7
SEACAD_arial_ttf
 11
253.6741782661
 21
301.7204481998
 31
0.0
100
AcDbText
 73
     3
  0
TEXT
  5
391
330
387
100
AcDbEntity
  8
Default
  6
Continuous
 62
     7
 48
25.4
100
AcDbText
 10
257.6741782661
 20
287.0074047215
 30
0.0
 40
4.0
  1
MAX
 50
90.0
  7
SEACAD_arial_ttf
 11
253.6741782661
 21
287.0074047215
 31
0.0
100
AcDbText
 73
     3
  0
TEXT
  5
392
330
387
100
AcDbEntity
  8
Default
  6
Continuous
 62
     7
 48
25.4
100
AcDbText
 10
263.6741782661
 20
287.0074047215
 30
0.0
 40
4.0
  1
MIN 102.7
 50
90.0
  7
SEACAD_arial_ttf
 11
259.6741782661
 21
287.0074047215
 31
0.0
100
AcDbText
 73
     3
  0
ENDBLK
  5
394
330
387
100
AcDbEntity
  8
0
100
AcDbBlockEnd
  0
BLOCK
  5
3A1
330
395
100
AcDbEntity
  8
0
100
AcDbBlockBegin
  2
GDimGGroup17
 70
     0
 71
     0
 10
0.0
 20
0.0
 30
0.0
  3
GDimGGroup17
  1

  0
HATCH
  5
397
330
395
100
AcDbEntity
  8
Default
  6
Continuous
 62
     7
 48
25.4
100
AcDbHatch
 10
0.0
 20
0.0
 30
0.0
210
0.0
220
0.0
230
1.0
  2
SOLID
 70
     1
 71
     0
 91
        1
 92
        1
 93
        3
 72
     1
 10
265.3408447789126
 20
321.959579265642
 11
264.0075113822493
 21
321.959579265642
 72
     1
 10
264.0075113822493
 20
321.959579265642
 11
264.674178080581
 21
317.9595790756522
 72
     1
 10
264.674178080581
 20
317.9595790756522
 11
265.3408447789126
 21
321.959579265642
 97
        0
 75
     0
 76
     1
 98
        0
  0
LWPOLYLINE
  5
398
330
395
100
AcDbEntity
  8
Default
  6
Continuous
 62
     7
 48
25.4
370
    20
100
AcDbPolyline
 90
        4
 70
     1
 43
0.00025
 10
265.3408447789
 20
321.9595792656
 10
264.6741780806
 20
317.9595790757
 10
264.0075113822
 20
321.9595792656
 10
265.3408447789
 20
321.9595792656
  0
HATCH
  5
399
330
395
100
AcDbEntity
  8
Default
  6
Continuous
 62
     7
 48
25.4
100
AcDbHatch
 10
0.0
 20
0.0
 30
0.0
210
0.0
220
0.0
230
1.0
  2
SOLID
 70
     1
 71
     0
 91
        1
 92
        1
 93
        3
 72
     1
 10
265.3408447789126
 20
349.6595797082065
 11
264.674178080581
 21
353.6595798981963
 72
     1
 10
264.674178080581
 20
353.6595798981963
 11
264.0075113822493
 21
349.6595797082065
 72
     1
 10
264.0075113822493
 20
349.6595797082065
 11
265.3408447789126
 21
349.6595797082065
 97
        0
 75
     0
 76
     1
 98
        0
  0
LWPOLYLINE
  5
39A
330
395
100
AcDbEntity
  8
Default
  6
Continuous
 62
     7
 48
25.4
370
    20
100
AcDbPolyline
 90
        4
 70
     1
 43
0.00025
 10
265.3408447789
 20
349.6595797082
 10
264.6741780806
 20
353.6595798982
 10
264.0075113822
 20
349.6595797082
 10
265.3408447789
 20
349.6595797082
  0
LINE
  5
39B
330
395
100
AcDbEntity
  8
Default
  6
Continuous
 62
     7
 48
25.4
100
AcDbLine
 10
204.2197200823
 20
317.9595790757
 30
0.0
 11
266.6741781756
 21
317.9595790757
 31
0.0
  0
LINE
  5
39C
330
395
100
AcDbEntity
  8
Default
  6
Continuous
 62
     7
 48
25.4
100
AcDbLine
 10
238.8465926381
 20
353.6595790757
 30
0.0
 11
266.6741781756
 21
353.6595790757
 31
0.0
  0
LINE
  5
39D
330
395
100
AcDbEntity
  8
Default
  6
Continuous
 62
     7
 48
25.4
100
AcDbLine
 10
264.6741780806
 20
317.9595790757
 30
0.0
 11
264.6741780806
 21
353.6595798982
 31
0.0
  0
TEXT
  5
39E
330
395
100
AcDbEntity
  8
Default
  6
Continuous
 62
     7
 48
25.4
100
AcDbText
 10
257.6741780806
 20
339.1642349496
 30
0.0
 40
4.0
  1
117.5
 50
90.0
  7
SEACAD_arial_ttf
 11
253.6741780806
 21
339.1642349496
 31
0.0
100
AcDbText
 73
     3
  0
TEXT
  5
39F
330
395
100
AcDbEntity
  8
Default
  6
Continuous
 62
     7
 48
25.4
100
AcDbText
 10
257.6741780806
 20
324.4511914713
 30
0.0
 40
4.0
  1
MAX
 50
90.0
  7
SEACAD_arial_ttf
 11
253.6741780806
 21
324.4511914713
 31
0.0
100
AcDbText
 73
     3
  0
TEXT
  5
3A0
330
395
100
AcDbEntity
  8
Default
  6
Continuous
 62
     7
 48
25.4
100
AcDbText
 10
263.6741780806
 20
324.4511914713
 30
0.0
 40
4.0
  1
MIN 21.5
 50
90.0
  7
SEACAD_arial_ttf
 11
259.6741780806
 21
324.4511914713
 31
0.0
100
AcDbText
 73
     3
  0
ENDBLK
  5
3A2
330
395
100
AcDbEntity
  8
0
100
AcDbBlockEnd
  0
BLOCK
  5
3AE
330
3A3
100
AcDbEntity
  8
0
100
AcDbBlockBegin
  2
GDimGGroup18
 70
     0
 71
     0
 10
0.0
 20
0.0
 30
0.0
  3
GDimGGroup18
  1

  0
HATCH
  5
3A5
330
3A3
100
AcDbEntity
  8
Default
  6
Continuous
 62
     7
 48
25.4
100
AcDbHatch
 10
0.0
 20
0.0
 30
0.0
210
0.0
220
0.0
230
1.0
  2
SOLID
 70
     1
 71
     0
 91
        1
 92
        1
 93
        3
 72
     1
 10
28.23409352794023
 20
382.9095788856624
 11
29.5674269246035
 21
382.9095788856624
 72
     1
 10
29.5674269246035
 20
382.9095788856624
 11
28.90076022627186
 21
386.9095790756522
 72
     1
 10
28.90076022627186
 20
386.9095790756522
 11
28.23409352794023
 21
382.9095788856624
 97
        0
 75
     0
 76
     1
 98
        0
  0
LWPOLYLINE
  5
3A6
330
3A3
100
AcDbEntity
  8
Default
  6
Continuous
 62
     7
 48
25.4
370
    20
100
AcDbPolyline
 90
        4
 70
     1
 43
0.00025
 10
28.2340935279
 20
382.9095788857
 10
28.9007602263
 20
386.9095790757
 10
29.5674269246
 20
382.9095788857
 10
28.2340935279
 20
382.9095788857
  0
HATCH
  5
3A7
330
3A3
100
AcDbEntity
  8
Default
  6
Continuous
 62
     7
 48
25.4
100
AcDbHatch
 10
0.0
 20
0.0
 30
0.0
210
0.0
220
0.0
230
1.0
  2
SOLID
 70
     1
 71
     0
 91
        1
 92
        1
 93
        3
 72
     1
 10
28.23409352794023
 20
177.4095861797808
 11
28.90076022627186
 21
173.4095859897909
 72
     1
 10
28.90076022627186
 20
173.4095859897909
 11
29.5674269246035
 21
177.4095861797808
 72
     1
 10
29.5674269246035
 20
177.4095861797808
 11
28.23409352794023
 21
177.4095861797808
 97
        0
 75
     0
 76
     1
 98
        0
  0
LWPOLYLINE
  5
3A8
330
3A3
100
AcDbEntity
  8
Default
  6
Continuous
 62
     7
 48
25.4
370
    20
100
AcDbPolyline
 90
        4
 70
     1
 43
0.00025
 10
28.2340935279
 20
177.4095861798
 10
28.9007602263
 20
173.4095859898
 10
29.5674269246
 20
177.4095861798
 10
28.2340935279
 20
177.4095861798
  0
LINE
  5
3A9
330
3A3
100
AcDbEntity
  8
Default
  6
Continuous
 62
     7
 48
25.4
100
AcDbLine
 10
155.5697200823
 20
386.9095790757
 30
0.0
 11
26.9007601313
 21
386.9095790757
 31
0.0
  0
LINE
  5
3AA
330
3A3
100
AcDbEntity
  8
Default
  6
Continuous
 62
     7
 48
25.4
100
AcDbLine
 10
155.5697200823
 20
173.4095790757
 30
0.0
 11
26.9007601313
 21
173.4095790757
 31
0.0
  0
LINE
  5
3AB
330
3A3
100
AcDbEntity
  8
Default
  6
Continuous
 62
     7
 48
25.4
100
AcDbLine
 10
28.9007602263
 20
386.9095790757
 30
0.0
 11
28.9007602263
 21
173.4095859898
 31
0.0
  0
TEXT
  5
3AC
330
3A3
100
AcDbEntity
  8
Default
  6
Continuous
 62
     7
 48
25.4
100
AcDbText
 10
27.9007602263
 20
279.1446321132
 30
0.0
 40
4.0
  1
610
 50
90.0
  7
SEACAD_arial_ttf
 11
23.9007602263
 21
279.1446321132
 31
0.0
100
AcDbText
 73
     3
  0
TEXT
  5
3AD
330
3A3
100
AcDbEntity
  8
Default
  6
Continuous
 62
     7
 48
25.4
100
AcDbText
 10
27.9007602263
 20
271.7832286044
 30
0.0
 40
4.0
  1
O
 50
90.0
  7
SEACAD_semeca1_ttf
 11
23.9007602263
 21
271.7832286044
 31
0.0
100
AcDbText
 73
     3
  0
ENDBLK
  5
3AF
330
3A3
100
AcDbEntity
  8
0
100
AcDbBlockEnd
  0
BLOCK
  5
3BC
330
3B0
100
AcDbEntity
  8
0
100
AcDbBlockBegin
  2
GDimGGroup19
 70
     0
 71
     0
 10
0.0
 20
0.0
 30
0.0
  3
GDimGGroup19
  1

  0
HATCH
  5
3B2
330
3B0
100
AcDbEntity
  8
Default
  6
Continuous
 62
     7
 48
25.4
100
AcDbHatch
 10
0.0
 20
0.0
 30
0.0
210
0.0
220
0.0
230
1.0
  2
SOLID
 70
     1
 71
     0
 91
        1
 92
        1
 93
        3
 72
     1
 10
52.61879410043093
 20
217.659579265642
 11
53.28546079876256
 21
213.6595790756522
 72
     1
 10
53.28546079876256
 20
213.6595790756522
 11
53.9521274970942
 21
217.659579265642
 72
     1
 10
53.9521274970942
 20
217.659579265642
 11
52.61879410043093
 21
217.659579265642
 97
        0
 75
     0
 76
     1
 98
        0
  0
LWPOLYLINE
  5
3B3
330
3B0
100
AcDbEntity
  8
Default
  6
Continuous
 62
     7
 48
25.4
370
    20
100
AcDbPolyline
 90
        4
 70
     1
 43
0.00025
 10
52.6187941004
 20
217.6595792656
 10
53.2854607988
 20
213.6595790757
 10
53.9521274971
 20
217.6595792656
 10
52.6187941004
 20
217.6595792656
  0
HATCH
  5
3B4
330
3B0
100
AcDbEntity
  8
Default
  6
Continuous
 62
     7
 48
25.4
100
AcDbHatch
 10
0.0
 20
0.0
 30
0.0
210
0.0
220
0.0
230
1.0
  2
SOLID
 70
     1
 71
     0
 91
        1
 92
        1
 93
        3
 72
     1
 10
52.61879410043093
 20
342.6595801969646
 11
53.9521274970942
 21
342.6595801969646
 72
     1
 10
53.9521274970942
 20
342.6595801969646
 11
53.28546079876256
 21
346.6595803869544
 72
     1
 10
53.28546079876256
 20
346.6595803869544
 11
52.61879410043093
 21
342.6595801969646
 97
        0
 75
     0
 76
     1
 98
        0
  0
LWPOLYLINE
  5
3B5
330
3B0
100
AcDbEntity
  8
Default
  6
Continuous
 62
     7
 48
25.4
370
    20
100
AcDbPolyline
 90
        4
 70
     1
 43
0.00025
 10
52.6187941004
 20
342.659580197
 10
53.2854607988
 20
346.659580387
 10
53.9521274971
 20
342.659580197
 10
52.6187941004
 20
342.659580197
  0
LINE
  5
3B6
330
3B0
100
AcDbEntity
  8
Default
  6
Continuous
 62
     7
 48
25.4
100
AcDbLine
 10
148.9197200823
 20
213.6595790757
 30
0.0
 11
51.2854607038
 21
213.6595790757
 31
0.0
  0
LINE
  5
3B7
330
3B0
100
AcDbEntity
  8
Default
  6
Continuous
 62
     7
 48
25.4
100
AcDbLine
 10
148.9197200823
 20
346.6595790757
 30
0.0
 11
51.2854607038
 21
346.6595790757
 31
0.0
  0
LINE
  5
3B8
330
3B0
100
AcDbEntity
  8
Default
  6
Continuous
 62
     7
 48
25.4
100
AcDbLine
 10
53.2854607988
 20
213.6595790757
 30
0.0
 11
53.2854607988
 21
346.659580387
 31
0.0
  0
TEXT
  5
3B9
330
3B0
100
AcDbEntity
  8
Default
  6
Continuous
 62
     7
 48
25.4
100
AcDbText
 10
52.2854607988
 20
274.3794119205
 30
0.0
 40
4.0
  1
380
 50
90.0
  7
SEACAD_arial_ttf
 11
48.2854607988
 21
274.3794119205
 31
0.0
100
AcDbText
 73
     3
  0
TEXT
  5
3BA
330
3B0
100
AcDbEntity
  8
Default
  6
Continuous
 62
     7
 48
25.4
100
AcDbText
 10
52.2854607988
 20
286.1707162683
 30
0.0
 40
4.0
  1
H6
 50
90.0
  7
SEACAD_arial_ttf
 11
48.2854607988
 21
286.1707162683
 31
0.0
100
AcDbText
 73
     3
  0
TEXT
  5
3BB
330
3B0
100
AcDbEntity
  8
Default
  6
Continuous
 62
     7
 48
25.4
100
AcDbText
 10
52.2854607988
 20
267.0180084117
 30
0.0
 40
4.0
  1
O
 50
90.0
  7
SEACAD_semeca1_ttf
 11
48.2854607988
 21
267.0180084117
 31
0.0
100
AcDbText
 73
     3
  0
ENDBLK
  5
3BD
330
3B0
100
AcDbEntity
  8
0
100
AcDbBlockEnd
  0
BLOCK
  5
3C9
330
3BE
100
AcDbEntity
  8
0
100
AcDbBlockBegin
  2
GDimGGroup20
 70
     0
 71
     0
 10
0.0
 20
0.0
 30
0.0
  3
GDimGGroup20
  1

  0
HATCH
  5
3C0
330
3BE
100
AcDbEntity
  8
Default
  6
Continuous
 62
     7
 48
25.4
100
AcDbHatch
 10
0.0
 20
0.0
 30
0.0
210
0.0
220
0.0
230
1.0
  2
SOLID
 70
     1
 71
     0
 91
        1
 92
        1
 93
        3
 72
     1
 10
116.4416388441596
 20
270.159579265642
 11
117.1083055424912
 21
266.1595790756522
 72
     1
 10
117.1083055424912
 20
266.1595790756522
 11
117.7749722408229
 21
270.159579265642
 72
     1
 10
117.7749722408229
 20
270.159579265642
 11
116.4416388441596
 21
270.159579265642
 97
        0
 75
     0
 76
     1
 98
        0
  0
LWPOLYLINE
  5
3C1
330
3BE
100
AcDbEntity
  8
Default
  6
Continuous
 62
     7
 48
25.4
370
    20
100
AcDbPolyline
 90
        4
 70
     1
 43
0.00025
 10
116.4416388442
 20
270.1595792656
 10
117.1083055425
 20
266.1595790757
 10
117.7749722408
 20
270.1595792656
 10
116.4416388442
 20
270.1595792656
  0
HATCH
  5
3C2
330
3BE
100
AcDbEntity
  8
Default
  6
Continuous
 62
     7
 48
25.4
100
AcDbHatch
 10
0.0
 20
0.0
 30
0.0
210
0.0
220
0.0
230
1.0
  2
SOLID
 70
     1
 71
     0
 91
        1
 92
        1
 93
        3
 72
     1
 10
116.4416388441596
 20
290.1595797499297
 11
117.7749722408229
 21
290.1595797499297
 72
     1
 10
117.7749722408229
 20
290.1595797499297
 11
117.1083055424912
 21
294.1595799399195
 72
     1
 10
117.1083055424912
 20
294.1595799399195
 11
116.4416388441596
 21
290.1595797499297
 97
        0
 75
     0
 76
     1
 98
        0
  0
LWPOLYLINE
  5
3C3
330
3BE
100
AcDbEntity
  8
Default
  6
Continuous
 62
     7
 48
25.4
370
    20
100
AcDbPolyline
 90
        4
 70
     1
 43
0.00025
 10
116.4416388442
 20
290.1595797499
 10
117.1083055425
 20
294.1595799399
 10
117.7749722408
 20
290.1595797499
 10
116.4416388442
 20
290.1595797499
  0
LINE
  5
3C4
330
3BE
100
AcDbEntity
  8
Default
  6
Continuous
 62
     7
 48
25.4
100
AcDbLine
 10
164.6697200823
 20
266.1595790757
 30
0.0
 11
115.1083054475
 21
266.1595790757
 31
0.0
  0
LINE
  5
3C5
330
3BE
100
AcDbEntity
  8
Default
  6
Continuous
 62
     7
 48
25.4
100
AcDbLine
 10
164.6697200823
 20
294.1595790757
 30
0.0
 11
115.1083054475
 21
294.1595790757
 31
0.0
  0
LINE
  5
3C6
330
3BE
100
AcDbEntity
  8
Default
  6
Continuous
 62
     7
 48
25.4
100
AcDbLine
 10
117.1083055425
 20
266.1595790757
 30
0.0
 11
117.1083055425
 21
294.1595799399
 31
0.0
  0
TEXT
  5
3C7
330
3BE
100
AcDbEntity
  8
Default
  6
Continuous
 62
     7
 48
25.4
100
AcDbText
 10
116.1083055425
 20
280.7098464796
 30
0.0
 40
4.0
  1
80
 50
90.0
  7
SEACAD_arial_ttf
 11
112.1083055425
 21
280.7098464796
 31
0.0
100
AcDbText
 73
     3
  0
TEXT
  5
3C8
330
3BE
100
AcDbEntity
  8
Default
  6
Continuous
 62
     7
 48
25.4
100
AcDbText
 10
116.1083055425
 20
273.3484429708
 30
0.0
 40
4.0
  1
O
 50
90.0
  7
SEACAD_semeca1_ttf
 11
112.1083055425
 21
273.3484429708
 31
0.0
100
AcDbText
 73
     3
  0
ENDBLK
  5
3CA
330
3BE
100
AcDbEntity
  8
0
100
AcDbBlockEnd
  0
BLOCK
  5
3D6
330
3CB
100
AcDbEntity
  8
0
100
AcDbBlockBegin
  2
GDimGGroup21
 70
     0
 71
     0
 10
0.0
 20
0.0
 30
0.0
  3
GDimGGroup21
  1

  0
HATCH
  5
3CD
330
3CB
100
AcDbEntity
  8
Default
  6
Continuous
 62
     7
 48
25.4
100
AcDbHatch
 10
0.0
 20
0.0
 30
0.0
210
0.0
220
0.0
230
1.0
  2
SOLID
 70
     1
 71
     0
 91
        1
 92
        1
 93
        3
 72
     1
 10
97.64722675576542
 20
251.434579265642
 11
98.31389345409706
 21
247.4345790756522
 72
     1
 10
98.31389345409706
 20
247.4345790756522
 11
98.98056015242869
 21
251.434579265642
 72
     1
 10
98.98056015242869
 20
251.434579265642
 11
97.64722675576542
 21
251.434579265642
 97
        0
 75
     0
 76
     1
 98
        0
  0
LWPOLYLINE
  5
3CE
330
3CB
100
AcDbEntity
  8
Default
  6
Continuous
 62
     7
 48
25.4
370
    20
100
AcDbPolyline
 90
        4
 70
     1
 43
0.00025
 10
97.6472267558
 20
251.4345792656
 10
98.3138934541
 20
247.4345790757
 10
98.9805601524
 20
251.4345792656
 10
97.6472267558
 20
251.4345792656
  0
HATCH
  5
3CF
330
3CB
100
AcDbEntity
  8
Default
  6
Continuous
 62
     7
 48
25.4
100
AcDbHatch
 10
0.0
 20
0.0
 30
0.0
210
0.0
220
0.0
230
1.0
  2
SOLID
 70
     1
 71
     0
 91
        1
 92
        1
 93
        3
 72
     1
 10
97.64722675576542
 20
308.8845766683696
 11
98.98056015242869
 21
308.8845766683696
 72
     1
 10
98.98056015242869
 20
308.8845766683696
 11
98.31389345409706
 21
312.8845768583594
 72
     1
 10
98.31389345409706
 20
312.8845768583594
 11
97.64722675576542
 21
308.8845766683696
 97
        0
 75
     0
 76
     1
 98
        0
  0
LWPOLYLINE
  5
3D0
330
3CB
100
AcDbEntity
  8
Default
  6
Continuous
 62
     7
 48
25.4
370
    20
100
AcDbPolyline
 90
        4
 70
     1
 43
0.00025
 10
97.6472267558
 20
308.8845766684
 10
98.3138934541
 20
312.8845768584
 10
98.9805601524
 20
308.8845766684
 10
97.6472267558
 20
308.8845766684
  0
LINE
  5
3D1
330
3CB
100
AcDbEntity
  8
Default
  6
Continuous
 62
     7
 48
25.4
100
AcDbLine
 10
164.6697197873
 20
247.4345790757
 30
0.0
 11
96.3138933591
 21
247.4345790757
 31
0.0
  0
LINE
  5
3D2
330
3CB
100
AcDbEntity
  8
Default
  6
Continuous
 62
     7
 48
25.4
100
AcDbLine
 10
172.7197200823
 20
312.8845790757
 30
0.0
 11
96.3138933591
 21
312.8845790757
 31
0.0
  0
LINE
  5
3D3
330
3CB
100
AcDbEntity
  8
Default
  6
Continuous
 62
     7
 48
25.4
100
AcDbLine
 10
98.3138934541
 20
247.4345790757
 30
0.0
 11
98.3138934541
 21
312.8845768584
 31
0.0
  0
TEXT
  5
3D4
330
3CB
100
AcDbEntity
  8
Default
  6
Continuous
 62
     7
 48
25.4
100
AcDbText
 10
97.3138934541
 20
279.1446275475
 30
0.0
 40
4.0
  1
187
 50
90.0
  7
SEACAD_arial_ttf
 11
93.3138934541
 21
279.1446275475
 31
0.0
100
AcDbText
 73
     3
  0
TEXT
  5
3D5
330
3CB
100
AcDbEntity
  8
Default
  6
Continuous
 62
     7
 48
25.4
100
AcDbText
 10
97.3138934541
 20
271.7832240387
 30
0.0
 40
4.0
  1
O
 50
90.0
  7
SEACAD_semeca1_ttf
 11
93.3138934541
 21
271.7832240387
 31
0.0
100
AcDbText
 73
     3
  0
ENDBLK
  5
3D7
330
3CB
100
AcDbEntity
  8
0
100
AcDbBlockEnd
  0
BLOCK
  5
3E1
330
3D8
100
AcDbEntity
  8
0
100
AcDbBlockBegin
  2
GDimGGroup22
 70
     0
 71
     0
 10
0.0
 20
0.0
 30
0.0
  3
GDimGGroup22
  1

  0
HATCH
  5
3DA
330
3D8
100
AcDbEntity
  8
Default
  6
Continuous
 62
     7
 48
25.4
100
AcDbHatch
 10
0.0
 20
0.0
 30
0.0
210
0.0
220
0.0
230
1.0
  2
SOLID
 70
     1
 71
     0
 91
        1
 92
        1
 93
        3
 72
     1
 10
194.4442020778331
 20
255.284579265642
 11
195.1108687761648
 21
251.2845790756522
 72
     1
 10
195.1108687761648
 20
251.2845790756522
 11
195.7775354744964
 21
255.284579265642
 72
     1
 10
195.7775354744964
 20
255.284579265642
 11
194.4442020778332
 21
255.284579265642
 97
        0
 75
     0
 76
     1
 98
        0
  0
LWPOLYLINE
  5
3DB
330
3D8
100
AcDbEntity
  8
Default
  6
Continuous
 62
     7
 48
25.4
370
    20
100
AcDbPolyline
 90
        4
 70
     1
 43
0.00025
 10
194.4442020778
 20
255.2845792656
 10
195.1108687762
 20
251.2845790757
 10
195.7775354745
 20
255.2845792656
 10
194.4442020778
 20
255.2845792656
  0
HATCH
  5
3DC
330
3D8
100
AcDbEntity
  8
Default
  6
Continuous
 62
     7
 48
25.4
100
AcDbHatch
 10
0.0
 20
0.0
 30
0.0
210
0.0
220
0.0
230
1.0
  2
SOLID
 70
     1
 71
     0
 91
        1
 92
        1
 93
        3
 72
     1
 10
194.4442020778331
 20
305.0345804353831
 11
195.7775354744964
 21
305.0345804353831
 72
     1
 10
195.7775354744964
 20
305.0345804353831
 11
195.1108687761648
 21
309.0345806253729
 72
     1
 10
195.1108687761648
 20
309.0345806253729
 11
194.4442020778331
 21
305.0345804353831
 97
        0
 75
     0
 76
     1
 98
        0
  0
LWPOLYLINE
  5
3DD
330
3D8
100
AcDbEntity
  8
Default
  6
Continuous
 62
     7
 48
25.4
370
    20
100
AcDbPolyline
 90
        4
 70
     1
 43
0.00025
 10
194.4442020778
 20
305.0345804354
 10
195.1108687762
 20
309.0345806254
 10
195.7775354745
 20
305.0345804354
 10
194.4442020778
 20
305.0345804354
  0
LINE
  5
3DE
330
3D8
100
AcDbEntity
  8
Default
  6
Continuous
 62
     7
 48
25.4
100
AcDbLine
 10
195.1108687762
 20
251.2845790757
 30
0.0
 11
195.1108687762
 21
309.0345806254
 31
0.0
  0
TEXT
  5
3DF
330
3D8
100
AcDbEntity
  8
Default
  6
Continuous
 62
     7
 48
25.4
100
AcDbText
 10
194.1108687762
 20
282.0201176824
 30
0.0
 40
4.0
  1
165
 50
90.0
  7
SEACAD_arial_ttf
 11
190.1108687762
 21
282.0201176824
 31
0.0
100
AcDbText
 73
     3
  0
TEXT
  5
3E0
330
3D8
100
AcDbEntity
  8
Default
  6
Continuous
 62
     7
 48
25.4
100
AcDbText
 10
194.1108687762
 20
274.6587141737
 30
0.0
 40
4.0
  1
O
 50
90.0
  7
SEACAD_semeca1_ttf
 11
190.1108687762
 21
274.6587141737
 31
0.0
100
AcDbText
 73
     3
  0
ENDBLK
  5
3E2
330
3D8
100
AcDbEntity
  8
0
100
AcDbBlockEnd
  0
BLOCK
  5
3EC
330
3E3
100
AcDbEntity
  8
0
100
AcDbBlockBegin
  2
GDimGGroup23
 70
     0
 71
     0
 10
0.0
 20
0.0
 30
0.0
  3
GDimGGroup23
  1

  0
HATCH
  5
3E5
330
3E3
100
AcDbEntity
  8
Default
  6
Continuous
 62
     7
 48
25.4
100
AcDbHatch
 10
0.0
 20
0.0
 30
0.0
210
0.0
220
0.0
230
1.0
  2
SOLID
 70
     1
 71
     0
 91
        1
 92
        1
 93
        3
 72
     1
 10
161.669720272295
 20
189.7846660687554
 11
161.669720272295
 21
191.1179994654187
 72
     1
 10
161.669720272295
 20
191.1179994654187
 11
157.6697200823052
 21
190.451332767087
 72
     1
 10
157.6697200823052
 20
190.451332767087
 11
161.669720272295
 21
189.7846660687554
 97
        0
 75
     0
 76
     1
 98
        0
  0
LWPOLYLINE
  5
3E6
330
3E3
100
AcDbEntity
  8
Default
  6
Continuous
 62
     7
 48
25.4
370
    20
100
AcDbPolyline
 90
        4
 70
     1
 43
0.00025
 10
161.6697202723
 20
189.7846660688
 10
157.6697200823
 20
190.4513327671
 10
161.6697202723
 20
191.1179994654
 10
161.6697202723
 20
189.7846660688
  0
HATCH
  5
3E7
330
3E3
100
AcDbEntity
  8
Default
  6
Continuous
 62
     7
 48
25.4
100
AcDbHatch
 10
0.0
 20
0.0
 30
0.0
210
0.0
220
0.0
230
1.0
  2
SOLID
 70
     1
 71
     0
 91
        1
 92
        1
 93
        3
 72
     1
 10
151.5697198923154
 20
189.7846660687554
 11
155.5697200823052
 21
190.451332767087
 72
     1
 10
155.5697200823052
 20
190.451332767087
 11
151.5697198923154
 21
191.1179994654187
 72
     1
 10
151.5697198923154
 20
191.1179994654187
 11
151.5697198923154
 21
189.7846660687554
 97
        0
 75
     0
 76
     1
 98
        0
  0
LWPOLYLINE
  5
3E8
330
3E3
100
AcDbEntity
  8
Default
  6
Continuous
 62
     7
 48
25.4
370
    20
100
AcDbPolyline
 90
        4
 70
     1
 43
0.00025
 10
151.5697198923
 20
189.7846660688
 10
155.5697200823
 20
190.4513327671
 10
151.5697198923
 20
191.1179994654
 10
151.5697198923
 20
189.7846660688
  0
LINE
  5
3E9
330
3E3
100
AcDbEntity
  8
Default
  6
Continuous
 62
     7
 48
25.4
100
AcDbLine
 10
157.6697200823
 20
214.3595790757
 30
0.0
 11
157.6697200823
 21
188.4513326721
 31
0.0
  0
LINE
  5
3EA
330
3E3
100
AcDbEntity
  8
Default
  6
Continuous
 62
     7
 48
25.4
100
AcDbLine
 10
169.5788109961
 20
190.4513327671
 30
0.0
 11
147.5697204757
 21
190.4513327671
 31
0.0
  0
TEXT
  5
3EB
330
3E3
100
AcDbEntity
  8
Default
  6
Continuous
 62
     7
 48
25.4
100
AcDbText
 10
165.0483765494
 20
191.4513327671
 30
0.0
 40
4.0
  1
6
  7
SEACAD_arial_ttf
 11
165.0483765494
 21
195.4513327671
 31
0.0
100
AcDbText
 73
     3
  0
ENDBLK
  5
3ED
330
3E3
100
AcDbEntity
  8
0
100
AcDbBlockEnd
  0
BLOCK
  5
3F8
330
3EE
100
AcDbEntity
  8
0
100
AcDbBlockBegin
  2
GDimGGroup24
 70
     0
 71
     0
 10
0.0
 20
0.0
 30
0.0
  3
GDimGGroup24
  1

  0
HATCH
  5
3F0
330
3EE
100
AcDbEntity
  8
Default
  6
Continuous
 62
     7
 48
25.4
100
AcDbHatch
 10
0.0
 20
0.0
 30
0.0
210
0.0
220
0.0
230
1.0
  2
SOLID
 70
     1
 71
     0
 91
        1
 92
        1
 93
        3
 72
     1
 10
152.219720272295
 20
154.406288184129
 11
152.219720272295
 21
155.7396215807923
 72
     1
 10
152.219720272295
 20
155.7396215807923
 11
148.2197200823052
 21
155.0729548824606
 72
     1
 10
148.2197200823052
 20
155.0729548824606
 11
152.219720272295
 21
154.406288184129
 97
        0
 75
     0
 76
     1
 98
        0
  0
LWPOLYLINE
  5
3F1
330
3EE
100
AcDbEntity
  8
Default
  6
Continuous
 62
     7
 48
25.4
370
    20
100
AcDbPolyline
 90
        4
 70
     1
 43
0.00025
 10
152.2197202723
 20
154.4062881841
 10
148.2197200823
 20
155.0729548825
 10
152.2197202723
 20
155.7396215808
 10
152.2197202723
 20
154.4062881841
  0
HATCH
  5
3F2
330
3EE
100
AcDbEntity
  8
Default
  6
Continuous
 62
     7
 48
25.4
100
AcDbHatch
 10
0.0
 20
0.0
 30
0.0
210
0.0
220
0.0
230
1.0
  2
SOLID
 70
     1
 71
     0
 91
        1
 92
        1
 93
        3
 72
     1
 10
203.7197212632222
 20
154.406288184129
 11
207.719721453212
 21
155.0729548824606
 72
     1
 10
207.719721453212
 20
155.0729548824606
 11
203.7197212632222
 21
155.7396215807923
 72
     1
 10
203.7197212632222
 20
155.7396215807923
 11
203.7197212632222
 21
154.406288184129
 97
        0
 75
     0
 76
     1
 98
        0
  0
LWPOLYLINE
  5
3F3
330
3EE
100
AcDbEntity
  8
Default
  6
Continuous
 62
     7
 48
25.4
370
    20
100
AcDbPolyline
 90
        4
 70
     1
 43
0.00025
 10
203.7197212632
 20
154.4062881841
 10
207.7197214532
 20
155.0729548825
 10
203.7197212632
 20
155.7396215808
 10
203.7197212632
 20
154.4062881841
  0
LINE
  5
3F4
330
3EE
100
AcDbEntity
  8
Default
  6
Continuous
 62
     7
 48
25.4
100
AcDbLine
 10
148.2197200823
 20
214.3595790757
 30
0.0
 11
148.2197200823
 21
153.0729547875
 31
0.0
  0
LINE
  5
3F5
330
3EE
100
AcDbEntity
  8
Default
  6
Continuous
 62
     7
 48
25.4
100
AcDbLine
 10
207.7197200823
 20
173.4095790757
 30
0.0
 11
207.7197200823
 21
153.0729547875
 31
0.0
  0
LINE
  5
3F6
330
3EE
100
AcDbEntity
  8
Default
  6
Continuous
 62
     7
 48
25.4
100
AcDbLine
 10
148.2197200823
 20
155.0729548825
 30
0.0
 11
207.7197214532
 21
155.0729548825
 31
0.0
  0
TEXT
  5
3F7
330
3EE
100
AcDbEntity
  8
Default
  6
Continuous
 62
     7
 48
25.4
100
AcDbText
 10
173.2740685938
 20
156.0729548825
 30
0.0
 40
4.0
  1
170
  7
SEACAD_arial_ttf
 11
173.2740685938
 21
160.0729548825
 31
0.0
100
AcDbText
 73
     3
  0
ENDBLK
  5
3F9
330
3EE
100
AcDbEntity
  8
0
100
AcDbBlockEnd
  0
BLOCK
  5
404
330
3FA
100
AcDbEntity
  8
0
100
AcDbBlockBegin
  2
GDimGGroup25
 70
     0
 71
     0
 10
0.0
 20
0.0
 30
0.0
  3
GDimGGroup25
  1

  0
HATCH
  5
3FC
330
3FA
100
AcDbEntity
  8
Default
  6
Continuous
 62
     7
 48
25.4
100
AcDbHatch
 10
0.0
 20
0.0
 30
0.0
210
0.0
220
0.0
230
1.0
  2
SOLID
 70
     1
 71
     0
 91
        1
 92
        1
 93
        3
 72
     1
 10
139.969720272295
 20
154.4293465175259
 11
139.969720272295
 21
155.7626799141892
 72
     1
 10
139.969720272295
 20
155.7626799141892
 11
135.9697200823052
 21
155.0960132158575
 72
     1
 10
135.9697200823052
 20
155.0960132158575
 11
139.969720272295
 21
154.4293465175259
 97
        0
 75
     0
 76
     1
 98
        0
  0
LWPOLYLINE
  5
3FD
330
3FA
100
AcDbEntity
  8
Default
  6
Continuous
 62
     7
 48
25.4
370
    20
100
AcDbPolyline
 90
        4
 70
     1
 43
0.00025
 10
139.9697202723
 20
154.4293465175
 10
135.9697200823
 20
155.0960132159
 10
139.9697202723
 20
155.7626799142
 10
139.9697202723
 20
154.4293465175
  0
HATCH
  5
3FE
330
3FA
100
AcDbEntity
  8
Default
  6
Continuous
 62
     7
 48
25.4
100
AcDbHatch
 10
0.0
 20
0.0
 30
0.0
210
0.0
220
0.0
230
1.0
  2
SOLID
 70
     1
 71
     0
 91
        1
 92
        1
 93
        3
 72
     1
 10
144.2197195719404
 20
154.4293465175259
 11
148.2197197619302
 21
155.0960132158575
 72
     1
 10
148.2197197619302
 20
155.0960132158575
 11
144.2197195719404
 21
155.7626799141892
 72
     1
 10
144.2197195719404
 20
155.7626799141892
 11
144.2197195719404
 21
154.4293465175259
 97
        0
 75
     0
 76
     1
 98
        0
  0
LWPOLYLINE
  5
3FF
330
3FA
100
AcDbEntity
  8
Default
  6
Continuous
 62
     7
 48
25.4
370
    20
100
AcDbPolyline
 90
        4
 70
     1
 43
0.00025
 10
144.2197195719
 20
154.4293465175
 10
148.2197197619
 20
155.0960132159
 10
144.2197195719
 20
155.7626799142
 10
144.2197195719
 20
154.4293465175
  0
LINE
  5
400
330
3FA
100
AcDbEntity
  8
Default
  6
Continuous
 62
     7
 48
25.4
100
AcDbLine
 10
135.9697200823
 20
218.5245790757
 30
0.0
 11
135.9697200823
 21
153.0960131209
 31
0.0
  0
LINE
  5
401
330
3FA
100
AcDbEntity
  8
Default
  6
Continuous
 62
     7
 48
25.4
100
AcDbLine
 10
148.2197200823
 20
214.3595790757
 30
0.0
 11
148.2197200823
 21
153.0960131209
 31
0.0
  0
LINE
  5
402
330
3FA
100
AcDbEntity
  8
Default
  6
Continuous
 62
     7
 48
25.4
100
AcDbLine
 10
135.9697200823
 20
155.0960132159
 30
0.0
 11
148.2197197619
 21
155.0960132159
 31
0.0
  0
TEXT
  5
403
330
3FA
100
AcDbEntity
  8
Default
  6
Continuous
 62
     7
 48
25.4
100
AcDbText
 10
138.9642851395
 20
156.0960132159
 30
0.0
 40
4.0
  1
35
  7
SEACAD_arial_ttf
 11
138.9642851395
 21
160.0960132159
 31
0.0
100
AcDbText
 73
     3
  0
ENDBLK
  5
405
330
3FA
100
AcDbEntity
  8
0
100
AcDbBlockEnd
  0
BLOCK
  5
412
330
406
100
AcDbEntity
  8
0
100
AcDbBlockBegin
  2
GDimGGroup26
 70
     0
 71
     0
 10
0.0
 20
0.0
 30
0.0
  3
GDimGGroup26
  1

  0
HATCH
  5
408
330
406
100
AcDbEntity
  8
Default
  6
Continuous
 62
     7
 48
25.4
100
AcDbHatch
 10
0.0
 20
0.0
 30
0.0
210
0.0
220
0.0
230
1.0
  2
SOLID
 70
     1
 71
     0
 91
        1
 92
        1
 93
        3
 72
     1
 10
160.6697198923154
 20
250.5336578204262
 11
164.6697200823052
 21
251.2003245187579
 72
     1
 10
164.6697200823052
 20
251.2003245187579
 11
160.6697198923154
 21
251.8669912170896
 72
     1
 10
160.6697198923154
 20
251.8669912170896
 11
160.6697198923154
 21
250.5336578204262
 97
        0
 75
     0
 76
     1
 98
        0
  0
LWPOLYLINE
  5
409
330
406
100
AcDbEntity
  8
Default
  6
Continuous
 62
     7
 48
25.4
370
    20
100
AcDbPolyline
 90
        4
 70
     1
 43
0.00025
 10
160.6697198923
 20
250.5336578204
 10
164.6697200823
 20
251.2003245188
 10
160.6697198923
 20
251.8669912171
 10
160.6697198923
 20
250.5336578204
  0
HATCH
  5
40A
330
406
100
AcDbEntity
  8
Default
  6
Continuous
 62
     7
 48
25.4
100
AcDbHatch
 10
0.0
 20
0.0
 30
0.0
210
0.0
220
0.0
230
1.0
  2
SOLID
 70
     1
 71
     0
 91
        1
 92
        1
 93
        3
 72
     1
 10
152.219720272295
 20
250.5336578204262
 11
152.219720272295
 21
251.8669912170896
 72
     1
 10
152.219720272295
 20
251.8669912170896
 11
148.2197200823052
 21
251.2003245187579
 72
     1
 10
148.2197200823052
 20
251.2003245187579
 11
152.219720272295
 21
250.5336578204262
 97
        0
 75
     0
 76
     1
 98
        0
  0
LWPOLYLINE
  5
40B
330
406
100
AcDbEntity
  8
Default
  6
Continuous
 62
     7
 48
25.4
370
    20
100
AcDbPolyline
 90
        4
 70
     1
 43
0.00025
 10
152.2197202723
 20
250.5336578204
 10
148.2197200823
 20
251.2003245188
 10
152.2197202723
 20
251.8669912171
 10
152.2197202723
 20
250.5336578204
  0
LINE
  5
40C
330
406
100
AcDbEntity
  8
Default
  6
Continuous
 62
     7
 48
25.4
100
AcDbLine
 10
164.6697200823
 20
280.1595801843
 30
0.0
 11
164.6697200823
 21
249.2003244238
 31
0.0
  0
LINE
  5
40D
330
406
100
AcDbEntity
  8
Default
  6
Continuous
 62
     7
 48
25.4
100
AcDbLine
 10
148.2197200823
 20
280.1595790757
 30
0.0
 11
148.2197200823
 21
249.2003244238
 31
0.0
  0
LINE
  5
40E
330
406
100
AcDbEntity
  8
Default
  6
Continuous
 62
     7
 48
25.4
100
AcDbLine
 10
164.6697200823
 20
251.2003245188
 30
0.0
 11
122.9012176383
 21
251.2003245188
 31
0.0
  0
TEXT
  5
40F
330
406
100
AcDbEntity
  8
Default
  6
Continuous
 62
     7
 48
25.4
100
AcDbText
 10
139.0142622761
 20
258.2003245188
 30
0.0
 40
4.0
  1
47
  7
SEACAD_arial_ttf
 11
139.0142622761
 21
262.2003245188
 31
0.0
100
AcDbText
 73
     3
  0
TEXT
  5
410
330
406
100
AcDbEntity
  8
Default
  6
Continuous
 62
     7
 48
25.4
100
AcDbText
 10
124.3012187978
 20
258.2003245188
 30
0.0
 40
4.0
  1
MAX
  7
SEACAD_arial_ttf
 11
124.3012187978
 21
262.2003245188
 31
0.0
100
AcDbText
 73
     3
  0
TEXT
  5
411
330
406
100
AcDbEntity
  8
Default
  6
Continuous
 62
     7
 48
25.4
100
AcDbText
 10
124.3012187978
 20
252.2003245188
 30
0.0
 40
4.0
  1
MIN 24
  7
SEACAD_arial_ttf
 11
124.3012187978
 21
256.2003245188
 31
0.0
100
AcDbText
 73
     3
  0
ENDBLK
  5
413
330
406
100
AcDbEntity
  8
0
100
AcDbBlockEnd
  0
BLOCK
  5
41C
330
414
100
AcDbEntity
  8
0
100
AcDbBlockBegin
  2
GDimGGroup27
 70
     0
 71
     0
 10
0.0
 20
0.0
 30
0.0
  3
GDimGGroup27
  1

  0
HATCH
  5
416
330
414
100
AcDbEntity
  8
Default
  6
Continuous
 62
     7
 48
25.4
100
AcDbHatch
 10
0.0
 20
0.0
 30
0.0
210
0.0
220
0.0
230
1.0
  2
SOLID
 70
     1
 71
     0
 91
        1
 92
        1
 93
        3
 72
     1
 10
174.6697198923154
 20
300.2701018854011
 11
178.6697200823052
 21
300.9367685837327
 72
     1
 10
178.6697200823052
 20
300.9367685837327
 11
174.6697198923154
 21
301.6034352820644
 72
     1
 10
174.6697198923154
 20
301.6034352820644
 11
174.6697198923154
 21
300.2701018854011
 97
        0
 75
     0
 76
     1
 98
        0
  0
LWPOLYLINE
  5
417
330
414
100
AcDbEntity
  8
Default
  6
Continuous
 62
     7
 48
25.4
370
    20
100
AcDbPolyline
 90
        4
 70
     1
 43
0.00025
 10
174.6697198923
 20
300.2701018854
 10
178.6697200823
 20
300.9367685837
 10
174.6697198923
 20
301.6034352821
 10
174.6697198923
 20
300.2701018854
  0
HATCH
  5
418
330
414
100
AcDbEntity
  8
Default
  6
Continuous
 62
     7
 48
25.4
100
AcDbHatch
 10
0.0
 20
0.0
 30
0.0
210
0.0
220
0.0
230
1.0
  2
SOLID
 70
     1
 71
     0
 91
        1
 92
        1
 93
        3
 72
     1
 10
168.669720272295
 20
300.2701018854011
 11
168.669720272295
 21
301.6034352820644
 72
     1
 10
168.669720272295
 20
301.6034352820644
 11
164.6697200823052
 21
300.9367685837327
 72
     1
 10
164.6697200823052
 20
300.9367685837327
 11
168.669720272295
 21
300.2701018854011
 97
        0
 75
     0
 76
     1
 98
        0
  0
LWPOLYLINE
  5
419
330
414
100
AcDbEntity
  8
Default
  6
Continuous
 62
     7
 48
25.4
370
    20
100
AcDbPolyline
 90
        4
 70
     1
 43
0.00025
 10
168.6697202723
 20
300.2701018854
 10
164.6697200823
 20
300.9367685837
 10
168.6697202723
 20
301.6034352821
 10
168.6697202723
 20
300.2701018854
  0
LINE
  5
41A
330
414
100
AcDbEntity
  8
Default
  6
Continuous
 62
     7
 48
25.4
100
AcDbLine
 10
178.6697200823
 20
300.9367685837
 30
0.0
 11
136.926661371
 21
300.9367685837
 31
0.0
  0
TEXT
  5
41B
330
414
100
AcDbEntity
  8
Default
  6
Continuous
 62
     7
 48
25.4
100
AcDbText
 10
138.3266626618
 20
301.9367685837
 30
0.0
 40
4.0
  1
40
  7
SEACAD_arial_ttf
 11
138.3266626618
 21
305.9367685837
 31
0.0
100
AcDbText
 73
     3
  0
ENDBLK
  5
41D
330
414
100
AcDbEntity
  8
0
100
AcDbBlockEnd
  0
BLOCK
  5
428
330
41E
100
AcDbEntity
  8
0
100
AcDbBlockBegin
  2
GDimGGroup28
 70
     0
 71
     0
 10
0.0
 20
0.0
 30
0.0
  3
GDimGGroup28
  1

  0
HATCH
  5
420
330
41E
100
AcDbEntity
  8
Default
  6
Continuous
 62
     7
 48
25.4
100
AcDbHatch
 10
0.0
 20
0.0
 30
0.0
210
0.0
220
0.0
230
1.0
  2
SOLID
 70
     1
 71
     0
 91
        1
 92
        1
 93
        3
 72
     1
 10
505.2283116836457
 20
381.6841929841019
 11
509.0497516602031
 21
380.3273427668148
 72
     1
 10
509.0497516602031
 20
380.3273427668148
 11
505.8749355366338
 21
382.8502356674563
 72
     1
 10
505.8749355366338
 20
382.8502356674562
 11
505.2283116836457
 21
381.6841929841018
 97
        0
 75
     0
 76
     1
 98
        0
  0
LWPOLYLINE
  5
421
330
41E
100
AcDbEntity
  8
Default
  6
Continuous
 62
     7
 48
25.4
370
    20
100
AcDbPolyline
 90
        4
 70
     1
 43
0.00025
 10
505.2283116836
 20
381.6841929841
 10
509.0497516602
 20
380.3273427668
 10
505.8749355366
 20
382.8502356675
 10
505.2283116836
 20
381.6841929841
  0
HATCH
  5
422
330
41E
100
AcDbEntity
  8
Default
  6
Continuous
 62
     7
 48
25.4
100
AcDbHatch
 10
0.0
 20
0.0
 30
0.0
210
0.0
220
0.0
230
1.0
  2
SOLID
 70
     1
 71
     0
 91
        1
 92
        1
 93
        3
 72
     1
 10
455.1646721540034
 20
396.4380093896821
 11
451.1537542965426
 21
395.8405280533335
 72
     1
 10
451.1537542965426
 20
395.8405280533334
 11
455.1416435140375
 21
395.1048748771894
 72
     1
 10
455.1416435140375
 20
395.1048748771895
 11
455.1646721540034
 21
396.4380093896821
 97
        0
 75
     0
 76
     1
 98
        0
  0
LWPOLYLINE
  5
423
330
41E
100
AcDbEntity
  8
Default
  6
Continuous
 62
     7
 48
25.4
370
    20
100
AcDbPolyline
 90
        4
 70
     1
 43
0.00025
 10
455.164672154
 20
396.4380093897
 10
451.1537542965
 20
395.8405280533
 10
455.141643514
 20
395.1048748772
 10
455.164672154
 20
396.4380093897
  0
LINE
  5
424
330
41E
100
AcDbEntity
  8
Default
  6
Continuous
 62
     7
 48
25.4
100
AcDbLine
 10
480.0462563097
 20
330.0918152227
 30
0.0
 11
510.0497499615
 21
382.0593906321
 31
0.0
  0
LINE
  5
425
330
41E
100
AcDbEntity
  8
Default
  6
Continuous
 62
     7
 48
25.4
100
AcDbLine
 10
451.1537559837
 20
280.0485367003
 30
0.0
 11
451.1537559837
 21
397.8405246559
 31
0.0
  0
ARC
  5
426
330
41E
100
AcDbEntity
  8
Default
  6
Continuous
 62
     7
 48
25.4
100
AcDbCircle
 10
451.1537559837
 20
280.0485367003
 30
0.0
 40
115.7919913530359
100
AcDbArc
 50
60.0
 51
90.0000008348
  0
TEXT
  5
427
330
41E
100
AcDbEntity
  8
Default
  6
Continuous
 62
     7
 48
25.4
100
AcDbText
 10
477.2660637058
 20
393.9637316441
 30
0.0
 40
4.0
  1
30°
 50
345.0
  7
SEACAD_arial_ttf
 11
478.3013398862
 21
397.8274349493
 31
0.0
100
AcDbText
 73
     3
  0
ENDBLK
  5
429
330
41E
100
AcDbEntity
  8
0
100
AcDbBlockEnd
  0
BLOCK
  5
434
330
42A
100
AcDbEntity
  8
0
100
AcDbBlockBegin
  2
GDimGGroup29
 70
     0
 71
     0
 10
0.0
 20
0.0
 30
0.0
  3
GDimGGroup29
  1

  0
HATCH
  5
42C
330
42A
100
AcDbEntity
  8
Default
  6
Continuous
 62
     7
 48
25.4
100
AcDbHatch
 10
0.0
 20
0.0
 30
0.0
210
0.0
220
0.0
230
1.0
  2
SOLID
 70
     1
 71
     0
 91
        1
 92
        1
 93
        3
 72
     1
 10
529.6910093871259
 20
364.2255171060561
 11
533.0310582765108
 21
361.9258389931235
 72
     1
 10
533.0310582765108
 20
361.9258389931235
 11
530.6173941204761
 21
365.1844692802927
 72
     1
 10
530.6173941204761
 20
365.1844692802927
 11
529.6910093871259
 21
364.2255171060562
 97
        0
 75
     0
 76
     1
 98
        0
  0
LWPOLYLINE
  5
42D
330
42A
100
AcDbEntity
  8
Default
  6
Continuous
 62
     7
 48
25.4
370
    20
100
AcDbPolyline
 90
        4
 70
     1
 43
0.00025
 10
529.6910093871
 20
364.2255171061
 10
533.0310582765
 20
361.9258389931
 10
530.6173941205
 20
365.1844692803
 10
529.6910093871
 20
364.2255171061
  0
HATCH
  5
42E
330
42A
100
AcDbEntity
  8
Default
  6
Continuous
 62
     7
 48
25.4
100
AcDbHatch
 10
0.0
 20
0.0
 30
0.0
210
0.0
220
0.0
230
1.0
  2
SOLID
 70
     1
 71
     0
 91
        1
 92
        1
 93
        3
 72
     1
 10
512.8220483440363
 20
378.839318247953
 11
509.0497509296488
 21
380.3273431886005
 72
     1
 10
509.0497509296488
 20
380.3273431886005
 11
512.1355376922377
 21
377.696304218457
 72
     1
 10
512.1355376922377
 20
377.696304218457
 11
512.8220483440363
 21
378.839318247953
 97
        0
 75
     0
 76
     1
 98
        0
  0
LWPOLYLINE
  5
42F
330
42A
100
AcDbEntity
  8
Default
  6
Continuous
 62
     7
 48
25.4
370
    20
100
AcDbPolyline
 90
        4
 70
     1
 43
0.00025
 10
512.822048344
 20
378.839318248
 10
509.0497509296
 20
380.3273431886
 10
512.1355376922
 20
377.6963042185
 10
512.822048344
 20
378.839318248
  0
LINE
  5
430
330
42A
100
AcDbEntity
  8
Default
  6
Continuous
 62
     7
 48
25.4
100
AcDbLine
 10
492.0139217956
 20
320.9087025122
 30
0.0
 11
534.4452694365
 21
363.3400501531
 31
0.0
  0
LINE
  5
431
330
42A
100
AcDbEntity
  8
Default
  6
Continuous
 62
     7
 48
25.4
100
AcDbLine
 10
480.0462563097
 20
330.0918152227
 30
0.0
 11
510.0497499615
 21
382.0593906321
 31
0.0
  0
ARC
  5
432
330
42A
100
AcDbEntity
  8
Default
  6
Continuous
 62
     7
 48
25.4
100
AcDbCircle
 10
451.1537559837
 20
280.0485367003
 30
0.0
 40
115.7919913530428
100
AcDbArc
 50
45.0
 51
60.0000004174
  0
TEXT
  5
433
330
42A
100
AcDbEntity
  8
Default
  6
Continuous
 62
     7
 48
25.4
100
AcDbText
 10
518.8718404344
 20
375.2997062048
 30
0.0
 40
4.0
  1
15°
 50
322.5
  7
SEACAD_arial_ttf
 11
521.3068861505
 21
378.473119566
 31
0.0
100
AcDbText
 73
     3
  0
ENDBLK
  5
435
330
42A
100
AcDbEntity
  8
0
100
AcDbBlockEnd
  0
BLOCK
  5
440
330
436
100
AcDbEntity
  8
0
100
AcDbBlockBegin
  2
GDimGGroup30
 70
     0
 71
     0
 10
0.0
 20
0.0
 30
0.0
  3
GDimGGroup30
  1

  0
HATCH
  5
438
330
436
100
AcDbEntity
  8
Default
  6
Continuous
 62
     7
 48
25.4
100
AcDbHatch
 10
0.0
 20
0.0
 30
0.0
210
0.0
220
0.0
230
1.0
  2
SOLID
 70
     1
 71
     0
 91
        1
 92
        1
 93
        3
 72
     1
 10
561.2575027773995
 20
313.6793134438294
 11
563.0002309090226
 21
310.0177093328101
 72
     1
 10
563.0002309090226
 20
310.0177093328102
 11
562.5392515772772
 21
314.0465980210574
 72
     1
 10
562.5392515772772
 20
314.0465980210574
 11
561.2575027773995
 21
313.6793134438294
 97
        0
 75
     0
 76
     1
 98
        0
  0
LWPOLYLINE
  5
439
330
436
100
AcDbEntity
  8
Default
  6
Continuous
 62
     7
 48
25.4
370
    20
100
AcDbPolyline
 90
        4
 70
     1
 43
0.00025
 10
561.2575027774
 20
313.6793134438
 10
563.000230909
 20
310.0177093328
 10
562.5392515773
 20
314.0465980211
 10
561.2575027774
 20
313.6793134438
  0
HATCH
  5
43A
330
436
100
AcDbEntity
  8
Default
  6
Continuous
 62
     7
 48
25.4
100
AcDbHatch
 10
0.0
 20
0.0
 30
0.0
210
0.0
220
0.0
230
1.0
  2
SOLID
 70
     1
 71
     0
 91
        1
 92
        1
 93
        3
 72
     1
 10
536.2896874038777
 20
359.5121760748855
 11
533.0310570835204
 21
361.9258401861137
 72
     1
 10
533.0310570835205
 20
361.9258401861137
 11
535.330735242379
 21
358.5857913283495
 72
     1
 10
535.330735242379
 20
358.5857913283495
 11
536.2896874038778
 21
359.5121760748855
 97
        0
 75
     0
 76
     1
 98
        0
  0
LWPOLYLINE
  5
43B
330
436
100
AcDbEntity
  8
Default
  6
Continuous
 62
     7
 48
25.4
370
    20
100
AcDbPolyline
 90
        4
 70
     1
 43
0.00025
 10
536.2896874039
 20
359.5121760749
 10
533.0310570835
 20
361.9258401861
 10
535.3307352424
 20
358.5857913283
 10
536.2896874039
 20
359.5121760749
  0
LINE
  5
43C
330
436
100
AcDbEntity
  8
Default
  6
Continuous
 62
     7
 48
25.4
100
AcDbLine
 10
484.4540476014
 20
288.971322947
 30
0.0
 11
564.9320792799
 21
310.5353465437
 31
0.0
  0
LINE
  5
43D
330
436
100
AcDbEntity
  8
Default
  6
Continuous
 62
     7
 48
25.4
100
AcDbLine
 10
492.0139217956
 20
320.9087025122
 30
0.0
 11
534.4452694365
 21
363.3400501531
 31
0.0
  0
ARC
  5
43E
330
436
100
AcDbEntity
  8
Default
  6
Continuous
 62
     7
 48
25.4
100
AcDbCircle
 10
451.1537559837
 20
280.0485367003
 30
0.0
 40
115.7919913530333
100
AcDbArc
 50
15.0
 51
45.0000008348
  0
TEXT
  5
43F
330
436
100
AcDbEntity
  8
Default
  6
Continuous
 62
     7
 48
25.4
100
AcDbText
 10
550.1681526714
 20
342.1345536625
 30
0.0
 40
4.0
  1
30°
 50
300.0
  7
SEACAD_arial_ttf
 11
553.6322542865
 21
344.1345536625
 31
0.0
100
AcDbText
 73
     3
  0
ENDBLK
  5
441
330
436
100
AcDbEntity
  8
0
100
AcDbBlockEnd
  0
BLOCK
  5
44C
330
442
100
AcDbEntity
  8
0
100
AcDbBlockBegin
  2
GDimGGroup31
 70
     0
 71
     0
 10
0.0
 20
0.0
 30
0.0
  3
GDimGGroup31
  1

  0
HATCH
  5
444
330
442
100
AcDbEntity
  8
Default
  6
Continuous
 62
     7
 48
25.4
100
AcDbHatch
 10
0.0
 20
0.0
 30
0.0
210
0.0
220
0.0
230
1.0
  2
SOLID
 70
     1
 71
     0
 91
        1
 92
        1
 93
        3
 72
     1
 10
566.2100941057429
 20
284.0364259076779
 11
566.9457473367206
 21
280.0485367002984
 72
     1
 10
566.9457473367205
 20
280.0485367002983
 11
567.5432286179187
 21
284.0594545659745
 72
     1
 10
567.5432286179188
 20
284.0594545659745
 11
566.2100941057429
 21
284.0364259076779
 97
        0
 75
     0
 76
     1
 98
        0
  0
LWPOLYLINE
  5
445
330
442
100
AcDbEntity
  8
Default
  6
Continuous
 62
     7
 48
25.4
370
    20
100
AcDbPolyline
 90
        4
 70
     1
 43
0.00025
 10
566.2100941057
 20
284.0364259077
 10
566.9457473367
 20
280.0485367003
 10
567.5432286179
 20
284.059454566
 10
566.2100941057
 20
284.0364259077
  0
HATCH
  5
446
330
442
100
AcDbEntity
  8
Default
  6
Continuous
 62
     7
 48
25.4
100
AcDbHatch
 10
0.0
 20
0.0
 30
0.0
210
0.0
220
0.0
230
1.0
  2
SOLID
 70
     1
 71
     0
 91
        1
 92
        1
 93
        3
 72
     1
 10
564.6154552469494
 20
306.2981005391653
 11
563.0002306906902
 21
310.0177101476377
 72
     1
 10
563.0002306906902
 20
310.0177101476377
 11
563.321785938458
 21
305.9753039051608
 72
     1
 10
563.321785938458
 20
305.9753039051608
 11
564.6154552469495
 21
306.2981005391653
 97
        0
 75
     0
 76
     1
 98
        0
  0
LWPOLYLINE
  5
447
330
442
100
AcDbEntity
  8
Default
  6
Continuous
 62
     7
 48
25.4
370
    20
100
AcDbPolyline
 90
        4
 70
     1
 43
0.00025
 10
564.6154552469
 20
306.2981005392
 10
563.0002306907
 20
310.0177101476
 10
563.3217859385
 20
305.9753039052
 10
564.6154552469
 20
306.2981005392
  0
LINE
  5
448
330
442
100
AcDbEntity
  8
Default
  6
Continuous
 62
     7
 48
25.4
100
AcDbLine
 10
508.9387566358
 20
280.0485367003
 30
0.0
 11
568.9457439393
 21
280.0485367003
 31
0.0
  0
LINE
  5
449
330
442
100
AcDbEntity
  8
Default
  6
Continuous
 62
     7
 48
25.4
100
AcDbLine
 10
484.4540476014
 20
288.971322947
 30
0.0
 11
564.9320792799
 21
310.5353465437
 31
0.0
  0
ARC
  5
44A
330
442
100
AcDbEntity
  8
Default
  6
Continuous
 62
     7
 48
25.4
100
AcDbCircle
 10
451.1537559837
 20
280.0485367003
 30
0.0
 40
115.7919913530295
100
AcDbArc
 50
0.0
 51
15.0000004174
  0
TEXT
  5
44B
330
442
100
AcDbEntity
  8
Default
  6
Continuous
 62
     7
 48
25.4
100
AcDbText
 10
566.3904205804
 20
299.5173678488
 30
0.0
 40
4.0
  1
15°
 50
277.5
  7
SEACAD_arial_ttf
 11
570.3562000259
 21
300.0394726177
 31
0.0
100
AcDbText
 73
     3
  0
ENDBLK
  5
44D
330
442
100
AcDbEntity
  8
0
100
AcDbBlockEnd
  0
BLOCK
  5
458
330
44E
100
AcDbEntity
  8
0
100
AcDbBlockBegin
  2
GDimGGroup32
 70
     0
 71
     0
 10
0.0
 20
0.0
 30
0.0
  3
GDimGGroup32
  1

  0
HATCH
  5
450
330
44E
100
AcDbEntity
  8
Default
  6
Continuous
 62
     7
 48
25.4
100
AcDbHatch
 10
0.0
 20
0.0
 30
0.0
210
0.0
220
0.0
230
1.0
  2
SOLID
 70
     1
 71
     0
 91
        1
 92
        1
 93
        3
 72
     1
 10
552.7630757061265
 20
225.9245092454767
 11
551.4043653002611
 21
222.1037302621311
 72
     1
 10
551.404365300261
 20
222.1037302621311
 11
553.92880346257
 21
225.2773178174477
 72
     1
 10
553.9288034625702
 20
225.2773178174477
 11
552.7630757061265
 21
225.9245092454768
 97
        0
 75
     0
 76
     1
 98
        0
  0
LWPOLYLINE
  5
451
330
44E
100
AcDbEntity
  8
Default
  6
Continuous
 62
     7
 48
25.4
370
    20
100
AcDbPolyline
 90
        4
 70
     1
 43
0.00025
 10
552.7630757061
 20
225.9245092455
 10
551.4043653003
 20
222.1037302621
 10
553.9288034626
 20
225.2773178174
 10
552.7630757061
 20
225.9245092455
  0
HATCH
  5
452
330
44E
100
AcDbEntity
  8
Default
  6
Continuous
 62
     7
 48
25.4
100
AcDbHatch
 10
0.0
 20
0.0
 30
0.0
210
0.0
220
0.0
230
1.0
  2
SOLID
 70
     1
 71
     0
 91
        1
 92
        1
 93
        3
 72
     1
 10
567.5432285614625
 20
276.0376172913565
 11
566.9457473367205
 21
280.0485351654427
 72
     1
 10
566.9457473367205
 20
280.0485351654427
 11
566.2100940496105
 21
276.0606459684179
 72
     1
 10
566.2100940496106
 20
276.0606459684178
 11
567.5432285614625
 21
276.0376172913564
 97
        0
 75
     0
 76
     1
 98
        0
  0
LWPOLYLINE
  5
453
330
44E
100
AcDbEntity
  8
Default
  6
Continuous
 62
     7
 48
25.4
370
    20
100
AcDbPolyline
 90
        4
 70
     1
 43
0.00025
 10
567.5432285615
 20
276.0376172914
 10
566.9457473367
 20
280.0485351654
 10
566.2100940496
 20
276.0606459684
 10
567.5432285615
 20
276.0376172914
  0
LINE
  5
454
330
44E
100
AcDbEntity
  8
Default
  6
Continuous
 62
     7
 48
25.4
100
AcDbLine
 10
513.7542974202
 20
243.8654523161
 30
0.0
 11
553.1359261422
 21
221.1028888857
 31
0.0
  0
LINE
  5
455
330
44E
100
AcDbEntity
  8
Default
  6
Continuous
 62
     7
 48
25.4
100
AcDbLine
 10
508.9387566358
 20
280.0485367003
 30
0.0
 11
568.9457439393
 21
280.0485367003
 31
0.0
  0
ARC
  5
456
330
44E
100
AcDbEntity
  8
Default
  6
Continuous
 62
     7
 48
25.4
100
AcDbCircle
 10
451.1537559837
 20
280.0485367003
 30
0.0
 40
115.7919913530346
100
AcDbArc
 50
329.9721073282
 51
359.9999992405
  0
TEXT
  5
457
330
44E
100
AcDbEntity
  8
Default
  6
Continuous
 62
     7
 48
25.4
100
AcDbText
 10
560.9232740604
 20
246.1957792135
 30
0.0
 40
4.0
  1
30°
 50
74.9860536641
  7
SEACAD_arial_ttf
 11
557.0598228657
 21
247.2319958253
 31
0.0
100
AcDbText
 73
     3
  0
ENDBLK
  5
459
330
44E
100
AcDbEntity
  8
0
100
AcDbBlockEnd
  0
ENDSEC
  0
SECTION
  2
ENTITIES
  0
INSERT
  5
2C
330
1F
100
AcDbEntity
  8
Default
100
AcDbBlockReference
  2
SEANNOT_GROUP
 10
0.0
 20
0.0
 30
0.0
  0
INSERT
  5
37
330
1F
100
AcDbEntity
  8
Default
100
AcDbBlockReference
  2
SEANNOT_GROUP1
 10
0.0
 20
0.0
 30
0.0
  0
INSERT
  5
40
330
1F
100
AcDbEntity
  8
Default
100
AcDbBlockReference
  2
SEANNOT_GROUP2
 10
0.0
 20
0.0
 30
0.0
  0
INSERT
  5
4A
330
1F
100
AcDbEntity
  8
Default
100
AcDbBlockReference
  2
SEANNOT_GROUP3
 10
0.0
 20
0.0
 30
0.0
  0
INSERT
  5
53
330
1F
100
AcDbEntity
  8
Default
100
AcDbBlockReference
  2
SEANNOT_GROUP4
 10
0.0
 20
0.0
 30
0.0
  0
INSERT
  5
5E
330
1F
100
AcDbEntity
  8
Default
100
AcDbBlockReference
  2
SE
 10
0.0
 20
0.0
 30
0.0
  0
INSERT
  5
14A
330
1F
100
AcDbEntity
  8
Default
100
AcDbBlockReference
  2
SE1
 10
0.0
 20
0.0
 30
0.0
  0
INSERT
  5
1EA
330
1F
100
AcDbEntity
  8
Default
100
AcDbBlockReference
  2
SE2
 10
0.0
 20
0.0
 30
0.0
  0
INSERT
  5
2C4
330
1F
100
AcDbEntity
  8
Default
100
AcDbBlockReference
  2
GDimGGroup
 10
0.0
 20
0.0
 30
0.0
  0
INSERT
  5
2D0
330
1F
100
AcDbEntity
  8
Default
100
AcDbBlockReference
  2
GDimGGroup1
 10
0.0
 20
0.0
 30
0.0
  0
INSERT
  5
2DD
330
1F
100
AcDbEntity
  8
Default
100
AcDbBlockReference
  2
GDimGGroup2
 10
0.0
 20
0.0
 30
0.0
  0
INSERT
  5
2E9
330
1F
100
AcDbEntity
  8
Default
100
AcDbBlockReference
  2
GDimGGroup3
 10
0.0
 20
0.0
 30
0.0
  0
INSERT
  5
2F5
330
1F
100
AcDbEntity
  8
Default
100
AcDbBlockReference
  2
GDimGGroup4
 10
0.0
 20
0.0
 30
0.0
  0
INSERT
  5
302
330
1F
100
AcDbEntity
  8
Default
100
AcDbBlockReference
  2
GDimGGroup5
 10
0.0
 20
0.0
 30
0.0
  0
INSERT
  5
30E
330
1F
100
AcDbEntity
  8
Default
100
AcDbBlockReference
  2
GDimGGroup6
 10
0.0
 20
0.0
 30
0.0
  0
INSERT
  5
31A
330
1F
100
AcDbEntity
  8
Default
100
AcDbBlockReference
  2
GDimGGroup7
 10
0.0
 20
0.0
 30
0.0
  0
INSERT
  5
326
330
1F
100
AcDbEntity
  8
Default
100
AcDbBlockReference
  2
GDimGGroup8
 10
0.0
 20
0.0
 30
0.0
  0
INSERT
  5
333
330
1F
100
AcDbEntity
  8
Default
100
AcDbBlockReference
  2
GDimGGroup9
 10
0.0
 20
0.0
 30
0.0
  0
INSERT
  5
341
330
1F
100
AcDbEntity
  8
Default
100
AcDbBlockReference
  2
GDimGGroup10
 10
0.0
 20
0.0
 30
0.0
  0
INSERT
  5
34C
330
1F
100
AcDbEntity
  8
Default
100
AcDbBlockReference
  2
GDimGGroup11
 10
0.0
 20
0.0
 30
0.0
  0
INSERT
  5
358
330
1F
100
AcDbEntity
  8
Default
100
AcDbBlockReference
  2
GDimGGroup12
 10
0.0
 20
0.0
 30
0.0
  0
INSERT
  5
364
330
1F
100
AcDbEntity
  8
Default
100
AcDbBlockReference
  2
GDimGGroup13
 10
0.0
 20
0.0
 30
0.0
  0
INSERT
  5
370
330
1F
100
AcDbEntity
  8
Default
100
AcDbBlockReference
  2
GDimGGroup14
 10
0.0
 20
0.0
 30
0.0
  0
INSERT
  5
37C
330
1F
100
AcDbEntity
  8
Default
100
AcDbBlockReference
  2
GDimGGroup15
 10
0.0
 20
0.0
 30
0.0
  0
INSERT
  5
388
330
1F
100
AcDbEntity
  8
Default
100
AcDbBlockReference
  2
GDimGGroup16
 10
0.0
 20
0.0
 30
0.0
  0
INSERT
  5
396
330
1F
100
AcDbEntity
  8
Default
100
AcDbBlockReference
  2
GDimGGroup17
 10
0.0
 20
0.0
 30
0.0
  0
INSERT
  5
3A4
330
1F
100
AcDbEntity
  8
Default
100
AcDbBlockReference
  2
GDimGGroup18
 10
0.0
 20
0.0
 30
0.0
  0
INSERT
  5
3B1
330
1F
100
AcDbEntity
  8
Default
100
AcDbBlockReference
  2
GDimGGroup19
 10
0.0
 20
0.0
 30
0.0
  0
INSERT
  5
3BF
330
1F
100
AcDbEntity
  8
Default
100
AcDbBlockReference
  2
GDimGGroup20
 10
0.0
 20
0.0
 30
0.0
  0
INSERT
  5
3CC
330
1F
100
AcDbEntity
  8
Default
100
AcDbBlockReference
  2
GDimGGroup21
 10
0.0
 20
0.0
 30
0.0
  0
INSERT
  5
3D9
330
1F
100
AcDbEntity
  8
Default
100
AcDbBlockReference
  2
GDimGGroup22
 10
0.0
 20
0.0
 30
0.0
  0
INSERT
  5
3E4
330
1F
100
AcDbEntity
  8
Default
100
AcDbBlockReference
  2
GDimGGroup23
 10
0.0
 20
0.0
 30
0.0
  0
INSERT
  5
3EF
330
1F
100
AcDbEntity
  8
Default
100
AcDbBlockReference
  2
GDimGGroup24
 10
0.0
 20
0.0
 30
0.0
  0
INSERT
  5
3FB
330
1F
100
AcDbEntity
  8
Default
100
AcDbBlockReference
  2
GDimGGroup25
 10
0.0
 20
0.0
 30
0.0
  0
INSERT
  5
407
330
1F
100
AcDbEntity
  8
Default
100
AcDbBlockReference
  2
GDimGGroup26
 10
0.0
 20
0.0
 30
0.0
  0
INSERT
  5
415
330
1F
100
AcDbEntity
  8
Default
100
AcDbBlockReference
  2
GDimGGroup27
 10
0.0
 20
0.0
 30
0.0
  0
INSERT
  5
41F
330
1F
100
AcDbEntity
  8
Default
100
AcDbBlockReference
  2
GDimGGroup28
 10
0.0
 20
0.0
 30
0.0
  0
INSERT
  5
42B
330
1F
100
AcDbEntity
  8
Default
100
AcDbBlockReference
  2
GDimGGroup29
 10
0.0
 20
0.0
 30
0.0
  0
INSERT
  5
437
330
1F
100
AcDbEntity
  8
Default
100
AcDbBlockReference
  2
GDimGGroup30
 10
0.0
 20
0.0
 30
0.0
  0
INSERT
  5
443
330
1F
100
AcDbEntity
  8
Default
100
AcDbBlockReference
  2
GDimGGroup31
 10
0.0
 20
0.0
 30
0.0
  0
INSERT
  5
44F
330
1F
100
AcDbEntity
  8
Default
100
AcDbBlockReference
  2
GDimGGroup32
 10
0.0
 20
0.0
 30
0.0
  0
LINE
  5
45B
330
1F
100
AcDbEntity
  8
BORDER
  6
Continuous
 62
     7
 48
25.4
100
AcDbLine
 10
6.2292620399
 20
410.0
 30
0.0
 11
586.2292620399
 21
410.0
 31
0.0
  0
LINE
  5
45C
330
1F
100
AcDbEntity
  8
BORDER
  6
Continuous
 62
     7
 48
25.4
100
AcDbLine
 10
6.2292620399
 20
410.0
 30
0.0
 11
6.2292620399
 21
10.0
 31
0.0
  0
LINE
  5
45D
330
1F
100
AcDbEntity
  8
BORDER
  6
Continuous
 62
     7
 48
25.4
100
AcDbLine
 10
6.2292620399
 20
10.0
 30
0.0
 11
586.2292620399
 21
10.0
 31
0.0
  0
LINE
  5
45E
330
1F
100
AcDbEntity
  8
BORDER
  6
Continuous
 62
     7
 48
25.4
100
AcDbLine
 10
586.2292620399
 20
10.0
 30
0.0
 11
586.2292620399
 21
410.0
 31
0.0
  0
LINE
  5
45F
330
1F
100
AcDbEntity
  8
Default
  6
Continuous
 62
     7
 48
25.4
100
AcDbLine
 10
3.7292620399
 20
412.5
 30
0.0
 11
588.7292620399
 21
412.5
 31
0.0
  0
LINE
  5
460
330
1F
100
AcDbEntity
  8
Default
  6
Continuous
 62
     7
 48
25.4
100
AcDbLine
 10
588.7292620399
 20
412.5
 30
0.0
 11
588.7292620399
 21
7.5
 31
0.0
  0
LINE
  5
461
330
1F
100
AcDbEntity
  8
Default
  6
Continuous
 62
     7
 48
25.4
100
AcDbLine
 10
588.7292620399
 20
7.5
 30
0.0
 11
3.7292620399
 21
7.5
 31
0.0
  0
LINE
  5
462
330
1F
100
AcDbEntity
  8
Default
  6
Continuous
 62
     7
 48
25.4
100
AcDbLine
 10
3.7292620399
 20
7.5
 30
0.0
 11
3.7292620399
 21
412.5
 31
0.0
  0
TEXT
  5
463
330
1F
100
AcDbEntity
  8
Default
  6
Continuous
 62
     7
 48
25.4
100
AcDbText
 10
473.5242219525
 20
28.1561611714
 30
0.0
 40
5.0
  1
TITLE :
  7
SEACAD_arial_ttf
 11
473.5242219525
 21
33.1561611714
 31
0.0
100
AcDbText
 73
     3
  0
TEXT
  5
464
330
1F
100
AcDbEntity
  8
Default
  6
Continuous
 62
     7
 48
25.4
100
AcDbText
 10
473.4498030642
 20
40.2710242694
 30
0.0
 40
5.0
  1
KITAGAWA EUROPE LIMITED
  7
SEACAD_arial_ttf
 11
473.4498030642
 21
45.2710242694
 31
0.0
100
AcDbText
 73
     3
  0
TEXT
  5
465
330
1F
100
AcDbEntity
  8
Default
  6
Continuous
 62
     7
 48
25.4
100
AcDbText
 10
474.0233693351
 20
14.6180387033
 30
0.0
 40
5.0
  1
www.kitagawaeurope.com
  7
SEACAD_arial_ttf
 11
474.0233693351
 21
19.6180387033
 31
0.0
100
AcDbText
 73
     3
  0
TEXT
  5
466
330
1F
100
AcDbEntity
  8
Default
  6
Continuous
 62
     7
 48
25.4
100
AcDbText
 10
497.8463064412
 20
27.8559210467
 30
0.0
 40
5.0
  1
B-24A15 POWER CHUCK
  7
SEACAD_arial_ttf
 11
497.8463064412
 21
32.8559210467
 31
0.0
100
AcDbText
 73
     3
  0
LINE
  5
467
330
1F
100
AcDbEntity
  8
Default
  6
Continuous
 62
     7
 48
25.4
100
AcDbLine
 10
471.5030858285
 20
50.0
 30
0.0
 11
586.2292620399
 21
50.0
 31
0.0
  0
LINE
  5
468
330
1F
100
AcDbEntity
  8
Default
  6
Continuous
 62
     7
 48
25.4
100
AcDbLine
 10
471.5030858285
 20
36.7
 30
0.0
 11
586.2292620399
 21
36.7
 31
0.0
  0
LINE
  5
469
330
1F
100
AcDbEntity
  8
Default
  6
Continuous
 62
     7
 48
25.4
100
AcDbLine
 10
586.2292620399
 20
23.4
 30
0.0
 11
471.5030858285
 21
23.4
 31
0.0
  0
LINE
  5
46A
330
1F
100
AcDbEntity
  8
Default
  6
Continuous
 62
     7
 48
25.4
100
AcDbLine
 10
471.5030858285
 20
50.0
 30
0.0
 11
471.5030858285
 21
10.0
 31
0.0
  0
ENDSEC
  0
SECTION
  2
OBJECTS
  0
DICTIONARY
  5
C
330
0
100
AcDbDictionary
281
     1
  3
ACAD_GROUP
350
D
  3
ACAD_LAYOUT
350
1A
  3
ACAD_MLINESTYLE
350
17
  3
ACAD_PLOTSETTINGS
350
19
  3
ACAD_PLOTSTYLENAME
350
E
  0
DICTIONARY
  5
D
102
{ACAD_REACTORS
330
C
102
}
330
C
100
AcDbDictionary
281
     1
  0
DICTIONARY
  5
1A
102
{ACAD_REACTORS
330
C
102
}
330
C
100
AcDbDictionary
281
     1
  3
Layout1
350
1E
  3
Model
350
22
  0
DICTIONARY
  5
17
102
{ACAD_REACTORS
330
C
102
}
330
C
100
AcDbDictionary
281
     1
  3
Standard
350
18
  0
DICTIONARY
  5
19
102
{ACAD_REACTORS
330
C
102
}
330
C
100
AcDbDictionary
281
     1
  0
ACDBDICTIONARYWDFLT
  5
E
102
{ACAD_REACTORS
330
C
102
}
330
C
100
AcDbDictionary
281
     1
  3
Normal
350
F
100
AcDbDictionaryWithDefault
340
F
  0
LAYOUT
  5
1E
102
{ACAD_REACTORS
330
1A
102
}
330
1A
100
AcDbPlotSettings
  1

  2

  4

  6

 40
0.0
 41
0.0
 42
0.0
 43
0.0
 44
0.0
 45
0.0
 46
0.0
 47
0.0
 48
0.0
 49
0.0
140
0.0
141
0.0
142
1.0
143
1.0
 70
   688
 72
     0
 73
     0
 74
     5
  7

 75
    16
147
1.0
148
0.0
149
0.0
100
AcDbLayout
  1
Layout1
 70
     1
 71
     1
 10
0.0
 20
0.0
 11
594.0
 21
420.0
 12
0.0
 22
0.0
 32
0.0
 14
0.0
 24
0.0
 34
0.0
 15
594.0
 25
420.0
 35
0.0
146
0.0
 13
0.0
 23
0.0
 33
0.0
 16
1.0
 26
0.0
 36
0.0
 17
0.0
 27
1.0
 37
0.0
 76
     0
330
1B
  0
LAYOUT
  5
22
102
{ACAD_REACTORS
330
1A
102
}
330
1A
100
AcDbPlotSettings
  1

  2

  4

  6

 40
0.0
 41
0.0
 42
0.0
 43
0.0
 44
0.0
 45
0.0
 46
0.0
 47
0.0
 48
0.0
 49
0.0
140
0.0
141
0.0
142
1.0
143
1.0
 70
  1712
 72
     0
 73
     0
 74
     0
  7

 75
     0
147
1.0
148
0.0
149
0.0
100
AcDbLayout
  1
Model
 70
     1
 71
     0
 10
0.0
 20
0.0
 11
594.0
 21
420.0
 12
0.0
 22
0.0
 32
0.0
 14
0.0
 24
0.0
 34
0.0
 15
594.0
 25
420.0
 35
0.0
146
0.0
 13
0.0
 23
0.0
 33
0.0
 16
1.0
 26
0.0
 36
0.0
 17
0.0
 27
1.0
 37
0.0
 76
     0
330
1F
  0
MLINESTYLE
  5
18
102
{ACAD_REACTORS
330
17
102
}
330
17
100
AcDbMlineStyle
  2
Standard
 70
     0
  3

 62
   256
 51
90.0
 52
90.0
 71
     2
 49
0.5
 62
   256
  6
BYLAYER
 49
-0.5
 62
   256
  6
BYLAYER
  0
ACDBPLACEHOLDER
  5
F
102
{ACAD_REACTORS
330
E
102
}
330
E
  0
ENDSEC
  0
EOF
