  0
SECTION
  2
HEADER
  9
$ACADVER
  1
AC1015
  9
$ACADMAINTVER
 70
     6
  9
$DWGCODEPAGE
  3
ANSI_1252
  9
$INSBASE
 10
0.0
 20
0.0
 30
0.0
  9
$EXTMIN
 10
0.0
 20
0.0
 30
0.0
  9
$EXTMAX
 10
594.0
 20
420.0
 30
0.0
  9
$LIMMIN
 10
0.0
 20
0.0
  9
$LIMMAX
 10
594.0
 20
420.0
  9
$ORTHOMODE
 70
     0
  9
$REGENMODE
 70
     1
  9
$FILLMODE
 70
     1
  9
$QTEXTMODE
 70
     0
  9
$MIRRTEXT
 70
     1
  9
$LTSCALE
 40
1.0
  9
$ATTMODE
 70
     1
  9
$TEXTSIZE
 40
0.2
  9
$TRACEWID
 40
0.05
  9
$TEXTSTYLE
  7
Standard
  9
$CLAYER
  8
0
  9
$CELTYPE
  6
ByLayer
  9
$CECOLOR
 62
   256
  9
$CELTSCALE
 40
25.4
  9
$DISPSILH
 70
     0
  9
$DIMSCALE
 40
1.0
  9
$DIMASZ
 40
0.18
  9
$DIMEXO
 40
0.0625
  9
$DIMDLI
 40
0.38
  9
$DIMRND
 40
0.0
  9
$DIMDLE
 40
0.0
  9
$DIMEXE
 40
0.18
  9
$DIMTP
 40
0.0
  9
$DIMTM
 40
0.0
  9
$DIMTXT
 40
0.18
  9
$DIMCEN
 40
0.09
  9
$DIMTSZ
 40
0.0
  9
$DIMTOL
 70
     0
  9
$DIMLIM
 70
     0
  9
$DIMTIH
 70
     1
  9
$DIMTOH
 70
     1
  9
$DIMSE1
 70
     0
  9
$DIMSE2
 70
     0
  9
$DIMTAD
 70
     0
  9
$DIMZIN
 70
     0
  9
$DIMBLK
  1

  9
$DIMASO
 70
     1
  9
$DIMSHO
 70
     1
  9
$DIMPOST
  1

  9
$DIMAPOST
  1

  9
$DIMALT
 70
     0
  9
$DIMALTD
 70
     2
  9
$DIMALTF
 40
25.4
  9
$DIMLFAC
 40
1.0
  9
$DIMTOFL
 70
     0
  9
$DIMTVP
 40
0.0
  9
$DIMTIX
 70
     0
  9
$DIMSOXD
 70
     0
  9
$DIMSAH
 70
     0
  9
$DIMBLK1
  1

  9
$DIMBLK2
  1

  9
$DIMSTYLE
  2
Standard
  9
$DIMCLRD
 70
     0
  9
$DIMCLRE
 70
     0
  9
$DIMCLRT
 70
     0
  9
$DIMTFAC
 40
1.0
  9
$DIMGAP
 40
0.09
  9
$DIMJUST
 70
     0
  9
$DIMSD1
 70
     0
  9
$DIMSD2
 70
     0
  9
$DIMTOLJ
 70
     1
  9
$DIMTZIN
 70
     0
  9
$DIMALTZ
 70
     0
  9
$DIMALTTZ
 70
     0
  9
$DIMUPT
 70
     0
  9
$DIMDEC
 70
     4
  9
$DIMTDEC
 70
     4
  9
$DIMALTU
 70
     2
  9
$DIMALTTD
 70
     2
  9
$DIMTXSTY
  7
Standard
  9
$DIMAUNIT
 70
     0
  9
$DIMADEC
 70
     0
  9
$DIMALTRND
 40
0.0
  9
$DIMAZIN
 70
     0
  9
$DIMDSEP
 70
    46
  9
$DIMATFIT
 70
     3
  9
$DIMFRAC
 70
     0
  9
$DIMLDRBLK
  1

  9
$DIMLUNIT
 70
     2
  9
$DIMLWD
 70
    -2
  9
$DIMLWE
 70
    -2
  9
$DIMTMOVE
 70
     0
  9
$LUNITS
 70
     2
  9
$LUPREC
 70
     4
  9
$SKETCHINC
 40
0.1
  9
$FILLETRAD
 40
0.5
  9
$AUNITS
 70
     0
  9
$AUPREC
 70
     0
  9
$MENU
  1
.
  9
$ELEVATION
 40
0.0
  9
$PELEVATION
 40
0.0
  9
$THICKNESS
 40
0.0
  9
$LIMCHECK
 70
     0
  9
$CHAMFERA
 40
0.5
  9
$CHAMFERB
 40
0.5
  9
$CHAMFERC
 40
1.0
  9
$CHAMFERD
 40
0.0
  9
$SKPOLY
 70
     0
  9
$TDCREATE
 40
2454900.415948137
  9
$TDUCREATE
 40
2454900.415948137
  9
$TDUPDATE
 40
2454900.415948148
  9
$TDUUPDATE
 40
2454900.415948148
  9
$TDINDWG
 40
0.0000000116
  9
$TDUSRTIMER
 40
0.0000000116
  9
$USRTIMER
 70
     1
  9
$ANGBASE
 50
0.0
  9
$ANGDIR
 70
     0
  9
$PDMODE
 70
     0
  9
$PDSIZE
 40
0.0
  9
$PLINEWID
 40
0.0
  9
$SPLFRAME
 70
     0
  9
$SPLINETYPE
 70
     6
  9
$SPLINESEGS
 70
     8
  9
$HANDSEED
  5
431
  9
$SURFTAB1
 70
     6
  9
$SURFTAB2
 70
     6
  9
$SURFTYPE
 70
     6
  9
$SURFU
 70
     6
  9
$SURFV
 70
     6
  9
$UCSBASE
  2

  9
$UCSNAME
  2

  9
$UCSORG
 10
0.0
 20
0.0
 30
0.0
  9
$UCSXDIR
 10
1.0
 20
0.0
 30
0.0
  9
$UCSYDIR
 10
0.0
 20
1.0
 30
0.0
  9
$UCSORTHOREF
  2

  9
$UCSORTHOVIEW
 70
     0
  9
$UCSORGTOP
 10
0.0
 20
0.0
 30
0.0
  9
$UCSORGBOTTOM
 10
0.0
 20
0.0
 30
0.0
  9
$UCSORGLEFT
 10
0.0
 20
0.0
 30
0.0
  9
$UCSORGRIGHT
 10
0.0
 20
0.0
 30
0.0
  9
$UCSORGFRONT
 10
0.0
 20
0.0
 30
0.0
  9
$UCSORGBACK
 10
0.0
 20
0.0
 30
0.0
  9
$PUCSBASE
  2

  9
$PUCSNAME
  2

  9
$PUCSORG
 10
0.0
 20
0.0
 30
0.0
  9
$PUCSXDIR
 10
1.0
 20
0.0
 30
0.0
  9
$PUCSYDIR
 10
0.0
 20
1.0
 30
0.0
  9
$PUCSORTHOREF
  2

  9
$PUCSORTHOVIEW
 70
     0
  9
$PUCSORGTOP
 10
0.0
 20
0.0
 30
0.0
  9
$PUCSORGBOTTOM
 10
0.0
 20
0.0
 30
0.0
  9
$PUCSORGLEFT
 10
0.0
 20
0.0
 30
0.0
  9
$PUCSORGRIGHT
 10
0.0
 20
0.0
 30
0.0
  9
$PUCSORGFRONT
 10
0.0
 20
0.0
 30
0.0
  9
$PUCSORGBACK
 10
0.0
 20
0.0
 30
0.0
  9
$USERI1
 70
     0
  9
$USERI2
 70
     0
  9
$USERI3
 70
     0
  9
$USERI4
 70
     0
  9
$USERI5
 70
     0
  9
$USERR1
 40
0.0
  9
$USERR2
 40
0.0
  9
$USERR3
 40
0.0
  9
$USERR4
 40
0.0
  9
$USERR5
 40
0.0
  9
$WORLDVIEW
 70
     1
  9
$SHADEDGE
 70
     3
  9
$SHADEDIF
 70
    70
  9
$TILEMODE
 70
     1
  9
$MAXACTVP
 70
    64
  9
$PINSBASE
 10
0.0
 20
0.0
 30
0.0
  9
$PLIMCHECK
 70
     0
  9
$PEXTMIN
 10
0.0
 20
0.0
 30
0.0
  9
$PEXTMAX
 10
594.0
 20
420.0
 30
0.0
  9
$PLIMMIN
 10
0.0
 20
0.0
  9
$PLIMMAX
 10
594.0
 20
420.0
  9
$UNITMODE
 70
     0
  9
$VISRETAIN
 70
     1
  9
$PLINEGEN
 70
     0
  9
$PSLTSCALE
 70
     1
  9
$TREEDEPTH
 70
  3020
  9
$CMLSTYLE
  2
Standard
  9
$CMLJUST
 70
     0
  9
$CMLSCALE
 40
1.0
  9
$PROXYGRAPHICS
 70
     1
  9
$MEASUREMENT
 70
     1
  9
$CELWEIGHT
370
    -1
  9
$ENDCAPS
280
     0
  9
$JOINSTYLE
280
     0
  9
$LWDISPLAY
290
     0
  9
$INSUNITS
 70
     1
  9
$HYPERLINKBASE
  1

  9
$STYLESHEET
  1

  9
$XEDIT
290
     1
  9
$CEPSNTYPE
380
     0
  9
$PSTYLEMODE
290
     1
  9
$FINGERPRINTGUID
  2
{4B80008A-938F-4C2F-A91A-B6FC36B06DC7}
  9
$VERSIONGUID
  2
{FAEB1C32-E019-11D5-929B-00C0DF256EC4}
  9
$EXTNAMES
290
     1
  9
$PSVPSCALE
 40
0.0
  9
$OLESTARTUP
290
     0
  0
ENDSEC
  0
SECTION
  2
CLASSES
  0
CLASS
  1
ACDBDICTIONARYWDFLT
  2
AcDbDictionaryWithDefault
  3
ObjectDBX Classes
 90
        0
280
     0
281
     0
  0
CLASS
  1
ACDBPLACEHOLDER
  2
AcDbPlaceHolder
  3
ObjectDBX Classes
 90
        0
280
     0
281
     0
  0
CLASS
  1
LAYOUT
  2
AcDbLayout
  3
ObjectDBX Classes
 90
        0
280
     0
281
     0
  0
ENDSEC
  0
SECTION
  2
TABLES
  0
TABLE
  2
VPORT
  5
8
330
0
100
AcDbSymbolTable
 70
     1
  0
VPORT
  5
29
330
8
100
AcDbSymbolTableRecord
100
AcDbViewportTableRecord
  2
*Active
 70
     0
 10
0.0
 20
0.0
 11
1.0
 21
1.0
 12
10.4299065421
 22
4.5
 13
0.0
 23
0.0
 14
0.5
 24
0.5
 15
0.5
 25
0.5
 16
0.0
 26
0.0
 36
1.0
 17
0.0
 27
0.0
 37
0.0
 40
9.0
 41
1.9729729729
 42
50.0
 43
0.0
 44
0.0
 50
0.0
 51
0.0
 71
     0
 72
   100
 73
     1
 74
     3
 75
     0
 76
     0
 77
     0
 78
     0
281
     0
 65
     1
110
0.0
120
0.0
130
0.0
111
1.0
121
0.0
131
0.0
112
0.0
122
1.0
132
0.0
 79
     0
146
0.0
  0
ENDTAB
  0
TABLE
  2
LTYPE
  5
5
330
0
100
AcDbSymbolTable
 70
     3
  0
LTYPE
  5
14
330
5
100
AcDbSymbolTableRecord
100
AcDbLinetypeTableRecord
  2
ByBlock
 70
     0
  3

 72
    65
 73
     0
 40
0.0
  0
LTYPE
  5
15
330
5
100
AcDbSymbolTableRecord
100
AcDbLinetypeTableRecord
  2
ByLayer
 70
     0
  3

 72
    65
 73
     0
 40
0.0
  0
LTYPE
  5
16
330
5
100
AcDbSymbolTableRecord
100
AcDbLinetypeTableRecord
  2
Continuous
 70
     0
  3
Solid line
 72
    65
 73
     0
 40
0.0
  0
LTYPE
  5
7C
330
5
100
AcDbSymbolTableRecord
100
AcDbLinetypeTableRecord
  2
CENTER2
 70
     0
  3
___ _ ___ _ ___ _ ___ _ ___ _ ___ _ ___ _ ___ _
 72
    65
 73
     4
 40
1.125
 49
0.75
 74
     4
 75
     0
340
0
 46
0.0
 50
0.0
 44
0.0
 45
0.0
 49
-0.125
 74
     4
 75
     0
340
0
 46
0.0
 50
0.0
 44
0.0
 45
0.0
 49
0.125
 74
     4
 75
     0
340
0
 46
0.0
 50
0.0
 44
0.0
 45
0.0
 49
-0.125
 74
     4
 75
     0
340
0
 46
0.0
 50
0.0
 44
0.0
 45
0.0
  0
LTYPE
  5
366
330
5
100
AcDbSymbolTableRecord
100
AcDbLinetypeTableRecord
  2
HIDDEN2
 70
     0
  3
_ _ _ _ _ _ _ _ _ _ _ _ _ _ _ _ _ _ _ _ _ _ _ _
 72
    65
 73
     2
 40
0.1875
 49
0.125
 74
     4
 75
     0
340
0
 46
0.0
 50
0.0
 44
0.0
 45
0.0
 49
-0.0625
 74
     4
 75
     0
340
0
 46
0.0
 50
0.0
 44
0.0
 45
0.0
  0
ENDTAB
  0
TABLE
  2
LAYER
  5
2
330
0
100
AcDbSymbolTable
 70
     6
  0
LAYER
  5
10
330
2
100
AcDbSymbolTableRecord
100
AcDbLayerTableRecord
  2
0
 70
     0
 62
     7
  6
Continuous
370
    -3
390
F
  0
LAYER
  5
2A
330
2
100
AcDbSymbolTableRecord
100
AcDbLayerTableRecord
  2
Default
 70
     0
 62
     7
  6
Continuous
370
    -3
390
F
  0
LAYER
  5
67
330
2
100
AcDbSymbolTableRecord
100
AcDbLayerTableRecord
  2
DV1_Default
 70
     0
 62
     7
  6
Continuous
370
    -3
390
F
  0
LAYER
  5
147
330
2
100
AcDbSymbolTableRecord
100
AcDbLayerTableRecord
  2
DV2_Default
 70
     0
 62
     7
  6
Continuous
370
    -3
390
F
  0
LAYER
  5
2D3
330
2
100
AcDbSymbolTableRecord
100
AcDbLayerTableRecord
  2
DV3_Default
 70
     0
 62
     7
  6
Continuous
370
    -3
390
F
  0
LAYER
  5
420
330
2
100
AcDbSymbolTableRecord
100
AcDbLayerTableRecord
  2
BORDER
 70
     0
 62
     7
  6
Continuous
370
    -3
390
F
  0
ENDTAB
  0
TABLE
  2
STYLE
  5
3
330
0
100
AcDbSymbolTable
 70
     3
  0
STYLE
  5
11
330
3
100
AcDbSymbolTableRecord
100
AcDbTextStyleTableRecord
  2
Standard
 70
     0
 40
0.0
 41
1.0
 50
0.0
 71
     0
 42
0.2
  3
txt
  4

  0
STYLE
  5
31
330
3
100
AcDbSymbolTableRecord
100
AcDbTextStyleTableRecord
  2
SEACAD_arial_ttf
 70
     0
 40
0.2
 41
1.0
 50
0.0
 71
     0
 42
0.2
  3
arial.ttf
  4

  0
STYLE
  5
3B
330
3
100
AcDbSymbolTableRecord
100
AcDbTextStyleTableRecord
  2
SEACAD_semeca1_ttf
 70
     0
 40
0.2
 41
1.0
 50
0.0
 71
     0
 42
0.2
  3
semeca1.ttf
  4

  0
ENDTAB
  0
TABLE
  2
VIEW
  5
6
330
0
100
AcDbSymbolTable
 70
     0
  0
ENDTAB
  0
TABLE
  2
UCS
  5
7
330
0
100
AcDbSymbolTable
 70
     0
  0
ENDTAB
  0
TABLE
  2
APPID
  5
9
330
0
100
AcDbSymbolTable
 70
     1
  0
APPID
  5
12
330
9
100
AcDbSymbolTableRecord
100
AcDbRegAppTableRecord
  2
ACAD
 70
     0
  0
ENDTAB
  0
TABLE
  2
DIMSTYLE
  5
A
330
0
100
AcDbSymbolTable
 70
     1
100
AcDbDimStyleTable
  0
DIMSTYLE
105
27
330
A
100
AcDbSymbolTableRecord
100
AcDbDimStyleTableRecord
  2
Standard
 70
     0
340
11
  0
ENDTAB
  0
TABLE
  2
BLOCK_RECORD
  5
1
330
0
100
AcDbSymbolTable
 70
    40
  0
BLOCK_RECORD
  5
1F
330
1
100
AcDbSymbolTableRecord
100
AcDbBlockTableRecord
  2
*Model_Space
340
22
  0
BLOCK_RECORD
  5
1B
330
1
100
AcDbSymbolTableRecord
100
AcDbBlockTableRecord
  2
*Paper_Space
340
1E
  0
BLOCK_RECORD
  5
2B
330
1
100
AcDbSymbolTableRecord
100
AcDbBlockTableRecord
  2
SEANNOT_GROUP
340
0
102
{BLKREFS
331
2C
102
}
  0
BLOCK_RECORD
  5
36
330
1
100
AcDbSymbolTableRecord
100
AcDbBlockTableRecord
  2
SEANNOT_GROUP1
340
0
102
{BLKREFS
331
37
102
}
  0
BLOCK_RECORD
  5
40
330
1
100
AcDbSymbolTableRecord
100
AcDbBlockTableRecord
  2
SEANNOT_GROUP2
340
0
102
{BLKREFS
331
41
102
}
  0
BLOCK_RECORD
  5
4A
330
1
100
AcDbSymbolTableRecord
100
AcDbBlockTableRecord
  2
SEANNOT_GROUP3
340
0
102
{BLKREFS
331
4B
102
}
  0
BLOCK_RECORD
  5
53
330
1
100
AcDbSymbolTableRecord
100
AcDbBlockTableRecord
  2
SEANNOT_GROUP4
340
0
102
{BLKREFS
331
54
102
}
  0
BLOCK_RECORD
  5
5C
330
1
100
AcDbSymbolTableRecord
100
AcDbBlockTableRecord
  2
SEANNOT_GROUP5
340
0
102
{BLKREFS
331
5D
102
}
  0
BLOCK_RECORD
  5
65
330
1
100
AcDbSymbolTableRecord
100
AcDbBlockTableRecord
  2
SE
340
0
102
{BLKREFS
331
66
102
}
  0
BLOCK_RECORD
  5
145
330
1
100
AcDbSymbolTableRecord
100
AcDbBlockTableRecord
  2
SE1
340
0
102
{BLKREFS
331
146
102
}
  0
BLOCK_RECORD
  5
217
330
1
100
AcDbSymbolTableRecord
100
AcDbBlockTableRecord
  2
GDimGGroup
340
0
102
{BLKREFS
331
218
102
}
  0
BLOCK_RECORD
  5
223
330
1
100
AcDbSymbolTableRecord
100
AcDbBlockTableRecord
  2
GDimGGroup1
340
0
102
{BLKREFS
331
224
102
}
  0
BLOCK_RECORD
  5
22E
330
1
100
AcDbSymbolTableRecord
100
AcDbBlockTableRecord
  2
GDimGGroup2
340
0
102
{BLKREFS
331
22F
102
}
  0
BLOCK_RECORD
  5
23B
330
1
100
AcDbSymbolTableRecord
100
AcDbBlockTableRecord
  2
GDimGGroup3
340
0
102
{BLKREFS
331
23C
102
}
  0
BLOCK_RECORD
  5
247
330
1
100
AcDbSymbolTableRecord
100
AcDbBlockTableRecord
  2
GDimGGroup4
340
0
102
{BLKREFS
331
248
102
}
  0
BLOCK_RECORD
  5
254
330
1
100
AcDbSymbolTableRecord
100
AcDbBlockTableRecord
  2
GDimGGroup5
340
0
102
{BLKREFS
331
255
102
}
  0
BLOCK_RECORD
  5
260
330
1
100
AcDbSymbolTableRecord
100
AcDbBlockTableRecord
  2
GDimGGroup6
340
0
102
{BLKREFS
331
261
102
}
  0
BLOCK_RECORD
  5
26C
330
1
100
AcDbSymbolTableRecord
100
AcDbBlockTableRecord
  2
GDimGGroup7
340
0
102
{BLKREFS
331
26D
102
}
  0
BLOCK_RECORD
  5
278
330
1
100
AcDbSymbolTableRecord
100
AcDbBlockTableRecord
  2
GDimGGroup8
340
0
102
{BLKREFS
331
279
102
}
  0
BLOCK_RECORD
  5
285
330
1
100
AcDbSymbolTableRecord
100
AcDbBlockTableRecord
  2
GDimGGroup9
340
0
102
{BLKREFS
331
286
102
}
  0
BLOCK_RECORD
  5
293
330
1
100
AcDbSymbolTableRecord
100
AcDbBlockTableRecord
  2
GDimGGroup10
340
0
102
{BLKREFS
331
294
102
}
  0
BLOCK_RECORD
  5
29F
330
1
100
AcDbSymbolTableRecord
100
AcDbBlockTableRecord
  2
GDimGGroup11
340
0
102
{BLKREFS
331
2A0
102
}
  0
BLOCK_RECORD
  5
2AB
330
1
100
AcDbSymbolTableRecord
100
AcDbBlockTableRecord
  2
GDimGGroup12
340
0
102
{BLKREFS
331
2AC
102
}
  0
BLOCK_RECORD
  5
2B7
330
1
100
AcDbSymbolTableRecord
100
AcDbBlockTableRecord
  2
GDimGGroup13
340
0
102
{BLKREFS
331
2B8
102
}
  0
BLOCK_RECORD
  5
2C5
330
1
100
AcDbSymbolTableRecord
100
AcDbBlockTableRecord
  2
GDimGGroup14
340
0
102
{BLKREFS
331
2C6
102
}
  0
BLOCK_RECORD
  5
2D1
330
1
100
AcDbSymbolTableRecord
100
AcDbBlockTableRecord
  2
SE2
340
0
102
{BLKREFS
331
2D2
102
}
  0
BLOCK_RECORD
  5
36A
330
1
100
AcDbSymbolTableRecord
100
AcDbBlockTableRecord
  2
GDimGGroup15
340
0
102
{BLKREFS
331
36B
102
}
  0
BLOCK_RECORD
  5
377
330
1
100
AcDbSymbolTableRecord
100
AcDbBlockTableRecord
  2
GDimGGroup16
340
0
102
{BLKREFS
331
378
102
}
  0
BLOCK_RECORD
  5
383
330
1
100
AcDbSymbolTableRecord
100
AcDbBlockTableRecord
  2
GDimGGroup17
340
0
102
{BLKREFS
331
384
102
}
  0
BLOCK_RECORD
  5
38F
330
1
100
AcDbSymbolTableRecord
100
AcDbBlockTableRecord
  2
GDimGGroup18
340
0
102
{BLKREFS
331
390
102
}
  0
BLOCK_RECORD
  5
39B
330
1
100
AcDbSymbolTableRecord
100
AcDbBlockTableRecord
  2
GDimGGroup19
340
0
102
{BLKREFS
331
39C
102
}
  0
BLOCK_RECORD
  5
3A8
330
1
100
AcDbSymbolTableRecord
100
AcDbBlockTableRecord
  2
GDimGGroup20
340
0
102
{BLKREFS
331
3A9
102
}
  0
BLOCK_RECORD
  5
3B3
330
1
100
AcDbSymbolTableRecord
100
AcDbBlockTableRecord
  2
GDimGGroup21
340
0
102
{BLKREFS
331
3B4
102
}
  0
BLOCK_RECORD
  5
3C1
330
1
100
AcDbSymbolTableRecord
100
AcDbBlockTableRecord
  2
GDimGGroup22
340
0
102
{BLKREFS
331
3C2
102
}
  0
BLOCK_RECORD
  5
3CF
330
1
100
AcDbSymbolTableRecord
100
AcDbBlockTableRecord
  2
GDimGGroup23
340
0
102
{BLKREFS
331
3D0
102
}
  0
BLOCK_RECORD
  5
3DB
330
1
100
AcDbSymbolTableRecord
100
AcDbBlockTableRecord
  2
GDimGGroup24
340
0
102
{BLKREFS
331
3DC
102
}
  0
BLOCK_RECORD
  5
3E5
330
1
100
AcDbSymbolTableRecord
100
AcDbBlockTableRecord
  2
GDimGGroup25
340
0
102
{BLKREFS
331
3E6
102
}
  0
BLOCK_RECORD
  5
3F0
330
1
100
AcDbSymbolTableRecord
100
AcDbBlockTableRecord
  2
GDimGGroup26
340
0
102
{BLKREFS
331
3F1
102
}
  0
BLOCK_RECORD
  5
3FC
330
1
100
AcDbSymbolTableRecord
100
AcDbBlockTableRecord
  2
GDimGGroup27
340
0
102
{BLKREFS
331
3FD
102
}
  0
BLOCK_RECORD
  5
408
330
1
100
AcDbSymbolTableRecord
100
AcDbBlockTableRecord
  2
GDimGGroup28
340
0
102
{BLKREFS
331
409
102
}
  0
BLOCK_RECORD
  5
414
330
1
100
AcDbSymbolTableRecord
100
AcDbBlockTableRecord
  2
GDimGGroup29
340
0
102
{BLKREFS
331
415
102
}
  0
ENDTAB
  0
ENDSEC
  0
SECTION
  2
BLOCKS
  0
BLOCK
  5
20
330
1F
100
AcDbEntity
  8
0
100
AcDbBlockBegin
  2
*Model_Space
 70
     0
 71
     0
 10
0.0
 20
0.0
 30
0.0
  3
*Model_Space
  1

  0
ENDBLK
  5
21
330
1F
100
AcDbEntity
  8
0
100
AcDbBlockEnd
  0
BLOCK
  5
1C
330
1B
100
AcDbEntity
 67
     1
  8
0
100
AcDbBlockBegin
  2
*Paper_Space
 70
     0
 71
     0
 10
0.0
 20
0.0
 30
0.0
  3
*Paper_Space
  1

  0
ENDBLK
  5
1D
330
1B
100
AcDbEntity
 67
     1
  8
0
100
AcDbBlockEnd
  0
BLOCK
  5
34
330
2B
100
AcDbEntity
  8
0
100
AcDbBlockBegin
  2
SEANNOT_GROUP
 70
     0
 71
     0
 10
0.0
 20
0.0
 30
0.0
  3
SEANNOT_GROUP
  1

  0
LWPOLYLINE
  5
2D
330
2B
100
AcDbEntity
  8
Default
  6
Continuous
 62
     7
 48
25.4
100
AcDbPolyline
 90
        2
 70
     0
 43
0.0
 10
244.8627204878
 20
387.9483053998
 10
211.5693673676
 20
362.9908438757
  0
HATCH
  5
2E
330
2B
100
AcDbEntity
  8
Default
  6
Continuous
 62
     7
 48
25.4
100
AcDbHatch
 10
0.0
 20
0.0
 30
0.0
210
0.0
220
0.0
230
1.0
  2
SOLID
 70
     1
 71
     0
 91
        1
 92
        1
 93
        3
 72
     1
 10
214.3700753989252
 20
365.9235014639357
 11
211.5693673675755
 21
362.9908438757205
 72
     1
 10
211.5693673675755
 20
362.9908438757205
 11
215.1698179663815
 21
364.856641692243
 72
     1
 10
215.1698179663815
 20
364.8566416922431
 11
214.3700753989252
 21
365.9235014639357
 97
        0
 75
     0
 76
     1
 98
        0
  0
LWPOLYLINE
  5
2F
330
2B
100
AcDbEntity
  8
Default
  6
Continuous
 62
     7
 48
25.4
370
    20
100
AcDbPolyline
 90
        4
 70
     1
 43
0.00025
 10
214.3700753989
 20
365.9235014639
 10
211.5693673676
 20
362.9908438757
 10
215.1698179664
 20
364.8566416922
 10
214.3700753989
 20
365.9235014639
  0
LINE
  5
30
330
2B
100
AcDbEntity
  8
Default
  6
Continuous
 62
     7
 48
25.4
100
AcDbLine
 10
244.8627204878
 20
387.9483053998
 30
0.0
 11
316.703300198
 21
387.9483053998
 31
0.0
  0
TEXT
  5
32
330
2B
100
AcDbEntity
  8
Default
  6
Continuous
 62
     7
 48
25.4
100
AcDbText
 10
244.8627204878
 20
388.9483053998
 30
0.0
 40
4.0
  1
SERRATION PITCH 1.5X60
  7
SEACAD_arial_ttf
 11
244.8627204878
 21
392.9483053998
 31
0.0
100
AcDbText
 73
     3
  0
TEXT
  5
33
330
2B
100
AcDbEntity
  8
Default
  6
Continuous
 62
     7
 48
25.4
100
AcDbText
 10
315.0366335313
 20
388.9483053998
 30
0.0
 40
4.0
  1
°
  7
SEACAD_arial_ttf
 11
315.0366335313
 21
392.9483053998
 31
0.0
100
AcDbText
 73
     3
  0
ENDBLK
  5
35
330
2B
100
AcDbEntity
  8
0
100
AcDbBlockEnd
  0
BLOCK
  5
3E
330
36
100
AcDbEntity
  8
0
100
AcDbBlockBegin
  2
SEANNOT_GROUP1
 70
     0
 71
     0
 10
0.0
 20
0.0
 30
0.0
  3
SEANNOT_GROUP1
  1

  0
LWPOLYLINE
  5
38
330
36
100
AcDbEntity
  8
Default
  6
Continuous
 62
     7
 48
25.4
100
AcDbPolyline
 90
        2
 70
     0
 43
0.0
 10
231.301950646
 20
279.3902098839
 10
231.301950646
 20
254.7076561587
  0
HATCH
  5
39
330
36
100
AcDbEntity
  8
Default
  6
Continuous
 62
     7
 48
25.4
100
AcDbHatch
 10
0.0
 20
0.0
 30
0.0
210
0.0
220
0.0
230
1.0
  2
SOLID
 70
     1
 71
     0
 91
        1
 92
        1
 93
        3
 72
     1
 10
230.635283947665
 20
258.7076563487158
 11
231.3019506459966
 21
254.707656158726
 72
     1
 10
231.3019506459966
 20
254.707656158726
 11
231.9686173443282
 21
258.7076563487158
 72
     1
 10
231.9686173443282
 20
258.7076563487158
 11
230.635283947665
 21
258.7076563487158
 97
        0
 75
     0
 76
     1
 98
        0
  0
LWPOLYLINE
  5
3A
330
36
100
AcDbEntity
  8
Default
  6
Continuous
 62
     7
 48
25.4
370
    20
100
AcDbPolyline
 90
        4
 70
     1
 43
0.00025
 10
230.6352839477
 20
258.7076563487
 10
231.301950646
 20
254.7076561587
 10
231.9686173443
 20
258.7076563487
 10
230.6352839477
 20
258.7076563487
  0
TEXT
  5
3C
330
36
100
AcDbEntity
  8
Default
  6
Continuous
 62
     7
 48
25.4
100
AcDbText
 10
232.701950646
 20
277.3902098839
 30
0.0
 40
4.0
  1
O
  7
SEACAD_semeca1_ttf
 11
232.701950646
 21
281.3902098839
 31
0.0
100
AcDbText
 73
     3
  0
TEXT
  5
3D
330
36
100
AcDbEntity
  8
Default
  6
Continuous
 62
     7
 48
25.4
100
AcDbText
 10
237.2633541548
 20
277.3902098839
 30
0.0
 40
4.0
  1
133.4
  7
SEACAD_arial_ttf
 11
237.2633541548
 21
281.3902098839
 31
0.0
100
AcDbText
 73
     3
  0
ENDBLK
  5
3F
330
36
100
AcDbEntity
  8
0
100
AcDbBlockEnd
  0
BLOCK
  5
48
330
40
100
AcDbEntity
  8
0
100
AcDbBlockBegin
  2
SEANNOT_GROUP2
 70
     0
 71
     0
 10
0.0
 20
0.0
 30
0.0
  3
SEANNOT_GROUP2
  1

  0
LWPOLYLINE
  5
42
330
40
100
AcDbEntity
  8
Default
  6
Continuous
 62
     7
 48
25.4
100
AcDbPolyline
 90
        2
 70
     0
 43
0.0
 10
133.7833679823
 20
344.1127792205
 10
133.7833679823
 20
354.2691451153
  0
HATCH
  5
43
330
40
100
AcDbEntity
  8
Default
  6
Continuous
 62
     7
 48
25.4
100
AcDbHatch
 10
0.0
 20
0.0
 30
0.0
210
0.0
220
0.0
230
1.0
  2
SOLID
 70
     1
 71
     0
 91
        1
 92
        1
 93
        3
 72
     1
 10
134.450034680668
 20
350.2691449252895
 11
133.7833679823364
 21
354.2691451152793
 72
     1
 10
133.7833679823364
 20
354.2691451152793
 11
133.1167012840048
 21
350.2691449252895
 72
     1
 10
133.1167012840048
 20
350.2691449252895
 11
134.450034680668
 21
350.2691449252895
 97
        0
 75
     0
 76
     1
 98
        0
  0
LWPOLYLINE
  5
44
330
40
100
AcDbEntity
  8
Default
  6
Continuous
 62
     7
 48
25.4
370
    20
100
AcDbPolyline
 90
        4
 70
     1
 43
0.00025
 10
134.4500346807
 20
350.2691449253
 10
133.7833679823
 20
354.2691451153
 10
133.116701284
 20
350.2691449253
 10
134.4500346807
 20
350.2691449253
  0
LINE
  5
45
330
40
100
AcDbEntity
  8
Default
  6
Continuous
 62
     7
 48
25.4
100
AcDbLine
 10
135.3920222911
 20
354.2691451153
 30
0.0
 11
131.7833679823
 21
354.2691451153
 31
0.0
  0
TEXT
  5
46
330
40
100
AcDbEntity
  8
Default
  6
Continuous
 62
     7
 48
25.4
100
AcDbText
 10
118.4306601257
 20
342.1127792205
 30
0.0
 40
4.0
  1
O
  7
SEACAD_semeca1_ttf
 11
118.4306601257
 21
346.1127792205
 31
0.0
100
AcDbText
 73
     3
  0
TEXT
  5
47
330
40
100
AcDbEntity
  8
Default
  6
Continuous
 62
     7
 48
25.4
100
AcDbText
 10
122.9920636345
 20
342.1127792205
 30
0.0
 40
4.0
  1
150
  7
SEACAD_arial_ttf
 11
122.9920636345
 21
346.1127792205
 31
0.0
100
AcDbText
 73
     3
  0
ENDBLK
  5
49
330
40
100
AcDbEntity
  8
0
100
AcDbBlockEnd
  0
BLOCK
  5
51
330
4A
100
AcDbEntity
  8
0
100
AcDbBlockBegin
  2
SEANNOT_GROUP3
 70
     0
 71
     0
 10
0.0
 20
0.0
 30
0.0
  3
SEANNOT_GROUP3
  1

  0
LWPOLYLINE
  5
4C
330
4A
100
AcDbEntity
  8
Default
  6
Continuous
 62
     7
 48
25.4
100
AcDbPolyline
 90
        2
 70
     0
 43
0.0
 10
169.4287472651
 20
348.0831769683
 10
163.0499955528
 20
328.7195232189
  0
HATCH
  5
4D
330
4A
100
AcDbEntity
  8
Default
  6
Continuous
 62
     7
 48
25.4
100
AcDbHatch
 10
0.0
 20
0.0
 30
0.0
210
0.0
220
0.0
230
1.0
  2
SOLID
 70
     1
 71
     0
 91
        1
 92
        1
 93
        3
 72
     1
 10
163.6683188212182
 20
332.7272809887948
 11
163.049995552796
 21
328.7195232188802
 72
     1
 10
163.0499955527961
 20
328.7195232188802
 11
164.9347092726272
 21
332.3101081574192
 72
     1
 10
164.9347092726271
 20
332.3101081574192
 11
163.6683188212182
 21
332.7272809887947
 97
        0
 75
     0
 76
     1
 98
        0
  0
LWPOLYLINE
  5
4E
330
4A
100
AcDbEntity
  8
Default
  6
Continuous
 62
     7
 48
25.4
370
    20
100
AcDbPolyline
 90
        4
 70
     1
 43
0.00025
 10
163.6683188212
 20
332.7272809888
 10
163.0499955528
 20
328.7195232189
 10
164.9347092726
 20
332.3101081574
 10
163.6683188212
 20
332.7272809888
  0
LINE
  5
4F
330
4A
100
AcDbEntity
  8
Default
  6
Continuous
 62
     7
 48
25.4
100
AcDbLine
 10
169.4287472651
 20
348.0831769683
 30
0.0
 11
205.1678776999
 21
348.0831769683
 31
0.0
  0
TEXT
  5
50
330
4A
100
AcDbEntity
  8
Default
  6
Continuous
 62
     7
 48
25.4
100
AcDbText
 10
169.4287472651
 20
349.0831769683
 30
0.0
 40
4.0
  1
MAX M75X2.0
  7
SEACAD_arial_ttf
 11
169.4287472651
 21
353.0831769683
 31
0.0
100
AcDbText
 73
     3
  0
ENDBLK
  5
52
330
4A
100
AcDbEntity
  8
0
100
AcDbBlockEnd
  0
BLOCK
  5
5A
330
53
100
AcDbEntity
  8
0
100
AcDbBlockBegin
  2
SEANNOT_GROUP4
 70
     0
 71
     0
 10
0.0
 20
0.0
 30
0.0
  3
SEANNOT_GROUP4
  1

  0
LWPOLYLINE
  5
55
330
53
100
AcDbEntity
  8
Default
  6
Continuous
 62
     7
 48
25.4
100
AcDbPolyline
 90
        2
 70
     0
 43
0.0
 10
110.601745378
 20
233.9824704004
 10
130.2802999757
 20
250.4284491714
  0
HATCH
  5
56
330
53
100
AcDbEntity
  8
Default
  6
Continuous
 62
     7
 48
25.4
100
AcDbHatch
 10
0.0
 20
0.0
 30
0.0
210
0.0
220
0.0
230
1.0
  2
SOLID
 70
     1
 71
     0
 91
        1
 92
        1
 93
        3
 72
     1
 10
127.6385500922983
 20
247.3518270691085
 11
130.2802999756778
 21
250.42844917139
 72
     1
 10
130.2802999756778
 20
250.4284491713901
 11
126.783523998768
 21
248.3749147124901
 72
     1
 10
126.783523998768
 20
248.3749147124901
 11
127.6385500922983
 21
247.3518270691085
 97
        0
 75
     0
 76
     1
 98
        0
  0
LWPOLYLINE
  5
57
330
53
100
AcDbEntity
  8
Default
  6
Continuous
 62
     7
 48
25.4
370
    20
100
AcDbPolyline
 90
        4
 70
     1
 43
0.00025
 10
127.6385500923
 20
247.3518270691
 10
130.2802999757
 20
250.4284491714
 10
126.7835239988
 20
248.3749147125
 10
127.6385500923
 20
247.3518270691
  0
LINE
  5
58
330
53
100
AcDbEntity
  8
Default
  6
Continuous
 62
     7
 48
25.4
100
AcDbLine
 10
110.601745378
 20
233.9824704004
 30
0.0
 11
91.6452236389
 21
233.9824704004
 31
0.0
  0
TEXT
  5
59
330
53
100
AcDbEntity
  8
Default
  6
Continuous
 62
     7
 48
25.4
100
AcDbText
 10
91.6452236389
 20
234.9824704004
 30
0.0
 40
4.0
  1
3 - M12
  7
SEACAD_arial_ttf
 11
91.6452236389
 21
238.9824704004
 31
0.0
100
AcDbText
 73
     3
  0
ENDBLK
  5
5B
330
53
100
AcDbEntity
  8
0
100
AcDbBlockEnd
  0
BLOCK
  5
63
330
5C
100
AcDbEntity
  8
0
100
AcDbBlockBegin
  2
SEANNOT_GROUP5
 70
     0
 71
     0
 10
0.0
 20
0.0
 30
0.0
  3
SEANNOT_GROUP5
  1

  0
LWPOLYLINE
  5
5E
330
5C
100
AcDbEntity
  8
Default
  6
Continuous
 62
     7
 48
25.4
100
AcDbPolyline
 90
        2
 70
     0
 43
0.0
 10
364.6685471004
 20
366.6599681096
 10
383.6890622219
 20
317.1986864083
  0
HATCH
  5
5F
330
5C
100
AcDbEntity
  8
Default
  6
Continuous
 62
     7
 48
25.4
100
AcDbHatch
 10
0.0
 20
0.0
 30
0.0
210
0.0
220
0.0
230
1.0
  2
SOLID
 70
     1
 71
     0
 91
        1
 92
        1
 93
        3
 72
     1
 10
381.631103396663
 20
320.6928603422269
 11
383.689062221853
 21
317.1986864083185
 72
     1
 10
383.689062221853
 20
317.1986864083185
 11
382.8755900144274
 21
321.1714321809963
 72
     1
 10
382.8755900144274
 20
321.1714321809963
 11
381.631103396663
 21
320.6928603422269
 97
        0
 75
     0
 76
     1
 98
        0
  0
LWPOLYLINE
  5
60
330
5C
100
AcDbEntity
  8
Default
  6
Continuous
 62
     7
 48
25.4
370
    20
100
AcDbPolyline
 90
        4
 70
     1
 43
0.00025
 10
381.6311033967
 20
320.6928603422
 10
383.6890622219
 20
317.1986864083
 10
382.8755900144
 20
321.171432181
 10
381.6311033967
 20
320.6928603422
  0
LINE
  5
61
330
5C
100
AcDbEntity
  8
Default
  6
Continuous
 62
     7
 48
25.4
100
AcDbLine
 10
364.6685471004
 20
366.6599681096
 30
0.0
 11
348.8424601439
 21
366.6599681096
 31
0.0
  0
TEXT
  5
62
330
5C
100
AcDbEntity
  8
Default
  6
Continuous
 62
     7
 48
25.4
100
AcDbText
 10
348.8424601439
 20
367.6599681096
 30
0.0
 40
4.0
  1
3 - M6
  7
SEACAD_arial_ttf
 11
348.8424601439
 21
371.6599681096
 31
0.0
100
AcDbText
 73
     3
  0
ENDBLK
  5
64
330
5C
100
AcDbEntity
  8
0
100
AcDbBlockEnd
  0
BLOCK
  5
143
330
65
100
AcDbEntity
  8
0
100
AcDbBlockBegin
  2
SE
 70
     0
 71
     0
 10
0.0
 20
0.0
 30
0.0
  3
SE
  1

  0
LINE
  5
68
330
65
100
AcDbEntity
  8
DV1_Default
  6
Continuous
 62
     7
 48
25.4
100
AcDbLine
 10
190.4086018204
 20
265.8356403771
 30
0.0
 11
189.7053931307
 21
266.5081364129
 31
0.0
  0
LINE
  5
69
330
65
100
AcDbEntity
  8
DV1_Default
  6
Continuous
 62
     7
 48
25.4
100
AcDbLine
 10
161.369790371
 20
271.3937647844
 30
0.0
 11
161.9272094601
 21
271.9373597935
 31
0.0
  0
LINE
  5
6A
330
65
100
AcDbEntity
  8
DV1_Default
  6
Continuous
 62
     7
 48
25.4
100
AcDbLine
 10
166.9659939148
 20
271.9373597935
 30
0.0
 11
161.9272094601
 21
271.9373597935
 31
0.0
  0
LINE
  5
6B
330
65
100
AcDbEntity
  8
DV1_Default
  6
Continuous
 62
     7
 48
25.4
100
AcDbLine
 10
198.8911757844
 20
262.0843734183
 30
0.0
 11
198.8911757844
 21
248.0843734183
 31
0.0
  0
LINE
  5
6C
330
65
100
AcDbEntity
  8
DV1_Default
  6
Continuous
 62
     7
 48
25.4
100
AcDbLine
 10
198.8911757844
 20
262.0843734183
 30
0.0
 11
210.1849123233
 21
262.0843734183
 31
0.0
  0
LINE
  5
6D
330
65
100
AcDbEntity
  8
DV1_Default
  6
Continuous
 62
     7
 48
25.4
100
AcDbLine
 10
198.8911757844
 20
248.0843734183
 30
0.0
 11
210.1849123233
 21
248.0843734183
 31
0.0
  0
LINE
  5
6E
330
65
100
AcDbEntity
  8
DV1_Default
  6
Continuous
 62
     7
 48
25.4
100
AcDbLine
 10
149.984190827
 20
243.1786203959
 30
0.0
 11
149.984190827
 21
250.4284491714
 31
0.0
  0
LINE
  5
6F
330
65
100
AcDbEntity
  8
DV1_Default
  6
Continuous
 62
     7
 48
25.4
100
AcDbLine
 10
156.7189464461
 20
259.5260943505
 30
0.0
 11
156.7189464461
 21
250.4284491714
 31
0.0
  0
LINE
  5
70
330
65
100
AcDbEntity
  8
DV1_Default
  6
Continuous
 62
     7
 48
25.4
100
AcDbLine
 10
149.984190827
 20
249.7284514446
 30
0.0
 11
198.8911757844
 21
249.7284514446
 31
0.0
  0
LINE
  5
71
330
65
100
AcDbEntity
  8
DV1_Default
  6
Continuous
 62
     7
 48
25.4
100
AcDbLine
 10
161.184190827
 20
260.2284519977
 30
0.0
 11
198.8911757844
 21
260.2284519977
 31
0.0
  0
LINE
  5
72
330
65
100
AcDbEntity
  8
DV1_Default
  6
Continuous
 62
     7
 48
25.4
100
AcDbLine
 10
189.7053931307
 20
266.5081364129
 30
0.0
 11
189.7053931307
 21
277.2695232189
 31
0.0
  0
LINE
  5
73
330
65
100
AcDbEntity
  8
DV1_Default
  6
Continuous
 62
     7
 48
25.4
100
AcDbLine
 10
197.3369527811
 20
277.2695232189
 30
0.0
 11
197.3369527811
 21
273.2443465652
 31
0.0
  0
LINE
  5
74
330
65
100
AcDbEntity
  8
DV1_Default
  6
Continuous
 62
     7
 48
25.4
100
AcDbLine
 10
197.3369527811
 20
273.2443465652
 30
0.0
 11
190.728663059
 21
273.2443465652
 31
0.0
  0
LINE
  5
75
330
65
100
AcDbEntity
  8
DV1_Default
  6
Continuous
 62
     7
 48
25.4
100
AcDbLine
 10
206.4571328087
 20
269.7795239868
 30
0.0
 11
210.1849123233
 21
269.7795239868
 31
0.0
  0
LINE
  5
76
330
65
100
AcDbEntity
  8
DV1_Default
  6
Continuous
 62
     7
 48
25.4
100
AcDbLine
 10
161.369790371
 20
263.5045373116
 30
0.0
 11
161.369790371
 21
271.3937647844
 31
0.0
  0
LINE
  5
77
330
65
100
AcDbEntity
  8
DV1_Default
  6
Continuous
 62
     7
 48
25.4
100
AcDbLine
 10
166.9659939148
 20
262.7468622387
 30
0.0
 11
161.184190827
 21
262.7468622387
 31
0.0
  0
LINE
  5
78
330
65
100
AcDbEntity
  8
DV1_Default
  6
Continuous
 62
     7
 48
25.4
100
AcDbLine
 10
166.9659939148
 20
272.2047459258
 30
0.0
 11
161.184190827
 21
272.2047459258
 31
0.0
  0
LINE
  5
79
330
65
100
AcDbEntity
  8
DV1_Default
  6
Continuous
 62
     7
 48
25.4
100
AcDbLine
 10
161.9272094601
 20
271.9373597935
 30
0.0
 11
161.9272094601
 21
262.9662729094
 31
0.0
  0
LINE
  5
7A
330
65
100
AcDbEntity
  8
DV1_Default
  6
Continuous
 62
     7
 48
25.4
100
AcDbLine
 10
183.1639327832
 20
264.7757354033
 30
0.0
 11
183.1639327832
 21
270.1758727612
 31
0.0
  0
LINE
  5
7B
330
65
100
AcDbEntity
  8
DV1_Default
  6
Continuous
 62
     7
 48
25.4
100
AcDbLine
 10
183.1639327832
 20
270.1758727612
 30
0.0
 11
166.9756503859
 21
270.1758727612
 31
0.0
  0
LINE
  5
7D
330
65
100
AcDbEntity
  8
DV1_Default
  6
CENTER2
 62
     7
 48
25.4
100
AcDbLine
 10
158.919790371
 20
267.449151048
 30
0.0
 11
187.9157523572
 21
267.449151048
 31
0.0
  0
LINE
  5
7E
330
65
100
AcDbEntity
  8
DV1_Default
  6
Continuous
 62
     7
 48
25.4
100
AcDbLine
 10
166.9659939148
 20
262.7468622387
 30
0.0
 11
166.9659939148
 21
272.2047459258
 31
0.0
  0
LINE
  5
7F
330
65
100
AcDbEntity
  8
DV1_Default
  6
Continuous
 62
     7
 48
25.4
100
AcDbLine
 10
161.9272094601
 20
262.9662729094
 30
0.0
 11
166.9659939148
 21
262.9662729094
 31
0.0
  0
LINE
  5
80
330
65
100
AcDbEntity
  8
DV1_Default
  6
Continuous
 62
     7
 48
25.4
100
AcDbLine
 10
161.9272094601
 20
262.9662729094
 30
0.0
 11
161.369790371
 21
263.5045373116
 31
0.0
  0
LINE
  5
81
330
65
100
AcDbEntity
  8
DV1_Default
  6
Continuous
 62
     7
 48
25.4
100
AcDbLine
 10
166.9659939148
 20
264.7757354033
 30
0.0
 11
183.1639327832
 21
264.7757354033
 31
0.0
  0
LINE
  5
82
330
65
100
AcDbEntity
  8
DV1_Default
  6
Continuous
 62
     7
 48
25.4
100
AcDbLine
 10
166.9659939148
 20
265.1257354033
 30
0.0
 11
183.1639327832
 21
265.1257354033
 31
0.0
  0
LINE
  5
83
330
65
100
AcDbEntity
  8
DV1_Default
  6
Continuous
 62
     7
 48
25.4
100
AcDbLine
 10
166.9659939148
 20
269.8258727612
 30
0.0
 11
183.1639327832
 21
269.8258727612
 31
0.0
  0
LINE
  5
84
330
65
100
AcDbEntity
  8
DV1_Default
  6
Continuous
 62
     7
 48
25.4
100
AcDbLine
 10
210.1849123233
 20
229.6695232189
 30
0.0
 11
210.1849123233
 21
373.8695232189
 31
0.0
  0
LINE
  5
85
330
65
100
AcDbEntity
  8
DV1_Default
  6
Continuous
 62
     7
 48
25.4
100
AcDbLine
 10
208.7849123233
 20
375.2695232189
 30
0.0
 11
147.884190827
 21
375.2695232189
 31
0.0
  0
SPLINE
  5
86
330
65
100
AcDbEntity
  8
DV1_Default
  6
Continuous
 62
     7
 48
25.4
100
AcDbSpline
210
0.0
220
0.0
230
1.0
 70
     8
 71
     3
 72
    12
 73
     8
 74
     0
 42
0.0000000001
 43
0.0000000001
 40
0.0
 40
0.0
 40
0.0
 40
0.0
 40
0.2824399461800937
 40
0.5531714371119066
 40
0.7886720800337442
 40
0.9590734034124027
 40
1.0
 40
1.0
 40
1.0
 40
1.0
 10
149.9823534017457
 20
359.4268578198856
 30
0.0
 10
157.9491286017175
 20
359.971330960827
 30
0.0
 10
167.48086531605
 20
353.7670435453443
 30
0.0
 10
162.8193679625474
 20
344.8197180781667
 30
0.0
 10
171.9614077930878
 20
334.0620994618514
 30
0.0
 10
176.9629561384428
 20
330.4412172653758
 30
0.0
 10
179.599429782838
 20
327.093091211585
 30
0.0
 10
180.2755362139772
 20
326.2695232138527
 30
0.0
  0
LINE
  5
87
330
65
100
AcDbEntity
  8
DV1_Default
  6
Continuous
 62
     7
 48
25.4
100
AcDbLine
 10
147.884190827
 20
228.2695232189
 30
0.0
 11
208.7849123233
 21
228.2695232189
 31
0.0
  0
LINE
  5
88
330
65
100
AcDbEntity
  8
DV1_Default
  6
CENTER2
 62
     7
 48
25.4
100
AcDbLine
 10
133.9750663523
 20
301.7695232189
 30
0.0
 11
258.2110633143
 21
301.7695232189
 31
0.0
  0
LINE
  5
89
330
65
100
AcDbEntity
  8
DV1_Default
  6
Continuous
 62
     7
 48
25.4
100
AcDbLine
 10
146.484190827
 20
229.6695232189
 30
0.0
 11
146.484190827
 21
243.1786203959
 31
0.0
  0
LINE
  5
8A
330
65
100
AcDbEntity
  8
DV1_Default
  6
Continuous
 62
     7
 48
25.4
100
AcDbLine
 10
210.1849123233
 20
277.1771610598
 30
0.0
 11
207.2054942711
 21
277.1771610598
 31
0.0
  0
LINE
  5
8B
330
65
100
AcDbEntity
  8
DV1_Default
  6
Continuous
 62
     7
 48
25.4
100
AcDbLine
 10
207.2054942711
 20
277.1771610598
 30
0.0
 11
207.2054942711
 21
270.1771610598
 31
0.0
  0
LINE
  5
8C
330
65
100
AcDbEntity
  8
DV1_Default
  6
Continuous
 62
     7
 48
25.4
100
AcDbLine
 10
207.2054942711
 20
270.1771610598
 30
0.0
 11
210.1849123233
 21
270.1771610598
 31
0.0
  0
LINE
  5
8D
330
65
100
AcDbEntity
  8
DV1_Default
  6
CENTER2
 62
     7
 48
25.4
100
AcDbLine
 10
213.3924318873
 20
273.6771610598
 30
0.0
 11
197.869299127
 21
273.6771610598
 31
0.0
  0
LINE
  5
8E
330
65
100
AcDbEntity
  8
DV1_Default
  6
Continuous
 62
     7
 48
25.4
100
AcDbLine
 10
207.2054942711
 20
275.4222392705
 30
0.0
 11
199.5095413343
 21
275.4222392705
 31
0.0
  0
LINE
  5
8F
330
65
100
AcDbEntity
  8
DV1_Default
  6
Continuous
 62
     7
 48
25.4
100
AcDbLine
 10
199.5095413343
 20
275.4222392705
 30
0.0
 11
199.5095413343
 21
271.9222392705
 31
0.0
  0
LINE
  5
90
330
65
100
AcDbEntity
  8
DV1_Default
  6
Continuous
 62
     7
 48
25.4
100
AcDbLine
 10
199.5095413343
 20
271.9222392705
 30
0.0
 11
207.2054942711
 21
271.9222392705
 31
0.0
  0
LINE
  5
91
330
65
100
AcDbEntity
  8
DV1_Default
  6
Continuous
 62
     7
 48
25.4
100
AcDbLine
 10
207.2054942711
 20
272.1578364755
 30
0.0
 11
199.5095413343
 21
272.1578364755
 31
0.0
  0
LINE
  5
92
330
65
100
AcDbEntity
  8
DV1_Default
  6
Continuous
 62
     7
 48
25.4
100
AcDbLine
 10
207.2054942711
 20
275.2061073971
 30
0.0
 11
199.5095413343
 21
275.2061073971
 31
0.0
  0
LINE
  5
93
330
65
100
AcDbEntity
  8
DV1_Default
  6
Continuous
 62
     7
 48
25.4
100
AcDbLine
 10
207.2054942711
 20
275.6615961555
 30
0.0
 11
206.4571328087
 21
275.6615961555
 31
0.0
  0
LINE
  5
94
330
65
100
AcDbEntity
  8
DV1_Default
  6
Continuous
 62
     7
 48
25.4
100
AcDbLine
 10
207.2054942711
 20
271.6673101203
 30
0.0
 11
206.4571328087
 21
271.6673101203
 31
0.0
  0
ARC
  5
95
330
65
100
AcDbEntity
  8
DV1_Default
  6
Continuous
 62
     7
 48
25.4
100
AcDbCircle
 10
206.8651850753
 20
273.6998538939
 30
0.0
 40
3.296802531687355
100
AcDbArc
 50
275.9248541235
 51
84.0751458765
  0
LINE
  5
96
330
65
100
AcDbEntity
  8
DV1_Default
  6
Continuous
 62
     7
 48
25.4
100
AcDbLine
 10
210.8849123233
 20
375.2494491158
 30
0.0
 11
210.8849123233
 21
322.4628624873
 31
0.0
  0
LINE
  5
97
330
65
100
AcDbEntity
  8
DV1_Default
  6
Continuous
 62
     7
 48
25.4
100
AcDbLine
 10
212.6349123233
 20
309.4695232189
 30
0.0
 11
237.4849123233
 21
309.4695232189
 31
0.0
  0
LINE
  5
98
330
65
100
AcDbEntity
  8
DV1_Default
  6
Continuous
 62
     7
 48
25.4
100
AcDbLine
 10
237.4849123233
 20
309.4695232189
 30
0.0
 11
237.4849123233
 21
375.9695232189
 31
0.0
  0
LINE
  5
99
330
65
100
AcDbEntity
  8
DV1_Default
  6
Continuous
 62
     7
 48
25.4
100
AcDbLine
 10
237.4849123233
 20
375.9695232189
 30
0.0
 11
211.6049864263
 21
375.9695232189
 31
0.0
  0
LINE
  5
9A
330
65
100
AcDbEntity
  8
DV1_Default
  6
Continuous
 62
     7
 48
25.4
100
AcDbLine
 10
214.3849123233
 20
309.4695232189
 30
0.0
 11
214.3849123233
 21
336.5550962677
 31
0.0
  0
LINE
  5
9B
330
65
100
AcDbEntity
  8
DV1_Default
  6
Continuous
 62
     7
 48
25.4
100
AcDbLine
 10
214.3849123233
 20
309.4695232189
 30
0.0
 11
212.6349123233
 21
309.4695232189
 31
0.0
  0
LINE
  5
9C
330
65
100
AcDbEntity
  8
DV1_Default
  6
Continuous
 62
     7
 48
25.4
100
AcDbLine
 10
212.6349123233
 20
309.4695232189
 30
0.0
 11
212.6349123233
 21
321.5376345081
 31
0.0
  0
ARC
  5
9D
330
65
100
AcDbEntity
  8
DV1_Default
  6
Continuous
 62
     7
 48
25.4
100
AcDbCircle
 10
213.0632029017
 20
324.4653258228
 30
0.0
 40
2.958852692187891
100
AcDbArc
 50
222.5917679133
 51
261.6772630227
  0
LINE
  5
9E
330
65
100
AcDbEntity
  8
DV1_Default
  6
Continuous
 62
     7
 48
25.4
100
AcDbLine
 10
211.5693673676
 20
321.9112575678
 30
0.0
 11
211.5693673676
 21
375.9695232189
 31
0.0
  0
LINE
  5
9F
330
65
100
AcDbEntity
  8
DV1_Default
  6
CENTER2
 62
     7
 48
25.4
100
AcDbLine
 10
202.3640192903
 20
341.7224971374
 30
0.0
 11
244.948858968
 21
341.7224971374
 31
0.0
  0
LINE
  5
A0
330
65
100
AcDbEntity
  8
DV1_Default
  6
CENTER2
 62
     7
 48
25.4
100
AcDbLine
 10
202.1066620939
 20
359.1695372097
 30
0.0
 11
245.1230757543
 21
359.1695372097
 31
0.0
  0
LINE
  5
A1
330
65
100
AcDbEntity
  8
DV1_Default
  6
Continuous
 62
     7
 48
25.4
100
AcDbLine
 10
213.4401686102
 20
334.7580384947
 30
0.0
 11
213.4401686102
 21
366.1345372097
 31
0.0
  0
LINE
  5
A2
330
65
100
AcDbEntity
  8
DV1_Default
  6
Continuous
 62
     7
 48
25.4
100
AcDbLine
 10
237.4849123233
 20
365.9888721283
 30
0.0
 11
221.3849123233
 21
365.9888721283
 31
0.0
  0
LINE
  5
A3
330
65
100
AcDbEntity
  8
DV1_Default
  6
Continuous
 62
     7
 48
25.4
100
AcDbLine
 10
221.3849123233
 20
365.9888721283
 30
0.0
 11
221.3849123233
 21
352.6888721283
 31
0.0
  0
LINE
  5
A4
330
65
100
AcDbEntity
  8
DV1_Default
  6
Continuous
 62
     7
 48
25.4
100
AcDbLine
 10
221.3849123233
 20
352.6888721283
 30
0.0
 11
237.4849123233
 21
352.6888721283
 31
0.0
  0
LINE
  5
A5
330
65
100
AcDbEntity
  8
DV1_Default
  6
Continuous
 62
     7
 48
25.4
100
AcDbLine
 10
221.3849123233
 20
363.7185611602
 30
0.0
 11
213.4401686102
 21
363.7185611602
 31
0.0
  0
LINE
  5
A6
330
65
100
AcDbEntity
  8
DV1_Default
  6
Continuous
 62
     7
 48
25.4
100
AcDbLine
 10
213.4401686102
 20
354.6185611602
 30
0.0
 11
221.3849123233
 21
354.6185611602
 31
0.0
  0
LINE
  5
A7
330
65
100
AcDbEntity
  8
DV1_Default
  6
Continuous
 62
     7
 48
25.4
100
AcDbLine
 10
214.3849123233
 20
364.2839494583
 30
0.0
 11
214.3849123233
 21
375.9695232189
 31
0.0
  0
LINE
  5
A8
330
65
100
AcDbEntity
  8
DV1_Default
  6
Continuous
 62
     7
 48
25.4
100
AcDbLine
 10
221.3849123233
 20
363.2120674733
 30
0.0
 11
213.4401686102
 21
363.2120674733
 31
0.0
  0
LINE
  5
A9
330
65
100
AcDbEntity
  8
DV1_Default
  6
Continuous
 62
     7
 48
25.4
100
AcDbLine
 10
221.3849123233
 20
355.1729525857
 30
0.0
 11
213.4401686102
 21
355.1729525857
 31
0.0
  0
LINE
  5
AA
330
65
100
AcDbEntity
  8
DV1_Default
  6
Continuous
 62
     7
 48
25.4
100
AcDbLine
 10
221.3849123233
 20
364.2839494583
 30
0.0
 11
214.3849123233
 21
364.2839494583
 31
0.0
  0
LINE
  5
AB
330
65
100
AcDbEntity
  8
DV1_Default
  6
Continuous
 62
     7
 48
25.4
100
AcDbLine
 10
214.3849123233
 20
354.1010706007
 30
0.0
 11
221.3849123233
 21
354.1010706007
 31
0.0
  0
LINE
  5
AC
330
65
100
AcDbEntity
  8
DV1_Default
  6
Continuous
 62
     7
 48
25.4
100
AcDbLine
 10
221.3849123233
 20
365.4954237356
 30
0.0
 11
227.8078654917
 21
365.4954237356
 31
0.0
  0
LINE
  5
AD
330
65
100
AcDbEntity
  8
DV1_Default
  6
Continuous
 62
     7
 48
25.4
100
AcDbLine
 10
228.5078654917
 20
364.7954237356
 30
0.0
 11
228.5078654917
 21
353.8793260432
 31
0.0
  0
LINE
  5
AE
330
65
100
AcDbEntity
  8
DV1_Default
  6
Continuous
 62
     7
 48
25.4
100
AcDbLine
 10
227.8078654917
 20
353.1793260432
 30
0.0
 11
221.3849123233
 21
353.1793260432
 31
0.0
  0
LINE
  5
AF
330
65
100
AcDbEntity
  8
DV1_Default
  6
Continuous
 62
     7
 48
25.4
100
AcDbLine
 10
228.5078654917
 20
364.7954237356
 30
0.0
 11
227.8078654917
 21
365.4954237356
 31
0.0
  0
LINE
  5
B0
330
65
100
AcDbEntity
  8
DV1_Default
  6
Continuous
 62
     7
 48
25.4
100
AcDbLine
 10
227.8078654917
 20
353.1793260432
 30
0.0
 11
228.5078654917
 21
353.8793260432
 31
0.0
  0
LINE
  5
B1
330
65
100
AcDbEntity
  8
DV1_Default
  6
Continuous
 62
     7
 48
25.4
100
AcDbLine
 10
227.8078654917
 20
365.4954237356
 30
0.0
 11
227.8078654917
 21
353.1793260432
 31
0.0
  0
LINE
  5
B2
330
65
100
AcDbEntity
  8
DV1_Default
  6
Continuous
 62
     7
 48
25.4
100
AcDbLine
 10
237.4849123233
 20
334.8501735977
 30
0.0
 11
221.3849123233
 21
334.8501735977
 31
0.0
  0
LINE
  5
B3
330
65
100
AcDbEntity
  8
DV1_Default
  6
Continuous
 62
     7
 48
25.4
100
AcDbLine
 10
221.3849123233
 20
334.8501735977
 30
0.0
 11
221.3849123233
 21
348.1501735977
 31
0.0
  0
LINE
  5
B4
330
65
100
AcDbEntity
  8
DV1_Default
  6
Continuous
 62
     7
 48
25.4
100
AcDbLine
 10
221.3849123233
 20
348.1501735977
 30
0.0
 11
237.4849123233
 21
348.1501735977
 31
0.0
  0
LINE
  5
B5
330
65
100
AcDbEntity
  8
DV1_Default
  6
Continuous
 62
     7
 48
25.4
100
AcDbLine
 10
221.3849123233
 20
337.1204845658
 30
0.0
 11
213.4401686102
 21
337.1204845658
 31
0.0
  0
LINE
  5
B6
330
65
100
AcDbEntity
  8
DV1_Default
  6
Continuous
 62
     7
 48
25.4
100
AcDbLine
 10
213.4401686102
 20
346.2204845658
 30
0.0
 11
221.3849123233
 21
346.2204845658
 31
0.0
  0
LINE
  5
B7
330
65
100
AcDbEntity
  8
DV1_Default
  6
Continuous
 62
     7
 48
25.4
100
AcDbLine
 10
221.3849123233
 20
337.6269782527
 30
0.0
 11
213.4401686102
 21
337.6269782527
 31
0.0
  0
LINE
  5
B8
330
65
100
AcDbEntity
  8
DV1_Default
  6
Continuous
 62
     7
 48
25.4
100
AcDbLine
 10
221.3849123233
 20
345.6660931403
 30
0.0
 11
213.4401686102
 21
345.6660931403
 31
0.0
  0
LINE
  5
B9
330
65
100
AcDbEntity
  8
DV1_Default
  6
Continuous
 62
     7
 48
25.4
100
AcDbLine
 10
221.3849123233
 20
336.5550962677
 30
0.0
 11
214.3849123233
 21
336.5550962677
 31
0.0
  0
LINE
  5
BA
330
65
100
AcDbEntity
  8
DV1_Default
  6
Continuous
 62
     7
 48
25.4
100
AcDbLine
 10
214.3849123233
 20
346.7379751253
 30
0.0
 11
221.3849123233
 21
346.7379751253
 31
0.0
  0
LINE
  5
BB
330
65
100
AcDbEntity
  8
DV1_Default
  6
Continuous
 62
     7
 48
25.4
100
AcDbLine
 10
221.3849123233
 20
335.3436219904
 30
0.0
 11
227.8078654917
 21
335.3436219904
 31
0.0
  0
LINE
  5
BC
330
65
100
AcDbEntity
  8
DV1_Default
  6
Continuous
 62
     7
 48
25.4
100
AcDbLine
 10
228.5078654917
 20
336.0436219904
 30
0.0
 11
228.5078654917
 21
346.9597196828
 31
0.0
  0
LINE
  5
BD
330
65
100
AcDbEntity
  8
DV1_Default
  6
Continuous
 62
     7
 48
25.4
100
AcDbLine
 10
227.8078654917
 20
347.6597196828
 30
0.0
 11
221.3849123233
 21
347.6597196828
 31
0.0
  0
LINE
  5
BE
330
65
100
AcDbEntity
  8
DV1_Default
  6
Continuous
 62
     7
 48
25.4
100
AcDbLine
 10
228.5078654917
 20
336.0436219904
 30
0.0
 11
227.8078654917
 21
335.3436219904
 31
0.0
  0
LINE
  5
BF
330
65
100
AcDbEntity
  8
DV1_Default
  6
Continuous
 62
     7
 48
25.4
100
AcDbLine
 10
227.8078654917
 20
347.6597196828
 30
0.0
 11
228.5078654917
 21
346.9597196828
 31
0.0
  0
LINE
  5
C0
330
65
100
AcDbEntity
  8
DV1_Default
  6
Continuous
 62
     7
 48
25.4
100
AcDbLine
 10
227.8078654917
 20
335.3436219904
 30
0.0
 11
227.8078654917
 21
347.6597196828
 31
0.0
  0
LINE
  5
C1
330
65
100
AcDbEntity
  8
DV1_Default
  6
Continuous
 62
     7
 48
25.4
100
AcDbLine
 10
214.3849123233
 20
346.7379751253
 30
0.0
 11
214.3849123233
 21
354.1010706007
 31
0.0
  0
LINE
  5
C2
330
65
100
AcDbEntity
  8
DV1_Default
  6
Continuous
 62
     7
 48
25.4
100
AcDbLine
 10
146.484190827
 20
373.8695232189
 30
0.0
 11
147.884190827
 21
375.2695232189
 31
0.0
  0
LINE
  5
C3
330
65
100
AcDbEntity
  8
DV1_Default
  6
Continuous
 62
     7
 48
25.4
100
AcDbLine
 10
208.7849123233
 20
375.2695232189
 30
0.0
 11
210.1849123233
 21
373.8695232189
 31
0.0
  0
LINE
  5
C4
330
65
100
AcDbEntity
  8
DV1_Default
  6
Continuous
 62
     7
 48
25.4
100
AcDbLine
 10
147.884190827
 20
228.2695232189
 30
0.0
 11
146.484190827
 21
229.6695232189
 31
0.0
  0
LINE
  5
C5
330
65
100
AcDbEntity
  8
DV1_Default
  6
Continuous
 62
     7
 48
25.4
100
AcDbLine
 10
208.7849123233
 20
228.2695232189
 30
0.0
 11
210.1849123233
 21
229.6695232189
 31
0.0
  0
LINE
  5
C6
330
65
100
AcDbEntity
  8
DV1_Default
  6
Continuous
 62
     7
 48
25.4
100
AcDbLine
 10
211.6049864263
 20
375.9695232189
 30
0.0
 11
210.8849123233
 21
375.2494491158
 31
0.0
  0
ARC
  5
C7
330
65
100
AcDbEntity
  8
DV1_Default
  6
Continuous
 62
     7
 48
25.4
100
AcDbCircle
 10
209.7998909585
 20
371.5958173162
 30
0.0
 40
3.811337913286055
100
AcDbArc
 50
62.3372402555
 51
105.4445150934
  0
LINE
  5
C8
330
65
100
AcDbEntity
  8
DV1_Default
  6
Continuous
 62
     7
 48
25.4
100
AcDbLine
 10
160.1338902691
 20
312.2431277219
 30
0.0
 11
171.6838902691
 21
312.2431277219
 31
0.0
  0
LINE
  5
C9
330
65
100
AcDbEntity
  8
DV1_Default
  6
Continuous
 62
     7
 48
25.4
100
AcDbLine
 10
171.6838902691
 20
323.949718351
 30
0.0
 11
171.6838902691
 21
301.7695232189
 31
0.0
  0
LINE
  5
CA
330
65
100
AcDbEntity
  8
DV1_Default
  6
Continuous
 62
     7
 48
25.4
100
AcDbLine
 10
149.984190827
 20
243.1786203959
 30
0.0
 11
138.784190827
 21
243.1786203959
 31
0.0
  0
LINE
  5
CB
330
65
100
AcDbEntity
  8
DV1_Default
  6
Continuous
 62
     7
 48
25.4
100
AcDbLine
 10
138.784190827
 20
362.1786203959
 30
0.0
 11
149.984190827
 21
362.1786203959
 31
0.0
  0
LINE
  5
CC
330
65
100
AcDbEntity
  8
DV1_Default
  6
Continuous
 62
     7
 48
25.4
100
AcDbLine
 10
138.084190827
 20
243.8786203959
 30
0.0
 11
138.084190827
 21
250.4284491714
 31
0.0
  0
LINE
  5
CD
330
65
100
AcDbEntity
  8
DV1_Default
  6
Continuous
 62
     7
 48
25.4
100
AcDbLine
 10
146.484190827
 20
362.1786203959
 30
0.0
 11
146.484190827
 21
373.8695232189
 31
0.0
  0
LINE
  5
CE
330
65
100
AcDbEntity
  8
DV1_Default
  6
Continuous
 62
     7
 48
25.4
100
AcDbLine
 10
138.084190827
 20
361.4786203959
 30
0.0
 11
138.784190827
 21
362.1786203959
 31
0.0
  0
LINE
  5
CF
330
65
100
AcDbEntity
  8
DV1_Default
  6
Continuous
 62
     7
 48
25.4
100
AcDbLine
 10
138.084190827
 20
243.8786203959
 30
0.0
 11
138.784190827
 21
243.1786203959
 31
0.0
  0
LINE
  5
D0
330
65
100
AcDbEntity
  8
DV1_Default
  6
Continuous
 62
     7
 48
25.4
100
AcDbLine
 10
138.084190827
 20
250.4284491714
 30
0.0
 11
198.8911757844
 21
250.4284491714
 31
0.0
  0
LINE
  5
D1
330
65
100
AcDbEntity
  8
DV1_Default
  6
Continuous
 62
     7
 48
25.4
100
AcDbLine
 10
138.084190827
 20
250.4284491714
 30
0.0
 11
125.484190827
 21
250.4284491714
 31
0.0
  0
LINE
  5
D2
330
65
100
AcDbEntity
  8
DV1_Default
  6
Continuous
 62
     7
 48
25.4
100
AcDbLine
 10
138.084190827
 20
259.5284491714
 30
0.0
 11
198.8911757844
 21
259.5284491714
 31
0.0
  0
LINE
  5
D3
330
65
100
AcDbEntity
  8
DV1_Default
  6
Continuous
 62
     7
 48
25.4
100
AcDbLine
 10
138.084190827
 20
259.5284491714
 30
0.0
 11
125.484190827
 21
259.5284491714
 31
0.0
  0
LINE
  5
D4
330
65
100
AcDbEntity
  8
DV1_Default
  6
Continuous
 62
     7
 48
25.4
100
AcDbLine
 10
156.7189464461
 20
258.8061990209
 30
0.0
 11
125.484190827
 21
258.8061990209
 31
0.0
  0
LINE
  5
D5
330
65
100
AcDbEntity
  8
DV1_Default
  6
Continuous
 62
     7
 48
25.4
100
AcDbLine
 10
156.716605361
 20
251.1608766294
 30
0.0
 11
125.4818609278
 21
251.1608766294
 31
0.0
  0
LINE
  5
D6
330
65
100
AcDbEntity
  8
DV1_Default
  6
Continuous
 62
     7
 48
25.4
100
AcDbLine
 10
142.984190827
 20
356.2747184652
 30
0.0
 11
155.584190827
 21
356.2747184652
 31
0.0
  0
LINE
  5
D7
330
65
100
AcDbEntity
  8
DV1_Default
  6
Continuous
 62
     7
 48
25.4
100
AcDbLine
 10
155.584190827
 20
356.3565159232
 30
0.0
 11
155.584190827
 21
352.1565159232
 31
0.0
  0
LINE
  5
D8
330
65
100
AcDbEntity
  8
DV1_Default
  6
Continuous
 62
     7
 48
25.4
100
AcDbLine
 10
155.584190827
 20
352.2383133812
 30
0.0
 11
142.984190827
 21
352.2383133812
 31
0.0
  0
LINE
  5
D9
330
65
100
AcDbEntity
  8
DV1_Default
  6
Continuous
 62
     7
 48
25.4
100
AcDbLine
 10
138.084190827
 20
339.0007732189
 30
0.0
 11
146.4841089084
 21
337.9693929656
 31
0.0
  0
LINE
  5
DA
330
65
100
AcDbEntity
  8
DV1_Default
  6
Continuous
 62
     7
 48
25.4
100
AcDbLine
 10
146.4841089084
 20
337.9693929656
 30
0.0
 11
149.9841089084
 21
337.9693929656
 31
0.0
  0
LINE
  5
DB
330
65
100
AcDbEntity
  8
DV1_Default
  6
Continuous
 62
     7
 48
25.4
100
AcDbLine
 10
138.084190827
 20
264.5382732189
 30
0.0
 11
146.4841089084
 21
265.5696534721
 31
0.0
  0
LINE
  5
DC
330
65
100
AcDbEntity
  8
DV1_Default
  6
Continuous
 62
     7
 48
25.4
100
AcDbLine
 10
146.4841089084
 20
265.5696534721
 30
0.0
 11
149.9841089084
 21
265.5696534721
 31
0.0
  0
LINE
  5
DD
330
65
100
AcDbEntity
  8
DV1_Default
  6
Continuous
 62
     7
 48
25.4
100
AcDbLine
 10
146.4841089084
 20
337.9693929656
 30
0.0
 11
146.4841089084
 21
265.5696534721
 31
0.0
  0
LINE
  5
DE
330
65
100
AcDbEntity
  8
DV1_Default
  6
Continuous
 62
     7
 48
25.4
100
AcDbLine
 10
198.8911757844
 20
261.3843774066
 30
0.0
 11
208.7821757844
 21
261.3843774066
 31
0.0
  0
LINE
  5
DF
330
65
100
AcDbEntity
  8
DV1_Default
  6
Continuous
 62
     7
 48
25.4
100
AcDbLine
 10
209.4821757844
 20
260.6843774066
 30
0.0
 11
209.4821757844
 21
249.4843774066
 31
0.0
  0
LINE
  5
E0
330
65
100
AcDbEntity
  8
DV1_Default
  6
Continuous
 62
     7
 48
25.4
100
AcDbLine
 10
208.7821757844
 20
248.7843774066
 30
0.0
 11
198.8911757844
 21
248.7843774066
 31
0.0
  0
LINE
  5
E1
330
65
100
AcDbEntity
  8
DV1_Default
  6
Continuous
 62
     7
 48
25.4
100
AcDbLine
 10
209.4821757844
 20
260.6843774066
 30
0.0
 11
208.7821757844
 21
261.3843774066
 31
0.0
  0
LINE
  5
E2
330
65
100
AcDbEntity
  8
DV1_Default
  6
Continuous
 62
     7
 48
25.4
100
AcDbLine
 10
208.7821757844
 20
248.7843774066
 30
0.0
 11
209.4821757844
 21
249.4843774066
 31
0.0
  0
LINE
  5
E3
330
65
100
AcDbEntity
  8
DV1_Default
  6
Continuous
 62
     7
 48
25.4
100
AcDbLine
 10
208.7821757844
 20
261.3843774066
 30
0.0
 11
208.7821757844
 21
248.7843774066
 31
0.0
  0
LINE
  5
E4
330
65
100
AcDbEntity
  8
DV1_Default
  6
CENTER2
 62
     7
 48
25.4
100
AcDbLine
 10
231.4130553042
 20
255.0843734183
 30
0.0
 11
121.2157382224
 21
255.0843734183
 31
0.0
  0
LINE
  5
E5
330
65
100
AcDbEntity
  8
DV1_Default
  6
Continuous
 62
     7
 48
25.4
100
AcDbLine
 10
161.884190827
 20
256.4445232189
 30
0.0
 11
190.728663059
 21
256.4445232189
 31
0.0
  0
LINE
  5
E6
330
65
100
AcDbEntity
  8
DV1_Default
  6
Continuous
 62
     7
 48
25.4
100
AcDbLine
 10
190.728663059
 20
277.2695232189
 30
0.0
 11
190.728663059
 21
256.4445232189
 31
0.0
  0
LINE
  5
E7
330
65
100
AcDbEntity
  8
DV1_Default
  6
Continuous
 62
     7
 48
25.4
100
AcDbLine
 10
190.4067479403
 20
277.2695232189
 30
0.0
 11
190.4067479403
 21
256.4445232189
 31
0.0
  0
LINE
  5
E8
330
65
100
AcDbEntity
  8
DV1_Default
  6
Continuous
 62
     7
 48
25.4
100
AcDbLine
 10
164.9283798786
 20
347.0945376403
 30
0.0
 11
161.884190827
 21
347.0945376403
 31
0.0
  0
LINE
  5
E9
330
65
100
AcDbEntity
  8
DV1_Default
  6
Continuous
 62
     7
 48
25.4
100
AcDbLine
 10
138.084190827
 20
361.4786203959
 30
0.0
 11
138.084190827
 21
259.5284491714
 31
0.0
  0
LINE
  5
EA
330
65
100
AcDbEntity
  8
DV1_Default
  6
Continuous
 62
     7
 48
25.4
100
AcDbLine
 10
160.8338902691
 20
330.1195232189
 30
0.0
 11
167.3869922557
 21
330.1195232189
 31
0.0
  0
LINE
  5
EB
330
65
100
AcDbEntity
  8
DV1_Default
  6
Continuous
 62
     7
 48
25.4
100
AcDbLine
 10
167.3869922557
 20
330.1195232189
 30
0.0
 11
167.3869922557
 21
332.5695232189
 31
0.0
  0
LINE
  5
EC
330
65
100
AcDbEntity
  8
DV1_Default
  6
Continuous
 62
     7
 48
25.4
100
AcDbLine
 10
167.3869922557
 20
332.5695232189
 30
0.0
 11
171.3069922557
 21
332.5695232189
 31
0.0
  0
LINE
  5
ED
330
65
100
AcDbEntity
  8
DV1_Default
  6
Continuous
 62
     7
 48
25.4
100
AcDbLine
 10
171.3069922557
 20
332.5695232189
 30
0.0
 11
171.3069922557
 21
330.1195232189
 31
0.0
  0
LINE
  5
EE
330
65
100
AcDbEntity
  8
DV1_Default
  6
Continuous
 62
     7
 48
25.4
100
AcDbLine
 10
171.3069922557
 20
330.1195232189
 30
0.0
 11
174.4058385133
 21
330.1195232189
 31
0.0
  0
LINE
  5
EF
330
65
100
AcDbEntity
  8
DV1_Default
  6
Continuous
 62
     7
 48
25.4
100
AcDbLine
 10
160.1338902691
 20
329.4195232189
 30
0.0
 11
160.8338902691
 21
330.1195232189
 31
0.0
  0
LINE
  5
F0
330
65
100
AcDbEntity
  8
DV1_Default
  6
Continuous
 62
     7
 48
25.4
100
AcDbLine
 10
171.6838902691
 20
301.7695232189
 30
0.0
 11
171.6838902691
 21
328.7792598577
 31
0.0
  0
LINE
  5
F1
330
65
100
AcDbEntity
  8
DV1_Default
  6
Continuous
 62
     7
 48
25.4
100
AcDbLine
 10
171.6838902691
 20
328.7792598577
 30
0.0
 11
174.1338902691
 21
328.7792598577
 31
0.0
  0
LINE
  5
F2
330
65
100
AcDbEntity
  8
DV1_Default
  6
Continuous
 62
     7
 48
25.4
100
AcDbLine
 10
174.1338902691
 20
328.7792598577
 30
0.0
 11
174.1338902691
 21
301.7695232189
 31
0.0
  0
LINE
  5
F3
330
65
100
AcDbEntity
  8
DV1_Default
  6
Continuous
 62
     7
 48
25.4
100
AcDbLine
 10
160.1338902691
 20
329.4195232189
 30
0.0
 11
160.1338902691
 21
301.7695232189
 31
0.0
  0
LINE
  5
F4
330
65
100
AcDbEntity
  8
DV1_Default
  6
Continuous
 62
     7
 48
25.4
100
AcDbLine
 10
176.505827207
 20
328.0365829645
 30
0.0
 11
176.505827207
 21
301.7695232189
 31
0.0
  0
LINE
  5
F5
330
65
100
AcDbEntity
  8
DV1_Default
  6
Continuous
 62
     7
 48
25.4
100
AcDbLine
 10
160.1338902691
 20
328.0195232189
 30
0.0
 11
171.6838902691
 21
328.0195232189
 31
0.0
  0
LINE
  5
F6
330
65
100
AcDbEntity
  8
DV1_Default
  6
Continuous
 62
     7
 48
25.4
100
AcDbLine
 10
171.6838902691
 20
328.7195232189
 30
0.0
 11
160.1338902691
 21
328.7195232189
 31
0.0
  0
LINE
  5
F7
330
65
100
AcDbEntity
  8
DV1_Default
  6
Continuous
 62
     7
 48
25.4
100
AcDbLine
 10
172.7529117037
 20
328.7792598577
 30
0.0
 11
172.7529117037
 21
330.1195232189
 31
0.0
  0
LINE
  5
F8
330
65
100
AcDbEntity
  8
DV1_Default
  6
Continuous
 62
     7
 48
25.4
100
AcDbLine
 10
174.1338902691
 20
325.2095892645
 30
0.0
 11
176.505827207
 21
325.2095892645
 31
0.0
  0
LINE
  5
F9
330
65
100
AcDbEntity
  8
DV1_Default
  6
Continuous
 62
     7
 48
25.4
100
AcDbLine
 10
177.0571328087
 20
301.7695232189
 30
0.0
 11
177.0571328087
 21
326.2695232189
 31
0.0
  0
LINE
  5
FA
330
65
100
AcDbEntity
  8
DV1_Default
  6
Continuous
 62
     7
 48
25.4
100
AcDbLine
 10
160.1338902691
 20
291.2959187159
 30
0.0
 11
171.6838902691
 21
291.2959187159
 31
0.0
  0
LINE
  5
FB
330
65
100
AcDbEntity
  8
DV1_Default
  6
Continuous
 62
     7
 48
25.4
100
AcDbLine
 10
171.6838902691
 20
279.5893280867
 30
0.0
 11
171.6838902691
 21
301.7695232189
 31
0.0
  0
LINE
  5
FC
330
65
100
AcDbEntity
  8
DV1_Default
  6
Continuous
 62
     7
 48
25.4
100
AcDbLine
 10
160.8338902691
 20
273.4195232189
 30
0.0
 11
167.3869922557
 21
273.4195232189
 31
0.0
  0
LINE
  5
FD
330
65
100
AcDbEntity
  8
DV1_Default
  6
Continuous
 62
     7
 48
25.4
100
AcDbLine
 10
167.3869922557
 20
273.4195232189
 30
0.0
 11
167.3869922557
 21
270.9695232189
 31
0.0
  0
LINE
  5
FE
330
65
100
AcDbEntity
  8
DV1_Default
  6
Continuous
 62
     7
 48
25.4
100
AcDbLine
 10
171.3069922557
 20
270.9695232189
 30
0.0
 11
171.3069922557
 21
273.4195232189
 31
0.0
  0
LINE
  5
FF
330
65
100
AcDbEntity
  8
DV1_Default
  6
Continuous
 62
     7
 48
25.4
100
AcDbLine
 10
171.3069922557
 20
273.4195232189
 30
0.0
 11
174.4058385133
 21
273.4195232189
 31
0.0
  0
LINE
  5
100
330
65
100
AcDbEntity
  8
DV1_Default
  6
Continuous
 62
     7
 48
25.4
100
AcDbLine
 10
160.1338902691
 20
274.1195232189
 30
0.0
 11
160.8338902691
 21
273.4195232189
 31
0.0
  0
LINE
  5
101
330
65
100
AcDbEntity
  8
DV1_Default
  6
Continuous
 62
     7
 48
25.4
100
AcDbLine
 10
171.6838902691
 20
301.7695232189
 30
0.0
 11
171.6838902691
 21
274.75978658
 31
0.0
  0
LINE
  5
102
330
65
100
AcDbEntity
  8
DV1_Default
  6
Continuous
 62
     7
 48
25.4
100
AcDbLine
 10
171.6838902691
 20
274.75978658
 30
0.0
 11
174.1338902691
 21
274.75978658
 31
0.0
  0
LINE
  5
103
330
65
100
AcDbEntity
  8
DV1_Default
  6
Continuous
 62
     7
 48
25.4
100
AcDbLine
 10
174.1338902691
 20
274.75978658
 30
0.0
 11
174.1338902691
 21
301.7695232189
 31
0.0
  0
LINE
  5
104
330
65
100
AcDbEntity
  8
DV1_Default
  6
Continuous
 62
     7
 48
25.4
100
AcDbLine
 10
160.1338902691
 20
274.1195232189
 30
0.0
 11
160.1338902691
 21
301.7695232189
 31
0.0
  0
LINE
  5
105
330
65
100
AcDbEntity
  8
DV1_Default
  6
Continuous
 62
     7
 48
25.4
100
AcDbLine
 10
176.505827207
 20
275.5024634733
 30
0.0
 11
176.505827207
 21
301.7695232189
 31
0.0
  0
LINE
  5
106
330
65
100
AcDbEntity
  8
DV1_Default
  6
Continuous
 62
     7
 48
25.4
100
AcDbLine
 10
160.1338902691
 20
275.5195232189
 30
0.0
 11
171.6838902691
 21
275.5195232189
 31
0.0
  0
LINE
  5
107
330
65
100
AcDbEntity
  8
DV1_Default
  6
Continuous
 62
     7
 48
25.4
100
AcDbLine
 10
171.6838902691
 20
274.8195232189
 30
0.0
 11
160.1338902691
 21
274.8195232189
 31
0.0
  0
LINE
  5
108
330
65
100
AcDbEntity
  8
DV1_Default
  6
Continuous
 62
     7
 48
25.4
100
AcDbLine
 10
172.7529117037
 20
274.75978658
 30
0.0
 11
172.7529117037
 21
273.4195232189
 31
0.0
  0
LINE
  5
109
330
65
100
AcDbEntity
  8
DV1_Default
  6
Continuous
 62
     7
 48
25.4
100
AcDbLine
 10
174.1338902691
 20
278.3294571732
 30
0.0
 11
176.505827207
 21
278.3294571732
 31
0.0
  0
LINE
  5
10A
330
65
100
AcDbEntity
  8
DV1_Default
  6
Continuous
 62
     7
 48
25.4
100
AcDbLine
 10
177.0571328087
 20
301.7695232189
 30
0.0
 11
177.0571328087
 21
277.2695232189
 31
0.0
  0
LINE
  5
10B
330
65
100
AcDbEntity
  8
DV1_Default
  6
Continuous
 62
     7
 48
25.4
100
AcDbLine
 10
206.4571328087
 20
277.2695232189
 30
0.0
 11
206.4571328087
 21
275.6615961555
 31
0.0
  0
LINE
  5
10C
330
65
100
AcDbEntity
  8
DV1_Default
  6
Continuous
 62
     7
 48
25.4
100
AcDbLine
 10
206.4571328087
 20
271.6673101203
 30
0.0
 11
206.4571328087
 21
269.7795239868
 31
0.0
  0
LINE
  5
10D
330
65
100
AcDbEntity
  8
DV1_Default
  6
Continuous
 62
     7
 48
25.4
100
AcDbLine
 10
206.4571328087
 20
276.5487644004
 30
0.0
 11
197.3369527811
 21
276.5407556629
 31
0.0
  0
LINE
  5
10E
330
65
100
AcDbEntity
  8
DV1_Default
  6
Continuous
 62
     7
 48
25.4
100
AcDbLine
 10
176.505827207
 20
275.5024634733
 30
0.0
 11
174.4058385133
 21
273.4195232189
 31
0.0
  0
LINE
  5
10F
330
65
100
AcDbEntity
  8
DV1_Default
  6
Continuous
 62
     7
 48
25.4
100
AcDbLine
 10
176.505827207
 20
328.0365829645
 30
0.0
 11
174.4058385133
 21
330.1195232189
 31
0.0
  0
LINE
  5
110
330
65
100
AcDbEntity
  8
DV1_Default
  6
Continuous
 62
     7
 48
25.4
100
AcDbLine
 10
167.3869922557
 20
270.9695232189
 30
0.0
 11
171.3069922557
 21
270.9695232189
 31
0.0
  0
LINE
  5
111
330
65
100
AcDbEntity
  8
DV1_Default
  6
Continuous
 62
     7
 48
25.4
100
AcDbLine
 10
171.3069922557
 20
270.9695232189
 30
0.0
 11
171.3069922557
 21
270.529103817
 31
0.0
  0
LINE
  5
112
330
65
100
AcDbEntity
  8
DV1_Default
  6
Continuous
 62
     7
 48
25.4
100
AcDbLine
 10
171.3069922557
 20
264.4264342843
 30
0.0
 11
171.3069922557
 21
261.703989845
 31
0.0
  0
LINE
  5
113
330
65
100
AcDbEntity
  8
DV1_Default
  6
Continuous
 62
     7
 48
25.4
100
AcDbLine
 10
171.3069922557
 20
270.529103817
 30
0.0
 11
166.9659939148
 21
270.529103817
 31
0.0
  0
LINE
  5
114
330
65
100
AcDbEntity
  8
DV1_Default
  6
Continuous
 62
     7
 48
25.4
100
AcDbLine
 10
171.3069922557
 20
264.4264342843
 30
0.0
 11
166.9659939148
 21
264.4264342843
 31
0.0
  0
LINE
  5
115
330
65
100
AcDbEntity
  8
DV1_Default
  6
Continuous
 62
     7
 48
25.4
100
AcDbLine
 10
171.3069922557
 20
261.703989845
 30
0.0
 11
161.184190827
 21
261.703989845
 31
0.0
  0
LINE
  5
116
330
65
100
AcDbEntity
  8
DV1_Default
  6
Continuous
 62
     7
 48
25.4
100
AcDbLine
 10
161.184190827
 20
344.0143433378
 30
0.0
 11
165.3446972043
 21
344.0143433378
 31
0.0
  0
LINE
  5
117
330
65
100
AcDbEntity
  8
DV1_Default
  6
Continuous
 62
     7
 48
25.4
100
AcDbLine
 10
206.4571328087
 20
326.2695232189
 30
0.0
 11
206.4571328087
 21
333.7594142791
 31
0.0
  0
LINE
  5
118
330
65
100
AcDbEntity
  8
DV1_Default
  6
Continuous
 62
     7
 48
25.4
100
AcDbLine
 10
210.1849123233
 20
333.7594142791
 30
0.0
 11
206.4571328087
 21
333.7594142791
 31
0.0
  0
LINE
  5
119
330
65
100
AcDbEntity
  8
DV1_Default
  6
Continuous
 62
     7
 48
25.4
100
AcDbLine
 10
210.1849123233
 20
333.7533279213
 30
0.0
 11
211.5693673676
 21
334.5526434138
 31
0.0
  0
LINE
  5
11A
330
65
100
AcDbEntity
  8
DV1_Default
  6
Continuous
 62
     7
 48
25.4
100
AcDbLine
 10
213.4401686102
 20
334.7580384947
 30
0.0
 11
211.5693673676
 21
334.7580384947
 31
0.0
  0
LINE
  5
11B
330
65
100
AcDbEntity
  8
DV1_Default
  6
Continuous
 62
     7
 48
25.4
100
AcDbLine
 10
213.4401686102
 20
366.1345372097
 30
0.0
 11
211.5693673676
 21
366.1345372097
 31
0.0
  0
LINE
  5
11C
330
65
100
AcDbEntity
  8
DV1_Default
  6
Continuous
 62
     7
 48
25.4
100
AcDbLine
 10
206.4571328087
 20
329.9324658451
 30
0.0
 11
207.1571328087
 21
329.9324658451
 31
0.0
  0
LINE
  5
11D
330
65
100
AcDbEntity
  8
DV1_Default
  6
Continuous
 62
     7
 48
25.4
100
AcDbLine
 10
207.1571328087
 20
329.9324658451
 30
0.0
 11
210.1849123233
 21
328.1843765273
 31
0.0
  0
LINE
  5
11E
330
65
100
AcDbEntity
  8
DV1_Default
  6
Continuous
 62
     7
 48
25.4
100
AcDbLine
 10
209.1349123233
 20
324.8695232189
 30
0.0
 11
210.1849123233
 21
325.9195232189
 31
0.0
  0
LINE
  5
11F
330
65
100
AcDbEntity
  8
DV1_Default
  6
Continuous
 62
     7
 48
25.4
100
AcDbLine
 10
209.1349123233
 20
324.8695232189
 30
0.0
 11
209.1349123233
 21
278.6695232189
 31
0.0
  0
LINE
  5
120
330
65
100
AcDbEntity
  8
DV1_Default
  6
Continuous
 62
     7
 48
25.4
100
AcDbLine
 10
209.1349123233
 20
278.6695232189
 30
0.0
 11
210.1849123233
 21
277.6195232189
 31
0.0
  0
LINE
  5
121
330
65
100
AcDbEntity
  8
DV1_Default
  6
Continuous
 62
     7
 48
25.4
100
AcDbLine
 10
209.1349123233
 20
324.8695232189
 30
0.0
 11
177.0571328087
 21
324.8695232189
 31
0.0
  0
LINE
  5
122
330
65
100
AcDbEntity
  8
DV1_Default
  6
Continuous
 62
     7
 48
25.4
100
AcDbLine
 10
209.1349123233
 20
278.6695232189
 30
0.0
 11
177.0571328087
 21
278.6695232189
 31
0.0
  0
LINE
  5
123
330
65
100
AcDbEntity
  8
DV1_Default
  6
Continuous
 62
     7
 48
25.4
100
AcDbLine
 10
176.505827207
 20
277.2695232189
 30
0.0
 11
206.4571328087
 21
277.2695232189
 31
0.0
  0
LINE
  5
124
330
65
100
AcDbEntity
  8
DV1_Default
  6
Continuous
 62
     7
 48
25.4
100
AcDbLine
 10
206.4571328087
 20
326.2695232189
 30
0.0
 11
176.505827207
 21
326.2695232189
 31
0.0
  0
LINE
  5
125
330
65
100
AcDbEntity
  8
DV1_Default
  6
Continuous
 62
     7
 48
25.4
100
AcDbLine
 10
138.084190827
 20
350.419523219
 30
0.0
 11
142.984190827
 21
350.419523219
 31
0.0
  0
LINE
  5
126
330
65
100
AcDbEntity
  8
DV1_Default
  6
Continuous
 62
     7
 48
25.4
100
AcDbLine
 10
142.984190827
 20
350.419523219
 30
0.0
 11
142.984190827
 21
358.119523219
 31
0.0
  0
LINE
  5
127
330
65
100
AcDbEntity
  8
DV1_Default
  6
Continuous
 62
     7
 48
25.4
100
AcDbLine
 10
142.984190827
 20
358.119523219
 30
0.0
 11
138.084190827
 21
358.119523219
 31
0.0
  0
LINE
  5
128
330
65
100
AcDbEntity
  8
DV1_Default
  6
Continuous
 62
     7
 48
25.4
100
AcDbLine
 10
138.084190827
 20
358.119523219
 30
0.0
 11
138.084190827
 21
350.419523219
 31
0.0
  0
LINE
  5
129
330
65
100
AcDbEntity
  8
DV1_Default
  6
Continuous
 62
     7
 48
25.4
100
AcDbLine
 10
142.984190827
 20
356.5758876425
 30
0.0
 11
155.5817816645
 21
356.5758876425
 31
0.0
  0
LINE
  5
12A
330
65
100
AcDbEntity
  8
DV1_Default
  6
Continuous
 62
     7
 48
25.4
100
AcDbLine
 10
155.5817816645
 20
356.5758876425
 30
0.0
 11
155.5817816645
 21
351.9558876425
 31
0.0
  0
LINE
  5
12B
330
65
100
AcDbEntity
  8
DV1_Default
  6
Continuous
 62
     7
 48
25.4
100
AcDbLine
 10
155.5817816645
 20
351.9558876425
 30
0.0
 11
142.984190827
 21
351.9558876425
 31
0.0
  0
LINE
  5
12C
330
65
100
AcDbEntity
  8
DV1_Default
  6
Continuous
 62
     7
 48
25.4
100
AcDbLine
 10
142.984190827
 20
356.8773846094
 30
0.0
 11
149.984190827
 21
356.8773846094
 31
0.0
  0
LINE
  5
12D
330
65
100
AcDbEntity
  8
DV1_Default
  6
Continuous
 62
     7
 48
25.4
100
AcDbLine
 10
142.984190827
 20
351.6231914555
 30
0.0
 11
149.984190827
 21
351.6231914555
 31
0.0
  0
LINE
  5
12E
330
65
100
AcDbEntity
  8
DV1_Default
  6
Continuous
 62
     7
 48
25.4
100
AcDbLine
 10
142.984190827
 20
357.909523219
 30
0.0
 11
138.714190827
 21
357.909523219
 31
0.0
  0
LINE
  5
12F
330
65
100
AcDbEntity
  8
DV1_Default
  6
Continuous
 62
     7
 48
25.4
100
AcDbLine
 10
138.364190827
 20
357.559523219
 30
0.0
 11
138.364190827
 21
350.979523219
 31
0.0
  0
LINE
  5
130
330
65
100
AcDbEntity
  8
DV1_Default
  6
Continuous
 62
     7
 48
25.4
100
AcDbLine
 10
138.714190827
 20
350.629523219
 30
0.0
 11
142.984190827
 21
350.629523219
 31
0.0
  0
LINE
  5
131
330
65
100
AcDbEntity
  8
DV1_Default
  6
Continuous
 62
     7
 48
25.4
100
AcDbLine
 10
138.364190827
 20
357.559523219
 30
0.0
 11
138.714190827
 21
357.909523219
 31
0.0
  0
LINE
  5
132
330
65
100
AcDbEntity
  8
DV1_Default
  6
Continuous
 62
     7
 48
25.4
100
AcDbLine
 10
138.714190827
 20
350.629523219
 30
0.0
 11
138.364190827
 21
350.979523219
 31
0.0
  0
LINE
  5
133
330
65
100
AcDbEntity
  8
DV1_Default
  6
Continuous
 62
     7
 48
25.4
100
AcDbLine
 10
138.714190827
 20
357.909523219
 30
0.0
 11
138.714190827
 21
350.629523219
 31
0.0
  0
LINE
  5
134
330
65
100
AcDbEntity
  8
DV1_Default
  6
Continuous
 62
     7
 48
25.4
100
AcDbLine
 10
149.984190827
 20
362.1786203959
 30
0.0
 11
149.984190827
 21
356.5758876425
 31
0.0
  0
LINE
  5
135
330
65
100
AcDbEntity
  8
DV1_Default
  6
Continuous
 62
     7
 48
25.4
100
AcDbLine
 10
149.984190827
 20
351.9558876425
 30
0.0
 11
149.984190827
 21
259.5284491714
 31
0.0
  0
LINE
  5
136
330
65
100
AcDbEntity
  8
DV1_Default
  6
Continuous
 62
     7
 48
25.4
100
AcDbLine
 10
161.184190827
 20
273.4195232189
 30
0.0
 11
161.184190827
 21
257.1445232189
 31
0.0
  0
ARC
  5
137
330
65
100
AcDbEntity
  8
DV1_Default
  6
Continuous
 62
     7
 48
25.4
100
AcDbCircle
 10
161.884190827
 20
257.1445232189
 30
0.0
 40
0.7000000000000001
100
AcDbArc
 50
180.0
 51
270.0
  0
LINE
  5
138
330
65
100
AcDbEntity
  8
DV1_Default
  6
Continuous
 62
     7
 48
25.4
100
AcDbLine
 10
160.1338902691
 20
329.4195232189
 30
0.0
 11
160.8338902691
 21
330.1195232189
 31
0.0
  0
LINE
  5
139
330
65
100
AcDbEntity
  8
DV1_Default
  6
Continuous
 62
     7
 48
25.4
100
AcDbLine
 10
161.184190827
 20
330.1195232189
 30
0.0
 11
161.184190827
 21
346.3945376403
 31
0.0
  0
ARC
  5
13A
330
65
100
AcDbEntity
  8
DV1_Default
  6
Continuous
 62
     7
 48
25.4
100
AcDbCircle
 10
161.884190827
 20
346.3945232189
 30
0.0
 40
0.7000000000000001
100
AcDbArc
 50
90.0
 51
180.0
  0
ARC
  5
13B
330
65
100
AcDbEntity
  8
DV1_Default
  6
Continuous
 62
     7
 48
25.4
100
AcDbCircle
 10
161.884190827
 20
346.3945376403
 30
0.0
 40
0.7000000000000001
100
AcDbArc
 50
90.0
 51
180.0
  0
LINE
  5
13C
330
65
100
AcDbEntity
  8
DV1_Default
  6
Continuous
 62
     7
 48
25.4
100
AcDbLine
 10
161.884190827
 20
347.0945376403
 30
0.0
 11
149.984190827
 21
347.0945376403
 31
0.0
  0
LINE
  5
13D
330
65
100
AcDbEntity
  8
DV1_Default
  6
CENTER2
 62
     7
 48
25.4
100
AcDbLine
 10
158.0317816645
 20
354.2658876425
 30
0.0
 11
133.8249884133
 21
354.2658876425
 31
0.0
  0
LINE
  5
13E
330
65
100
AcDbEntity
  8
DV1_Default
  6
Continuous
 62
     7
 48
25.4
100
AcDbLine
 10
125.484190827
 20
250.4284491714
 30
0.0
 11
124.084190827
 21
250.4284491714
 31
0.0
  0
LINE
  5
13F
330
65
100
AcDbEntity
  8
DV1_Default
  6
Continuous
 62
     7
 48
25.4
100
AcDbLine
 10
124.084190827
 20
250.4284491714
 30
0.0
 11
124.084190827
 21
259.5284491714
 31
0.0
  0
LINE
  5
140
330
65
100
AcDbEntity
  8
DV1_Default
  6
Continuous
 62
     7
 48
25.4
100
AcDbLine
 10
124.084190827
 20
259.5284491714
 30
0.0
 11
125.484190827
 21
259.5284491714
 31
0.0
  0
LINE
  5
141
330
65
100
AcDbEntity
  8
DV1_Default
  6
Continuous
 62
     7
 48
25.4
100
AcDbLine
 10
125.484190827
 20
258.8061990209
 30
0.0
 11
124.084190827
 21
258.8061990209
 31
0.0
  0
LINE
  5
142
330
65
100
AcDbEntity
  8
DV1_Default
  6
Continuous
 62
     7
 48
25.4
100
AcDbLine
 10
125.4818609278
 20
251.1608766294
 30
0.0
 11
124.084190827
 21
251.1608766294
 31
0.0
  0
ENDBLK
  5
144
330
65
100
AcDbEntity
  8
0
100
AcDbBlockEnd
  0
BLOCK
  5
215
330
145
100
AcDbEntity
  8
0
100
AcDbBlockBegin
  2
SE1
 70
     0
 71
     0
 10
0.0
 20
0.0
 30
0.0
  3
SE1
  1

  0
CIRCLE
  5
148
330
145
100
AcDbEntity
  8
DV2_Default
  6
Continuous
 62
     7
 48
25.4
100
AcDbCircle
 10
433.8164126496
 20
341.0547214191
 30
0.0
 40
6.65
  0
CIRCLE
  5
149
330
145
100
AcDbEntity
  8
DV2_Default
  6
Continuous
 62
     7
 48
25.4
100
AcDbCircle
 10
433.8164126496
 20
358.5547214191
 30
0.0
 40
6.65
  0
LINE
  5
14A
330
145
100
AcDbEntity
  8
DV2_Default
  6
Continuous
 62
     7
 48
25.4
100
AcDbLine
 10
429.6164126496
 20
308.8547214191
 30
0.0
 11
438.0164126496
 21
308.8547214191
 31
0.0
  0
LINE
  5
14B
330
145
100
AcDbEntity
  8
DV2_Default
  6
Continuous
 62
     7
 48
25.4
100
AcDbLine
 10
438.0164126496
 20
308.8547214191
 30
0.0
 11
445.6464126496
 21
313.341871968
 31
0.0
  0
LINE
  5
14C
330
145
100
AcDbEntity
  8
DV2_Default
  6
Continuous
 62
     7
 48
25.4
100
AcDbLine
 10
421.5664126496
 20
314.0129734049
 30
0.0
 11
421.5664126496
 21
375.3547214191
 31
0.0
  0
LINE
  5
14D
330
145
100
AcDbEntity
  8
DV2_Default
  6
Continuous
 62
     7
 48
25.4
100
AcDbLine
 10
421.9864126496
 20
375.3547214191
 30
0.0
 11
445.6464126496
 21
375.3547214191
 31
0.0
  0
LINE
  5
14E
330
145
100
AcDbEntity
  8
DV2_Default
  6
Continuous
 62
     7
 48
25.4
100
AcDbLine
 10
445.6464126496
 20
375.3547214191
 30
0.0
 11
446.0664126496
 21
375.3547214191
 31
0.0
  0
LINE
  5
14F
330
145
100
AcDbEntity
  8
DV2_Default
  6
Continuous
 62
     7
 48
25.4
100
AcDbLine
 10
421.5664126496
 20
375.3547214191
 30
0.0
 11
421.9864126496
 21
375.3547214191
 31
0.0
  0
LINE
  5
150
330
145
100
AcDbEntity
  8
DV2_Default
  6
Continuous
 62
     7
 48
25.4
100
AcDbLine
 10
421.9864126496
 20
313.3457602578
 30
0.0
 11
429.6164126496
 21
308.8547214191
 31
0.0
  0
LINE
  5
151
330
145
100
AcDbEntity
  8
DV2_Default
  6
Continuous
 62
     7
 48
25.4
100
AcDbLine
 10
421.9864126496
 20
313.3457602578
 30
0.0
 11
421.9283668851
 21
313.3799261534
 31
0.0
  0
LINE
  5
152
330
145
100
AcDbEntity
  8
DV2_Default
  6
Continuous
 62
     7
 48
25.4
100
AcDbLine
 10
421.9283668851
 20
313.3799261534
 30
0.0
 11
421.5664126496
 21
314.0129734049
 31
0.0
  0
LINE
  5
153
330
145
100
AcDbEntity
  8
DV2_Default
  6
Continuous
 62
     7
 48
25.4
100
AcDbLine
 10
446.0664126496
 20
375.3547214191
 30
0.0
 11
446.0664126496
 21
314.0088710807
 31
0.0
  0
LINE
  5
154
330
145
100
AcDbEntity
  8
DV2_Default
  6
Continuous
 62
     7
 48
25.4
100
AcDbLine
 10
446.0664126496
 20
314.0088710807
 30
0.0
 11
445.704377788
 21
313.3759608674
 31
0.0
  0
LINE
  5
155
330
145
100
AcDbEntity
  8
DV2_Default
  6
Continuous
 62
     7
 48
25.4
100
AcDbLine
 10
445.704377788
 20
313.3759608674
 30
0.0
 11
445.6464126496
 21
313.341871968
 31
0.0
  0
CIRCLE
  5
156
330
145
100
AcDbEntity
  8
DV2_Default
  6
Continuous
 62
     7
 48
25.4
100
AcDbCircle
 10
433.8164126496
 20
341.0547214191
 30
0.0
 40
6.397999999999999
  0
CIRCLE
  5
157
330
145
100
AcDbEntity
  8
DV2_Default
  6
Continuous
 62
     7
 48
25.4
100
AcDbCircle
 10
433.8164126496
 20
358.5547214191
 30
0.0
 40
6.397999999999999
  0
ARC
  5
158
330
145
100
AcDbEntity
  8
DV2_Default
  6
Continuous
 62
     7
 48
25.4
100
AcDbCircle
 10
433.8161382168
 20
301.5933587221
 30
0.0
 40
10.5
100
AcDbArc
 50
126.3717124486
 51
360.0
  0
ARC
  5
159
330
145
100
AcDbEntity
  8
DV2_Default
  6
Continuous
 62
     7
 48
25.4
100
AcDbCircle
 10
433.8161382168
 20
301.5933587221
 30
0.0
 40
10.5
100
AcDbArc
 50
0.0
 51
53.6213513236
  0
LINE
  5
15A
330
145
100
AcDbEntity
  8
DV2_Default
  6
CENTER2
 62
     7
 48
25.4
100
AcDbLine
 10
424.7164126496
 20
358.5547214191
 30
0.0
 11
442.6644126496
 21
358.5547214191
 31
0.0
  0
LINE
  5
15B
330
145
100
AcDbEntity
  8
DV2_Default
  6
CENTER2
 62
     7
 48
25.4
100
AcDbLine
 10
423.9998277974
 20
341.0837177801
 30
0.0
 11
442.6644087321
 21
341.0503401184
 31
0.0
  0
LINE
  5
15C
330
145
100
AcDbEntity
  8
DV2_Default
  6
CENTER2
 62
     7
 48
25.4
100
AcDbLine
 10
433.8161382168
 20
301.5933587221
 30
0.0
 11
433.8161382168
 21
222.2436129049
 31
0.0
  0
LINE
  5
15D
330
145
100
AcDbEntity
  8
DV2_Default
  6
CENTER2
 62
     7
 48
25.4
100
AcDbLine
 10
433.8161382168
 20
301.5933587221
 30
0.0
 11
433.8161382168
 21
380.4184945281
 31
0.0
  0
ARC
  5
15E
330
145
100
AcDbEntity
  8
DV2_Default
  6
Continuous
 62
     7
 48
25.4
100
AcDbCircle
 10
433.8161382168
 20
301.5933587221
 30
0.0
 40
10.5
100
AcDbArc
 50
126.3717124486
 51
360.0
  0
ARC
  5
15F
330
145
100
AcDbEntity
  8
DV2_Default
  6
Continuous
 62
     7
 48
25.4
100
AcDbCircle
 10
433.8161382168
 20
301.5933587221
 30
0.0
 40
10.5
100
AcDbArc
 50
126.3717124486
 51
360.0
  0
LINE
  5
160
330
145
100
AcDbEntity
  8
DV2_Default
  6
Continuous
 62
     7
 48
25.4
100
AcDbLine
 10
409.5649160449
 20
313.8448939425
 30
0.0
 11
408.0493715883
 21
314.7198939425
 31
0.0
  0
LINE
  5
161
330
145
100
AcDbEntity
  8
DV2_Default
  6
Continuous
 62
     7
 48
25.4
100
AcDbLine
 10
408.0493715883
 20
314.7198939425
 30
0.0
 11
408.0493715883
 21
316.4698939425
 31
0.0
  0
LINE
  5
162
330
145
100
AcDbEntity
  8
DV2_Default
  6
Continuous
 62
     7
 48
25.4
100
AcDbLine
 10
408.0493715883
 20
316.4698939425
 30
0.0
 11
409.5649160449
 21
317.3448939425
 31
0.0
  0
LINE
  5
163
330
145
100
AcDbEntity
  8
DV2_Default
  6
Continuous
 62
     7
 48
25.4
100
AcDbLine
 10
409.5649160449
 20
317.3448939425
 30
0.0
 11
411.0804605016
 21
316.4698939425
 31
0.0
  0
LINE
  5
164
330
145
100
AcDbEntity
  8
DV2_Default
  6
Continuous
 62
     7
 48
25.4
100
AcDbLine
 10
411.0804605016
 20
316.4698939425
 30
0.0
 11
411.0804605016
 21
314.7198939425
 31
0.0
  0
LINE
  5
165
330
145
100
AcDbEntity
  8
DV2_Default
  6
Continuous
 62
     7
 48
25.4
100
AcDbLine
 10
411.0804605016
 20
314.7198939425
 30
0.0
 11
409.5649160449
 21
313.8448939425
 31
0.0
  0
CIRCLE
  5
166
330
145
100
AcDbEntity
  8
DV2_Default
  6
Continuous
 62
     7
 48
25.4
100
AcDbCircle
 10
409.5674639644
 20
315.5934229005
 30
0.0
 40
3.78
  0
CIRCLE
  5
167
330
145
100
AcDbEntity
  8
DV2_Default
  6
Continuous
 62
     7
 48
25.4
100
AcDbCircle
 10
409.5674639644
 20
315.5934229005
 30
0.0
 40
3.5
  0
LINE
  5
168
330
145
100
AcDbEntity
  8
DV2_Default
  6
CENTER2
 62
     7
 48
25.4
100
AcDbLine
 10
352.1012696513
 20
301.6187821269
 30
0.0
 11
514.9555499615
 21
301.6187821269
 31
0.0
  0
LINE
  5
169
330
145
100
AcDbEntity
  8
DV2_Default
  6
CENTER2
 62
     7
 48
25.4
100
AcDbLine
 10
433.8161382168
 20
301.5933587221
 30
0.0
 11
364.1485887663
 21
261.3707802931
 31
0.0
  0
LINE
  5
16A
330
145
100
AcDbEntity
  8
DV2_Default
  6
CENTER2
 62
     7
 48
25.4
100
AcDbLine
 10
433.8161382168
 20
301.5933587221
 30
0.0
 11
502.1892621395
 21
262.1181172201
 31
0.0
  0
LINE
  5
16B
330
145
100
AcDbEntity
  8
DV2_Default
  6
Continuous
 62
     7
 48
25.4
100
AcDbLine
 10
431.7165905975
 20
362.1920152718
 30
0.0
 11
429.6166029818
 21
358.5547333346
 31
0.0
  0
LINE
  5
16C
330
145
100
AcDbEntity
  8
DV2_Default
  6
Continuous
 62
     7
 48
25.4
100
AcDbLine
 10
429.6166029818
 20
358.5547333346
 30
0.0
 11
431.7166029818
 21
354.9174266387
 31
0.0
  0
LINE
  5
16D
330
145
100
AcDbEntity
  8
DV2_Default
  6
Continuous
 62
     7
 48
25.4
100
AcDbLine
 10
435.9156858362
 20
362.1920152718
 30
0.0
 11
438.0156734519
 21
358.5547333346
 31
0.0
  0
LINE
  5
16E
330
145
100
AcDbEntity
  8
DV2_Default
  6
Continuous
 62
     7
 48
25.4
100
AcDbLine
 10
438.0156734519
 20
358.5547333346
 30
0.0
 11
435.9156734519
 21
354.9174266387
 31
0.0
  0
LINE
  5
16F
330
145
100
AcDbEntity
  8
DV2_Default
  6
Continuous
 62
     7
 48
25.4
100
AcDbLine
 10
431.7165905975
 20
337.3963664264
 30
0.0
 11
429.6166029818
 21
341.0336483636
 31
0.0
  0
LINE
  5
170
330
145
100
AcDbEntity
  8
DV2_Default
  6
Continuous
 62
     7
 48
25.4
100
AcDbLine
 10
429.6166029818
 20
341.0336483636
 30
0.0
 11
431.7166029818
 21
344.6709550595
 31
0.0
  0
LINE
  5
171
330
145
100
AcDbEntity
  8
DV2_Default
  6
Continuous
 62
     7
 48
25.4
100
AcDbLine
 10
435.9156858362
 20
337.3963664264
 30
0.0
 11
438.0156734519
 21
341.0336483636
 31
0.0
  0
LINE
  5
172
330
145
100
AcDbEntity
  8
DV2_Default
  6
Continuous
 62
     7
 48
25.4
100
AcDbLine
 10
438.0156734519
 20
341.0336483636
 30
0.0
 11
435.9156734519
 21
344.6709550595
 31
0.0
  0
LINE
  5
173
330
145
100
AcDbEntity
  8
DV2_Default
  6
Continuous
 62
     7
 48
25.4
100
AcDbLine
 10
431.7165905975
 20
337.3963664264
 30
0.0
 11
435.9156858362
 21
337.3963664264
 31
0.0
  0
LINE
  5
174
330
145
100
AcDbEntity
  8
DV2_Default
  6
Continuous
 62
     7
 48
25.4
100
AcDbLine
 10
431.7166029818
 20
354.9174266387
 30
0.0
 11
435.9156734519
 21
354.9174266387
 31
0.0
  0
LINE
  5
175
330
145
100
AcDbEntity
  8
DV2_Default
  6
Continuous
 62
     7
 48
25.4
100
AcDbLine
 10
431.7165905975
 20
362.1920152718
 30
0.0
 11
435.9156858362
 21
362.1920152718
 31
0.0
  0
LINE
  5
176
330
145
100
AcDbEntity
  8
DV2_Default
  6
Continuous
 62
     7
 48
25.4
100
AcDbLine
 10
431.7166029818
 20
344.6709550595
 30
0.0
 11
435.9156734519
 21
344.6709550595
 31
0.0
  0
CIRCLE
  5
177
330
145
100
AcDbEntity
  8
DV2_Default
  6
Continuous
 62
     7
 48
25.4
100
AcDbCircle
 10
474.2508643195
 20
324.9383587221
 30
0.0
 40
6.999999999999999
  0
CIRCLE
  5
178
330
145
100
AcDbEntity
  8
DV2_Default
  6
Continuous
 62
     7
 48
25.4
100
AcDbCircle
 10
474.2508643195
 20
324.9383587221
 30
0.0
 40
5.6
  0
ARC
  5
179
330
145
100
AcDbEntity
  8
DV2_Default
  6
CENTER2
 62
     7
 48
25.4
100
AcDbCircle
 10
433.8142753742
 20
301.6932925349
 30
0.0
 40
46.69000000000001
100
AcDbArc
 50
21.2901525665
 51
38.4949306412
  0
CIRCLE
  5
17A
330
145
100
AcDbEntity
  8
DV2_Default
  6
Continuous
 62
     7
 48
25.4
100
AcDbCircle
 10
393.3814121141
 20
324.9383587221
 30
0.0
 40
6.999999999999999
  0
CIRCLE
  5
17B
330
145
100
AcDbEntity
  8
DV2_Default
  6
Continuous
 62
     7
 48
25.4
100
AcDbCircle
 10
393.3814121141
 20
324.9383587221
 30
0.0
 40
5.6
  0
ARC
  5
17C
330
145
100
AcDbEntity
  8
DV2_Default
  6
CENTER2
 62
     7
 48
25.4
100
AcDbCircle
 10
433.7305244176
 20
301.5417785467
 30
0.0
 40
46.69000000000001
100
AcDbArc
 50
141.2901525665
 51
158.4949306412
  0
LINE
  5
17D
330
145
100
AcDbEntity
  8
DV2_Default
  6
CENTER2
 62
     7
 48
25.4
100
AcDbLine
 10
468.188686493
 20
321.4383587221
 30
0.0
 11
480.313042146
 21
328.4383587221
 31
0.0
  0
LINE
  5
17E
330
145
100
AcDbEntity
  8
DV2_Default
  6
Continuous
 62
     7
 48
25.4
100
AcDbLine
 10
433.8161382168
 20
301.5933587221
 30
0.0
 11
433.772103588
 21
301.6187821269
 31
0.0
  0
LINE
  5
17F
330
145
100
AcDbEntity
  8
DV2_Default
  6
Continuous
 62
     7
 48
25.4
100
AcDbLine
 10
433.8161382168
 20
301.5933587221
 30
0.0
 11
433.8601728457
 21
301.6187821269
 31
0.0
  0
LINE
  5
180
330
145
100
AcDbEntity
  8
DV2_Default
  6
Continuous
 62
     7
 48
25.4
100
AcDbLine
 10
485.7289139449
 20
248.5333821509
 30
0.0
 11
485.104499263
 21
248.8938881356
 31
0.0
  0
LINE
  5
181
330
145
100
AcDbEntity
  8
DV2_Default
  6
Continuous
 62
     7
 48
25.4
100
AcDbLine
 10
499.9532436011
 20
269.419266084
 30
0.0
 11
494.7032703702
 21
260.3260457096
 31
0.0
  0
LINE
  5
182
330
145
100
AcDbEntity
  8
DV2_Default
  6
Continuous
 62
     7
 48
25.4
100
AcDbLine
 10
494.7032703702
 20
260.3260457096
 30
0.0
 11
490.8533912304
 21
253.6578594364
 31
0.0
  0
LINE
  5
183
330
145
100
AcDbEntity
  8
DV2_Default
  6
Continuous
 62
     7
 48
25.4
100
AcDbLine
 10
503.80314951
 20
276.0874987226
 30
0.0
 11
499.9532436011
 21
269.419266084
 31
0.0
  0
LINE
  5
184
330
145
100
AcDbEntity
  8
DV2_Default
  6
Continuous
 62
     7
 48
25.4
100
AcDbLine
 10
505.0543820577
 20
283.4481949001
 30
0.0
 11
505.6788383777
 21
283.0876648757
 31
0.0
  0
CIRCLE
  5
185
330
145
100
AcDbEntity
  8
DV2_Default
  6
Continuous
 62
     7
 48
25.4
100
AcDbCircle
 10
483.3920938596
 20
272.9187343393
 30
0.0
 40
3.5371
  0
CIRCLE
  5
186
330
145
100
AcDbEntity
  8
DV2_Default
  6
Continuous
 62
     7
 48
25.4
100
AcDbCircle
 10
468.2366492934
 20
281.6687343393
 30
0.0
 40
3.5371
  0
LINE
  5
187
330
145
100
AcDbEntity
  8
DV2_Default
  6
Continuous
 62
     7
 48
25.4
100
AcDbLine
 10
459.7713197244
 20
281.7064523836
 30
0.0
 11
463.9713197244
 21
288.9810657754
 31
0.0
  0
CIRCLE
  5
188
330
145
100
AcDbEntity
  8
DV2_Default
  6
Continuous
 62
     7
 48
25.4
100
AcDbCircle
 10
483.3920938596
 20
272.9187343393
 30
0.0
 40
4.2
  0
CIRCLE
  5
189
330
145
100
AcDbEntity
  8
DV2_Default
  6
Continuous
 62
     7
 48
25.4
100
AcDbCircle
 10
468.2366492934
 20
281.6687343393
 30
0.0
 40
4.2
  0
LINE
  5
18A
330
145
100
AcDbEntity
  8
DV2_Default
  6
Continuous
 62
     7
 48
25.4
100
AcDbLine
 10
503.8032142788
 20
276.0877404429
 30
0.0
 11
505.6788383777
 21
283.0876648757
 31
0.0
  0
LINE
  5
18B
330
145
100
AcDbEntity
  8
DV2_Default
  6
Continuous
 62
     7
 48
25.4
100
AcDbLine
 10
490.8533912304
 20
253.6578594364
 30
0.0
 11
485.7289139449
 21
248.5333821509
 31
0.0
  0
LINE
  5
18C
330
145
100
AcDbEntity
  8
DV2_Default
  6
Continuous
 62
     7
 48
25.4
100
AcDbLine
 10
503.8032142788
 20
276.0877404429
 30
0.0
 11
463.3209798814
 21
299.4601693696
 31
0.0
  0
LINE
  5
18D
330
145
100
AcDbEntity
  8
DV2_Default
  6
Continuous
 62
     7
 48
25.4
100
AcDbLine
 10
490.8532142788
 20
253.6576824849
 30
0.0
 11
450.3709798814
 21
277.0301114116
 31
0.0
  0
LINE
  5
18E
330
145
100
AcDbEntity
  8
DV2_Default
  6
Continuous
 62
     7
 48
25.4
100
AcDbLine
 10
444.6133236663
 20
271.2575583145
 30
0.0
 11
465.4863047387
 21
307.4106220373
 31
0.0
  0
LINE
  5
18F
330
145
100
AcDbEntity
  8
DV2_Default
  6
Continuous
 62
     7
 48
25.4
100
AcDbLine
 10
447.8090320954
 20
272.5926876798
 30
0.0
 11
465.9279030055
 21
303.975492672
 31
0.0
  0
LINE
  5
190
330
145
100
AcDbEntity
  8
DV2_Default
  6
Continuous
 62
     7
 48
25.4
100
AcDbLine
 10
459.7713197244
 20
281.7064523836
 30
0.0
 11
460.1401838208
 21
280.3298328348
 31
0.0
  0
LINE
  5
191
330
145
100
AcDbEntity
  8
DV2_Default
  6
Continuous
 62
     7
 48
25.4
100
AcDbLine
 10
463.9713197244
 20
288.9810657754
 30
0.0
 11
465.4055732639
 21
289.365372853
 31
0.0
  0
LINE
  5
192
330
145
100
AcDbEntity
  8
DV2_Default
  6
Continuous
 62
     7
 48
25.4
100
AcDbLine
 10
460.1401838208
 20
280.3298328348
 30
0.0
 11
494.724934094
 21
260.3623179547
 31
0.0
  0
LINE
  5
193
330
145
100
AcDbEntity
  8
DV2_Default
  6
Continuous
 62
     7
 48
25.4
100
AcDbLine
 10
465.4055732639
 20
289.365372853
 30
0.0
 11
499.9532436011
 21
269.419266084
 31
0.0
  0
LINE
  5
194
330
145
100
AcDbEntity
  8
DV2_Default
  6
Continuous
 62
     7
 48
25.4
100
AcDbLine
 10
487.4565688914
 20
264.558710561
 30
0.0
 11
492.6854198485
 21
273.615346084
 31
0.0
  0
LINE
  5
195
330
145
100
AcDbEntity
  8
DV2_Default
  6
Continuous
 62
     7
 48
25.4
100
AcDbLine
 10
458.5184353819
 20
280.4309995277
 30
0.0
 11
455.0089437548
 21
274.3523817208
 31
0.0
  0
LINE
  5
196
330
145
100
AcDbEntity
  8
DV2_Default
  6
Continuous
 62
     7
 48
25.4
100
AcDbLine
 10
464.4944274657
 20
290.7817214425
 30
0.0
 11
467.9589437548
 21
296.7824396788
 31
0.0
  0
LINE
  5
197
330
145
100
AcDbEntity
  8
DV2_Default
  6
Continuous
 62
     7
 48
25.4
100
AcDbLine
 10
372.8840039563
 20
260.4039916456
 30
0.0
 11
367.6340307254
 21
269.49721202
 31
0.0
  0
LINE
  5
198
330
145
100
AcDbEntity
  8
DV2_Default
  6
Continuous
 62
     7
 48
25.4
100
AcDbLine
 10
367.6340307254
 20
269.49721202
 30
0.0
 11
363.7841515856
 21
276.1653982932
 31
0.0
  0
LINE
  5
199
330
145
100
AcDbEntity
  8
DV2_Default
  6
Continuous
 62
     7
 48
25.4
100
AcDbLine
 10
376.7339098652
 20
253.735759007
 30
0.0
 11
372.8840039563
 21
260.4039916456
 31
0.0
  0
LINE
  5
19A
330
145
100
AcDbEntity
  8
DV2_Default
  6
Continuous
 62
     7
 48
25.4
100
AcDbLine
 10
376.7340868168
 20
253.7355820555
 30
0.0
 11
372.8840600477
 21
260.40402403
 31
0.0
  0
LINE
  5
19B
330
145
100
AcDbEntity
  8
DV2_Default
  6
Continuous
 62
     7
 48
25.4
100
AcDbLine
 10
382.4608865456
 20
248.9591349093
 30
0.0
 11
381.8583871507
 21
248.6112817215
 31
0.0
  0
CIRCLE
  5
19C
330
145
100
AcDbEntity
  8
DV2_Default
  6
Continuous
 62
     7
 48
25.4
100
AcDbCircle
 10
384.195207236
 20
272.99663391
 30
0.0
 40
3.5371
  0
CIRCLE
  5
19D
330
145
100
AcDbEntity
  8
DV2_Default
  6
Continuous
 62
     7
 48
25.4
100
AcDbCircle
 10
399.3506518022
 20
281.74663391
 30
0.0
 40
3.5371
  0
LINE
  5
19E
330
145
100
AcDbEntity
  8
DV2_Default
  6
Continuous
 62
     7
 48
25.4
100
AcDbLine
 10
403.6159813712
 20
289.058965346
 30
0.0
 11
407.8159813712
 21
281.7843519542
 31
0.0
  0
CIRCLE
  5
19F
330
145
100
AcDbEntity
  8
DV2_Default
  6
Continuous
 62
     7
 48
25.4
100
AcDbCircle
 10
384.195207236
 20
272.99663391
 30
0.0
 40
4.2
  0
CIRCLE
  5
1A0
330
145
100
AcDbEntity
  8
DV2_Default
  6
Continuous
 62
     7
 48
25.4
100
AcDbCircle
 10
399.3506518022
 20
281.74663391
 30
0.0
 40
4.2
  0
LINE
  5
1A1
330
145
100
AcDbEntity
  8
DV2_Default
  6
Continuous
 62
     7
 48
25.4
100
AcDbLine
 10
376.7340868168
 20
253.7355820555
 30
0.0
 11
381.8583871507
 21
248.6112817215
 31
0.0
  0
LINE
  5
1A2
330
145
100
AcDbEntity
  8
DV2_Default
  6
Continuous
 62
     7
 48
25.4
100
AcDbLine
 10
363.7841515856
 20
276.1653982932
 30
0.0
 11
361.9084627179
 21
283.1655644463
 31
0.0
  0
LINE
  5
1A3
330
145
100
AcDbEntity
  8
DV2_Default
  6
Continuous
 62
     7
 48
25.4
100
AcDbLine
 10
376.7339098652
 20
253.735759007
 30
0.0
 11
372.8840039563
 21
260.4039916456
 31
0.0
  0
LINE
  5
1A4
330
145
100
AcDbEntity
  8
DV2_Default
  6
Continuous
 62
     7
 48
25.4
100
AcDbLine
 10
376.7340868168
 20
253.7355820555
 30
0.0
 11
372.8840600477
 21
260.40402403
 31
0.0
  0
LINE
  5
1A5
330
145
100
AcDbEntity
  8
DV2_Default
  6
Continuous
 62
     7
 48
25.4
100
AcDbLine
 10
376.7340868168
 20
253.7355820555
 30
0.0
 11
417.2163212142
 21
277.1080109822
 31
0.0
  0
LINE
  5
1A6
330
145
100
AcDbEntity
  8
DV2_Default
  6
Continuous
 62
     7
 48
25.4
100
AcDbLine
 10
363.7840868168
 20
276.1656400135
 30
0.0
 11
404.2663212142
 21
299.5380689402
 31
0.0
  0
LINE
  5
1A7
330
145
100
AcDbEntity
  8
DV2_Default
  6
Continuous
 62
     7
 48
25.4
100
AcDbLine
 10
402.145971695
 20
307.4106220373
 30
0.0
 11
423.0189527674
 21
271.2575583145
 31
0.0
  0
LINE
  5
1A8
330
145
100
AcDbEntity
  8
DV2_Default
  6
Continuous
 62
     7
 48
25.4
100
AcDbLine
 10
401.7043734281
 20
303.975492672
 30
0.0
 11
419.8232443383
 21
272.5926876798
 31
0.0
  0
LINE
  5
1A9
330
145
100
AcDbEntity
  8
DV2_Default
  6
Continuous
 62
     7
 48
25.4
100
AcDbLine
 10
403.6159813712
 20
289.058965346
 30
0.0
 11
402.2393618224
 21
289.4278294424
 31
0.0
  0
LINE
  5
1AA
330
145
100
AcDbEntity
  8
DV2_Default
  6
Continuous
 62
     7
 48
25.4
100
AcDbLine
 10
407.8159813712
 20
281.7843519542
 30
0.0
 11
407.4316742936
 21
280.3500984147
 31
0.0
  0
LINE
  5
1AB
330
145
100
AcDbEntity
  8
DV2_Default
  6
Continuous
 62
     7
 48
25.4
100
AcDbLine
 10
402.2393618224
 20
289.4278294424
 30
0.0
 11
367.6546115492
 21
269.4603145623
 31
0.0
  0
LINE
  5
1AC
330
145
100
AcDbEntity
  8
DV2_Default
  6
Continuous
 62
     7
 48
25.4
100
AcDbLine
 10
407.4316742936
 20
280.3500984147
 30
0.0
 11
372.8840039563
 21
260.4039916456
 31
0.0
  0
LINE
  5
1AD
330
145
100
AcDbEntity
  8
DV2_Default
  6
Continuous
 62
     7
 48
25.4
100
AcDbLine
 10
374.9229767518
 20
273.6567071686
 30
0.0
 11
380.151827709
 21
264.6000716456
 31
0.0
  0
LINE
  5
1AE
330
145
100
AcDbEntity
  8
DV2_Default
  6
Continuous
 62
     7
 48
25.4
100
AcDbLine
 10
403.1378489679
 20
290.7817214425
 30
0.0
 11
399.6283573408
 21
296.8603392495
 31
0.0
  0
LINE
  5
1AF
330
145
100
AcDbEntity
  8
DV2_Default
  6
Continuous
 62
     7
 48
25.4
100
AcDbLine
 10
409.1138410518
 20
280.4309995277
 30
0.0
 11
412.5783573408
 21
274.4302812914
 31
0.0
  0
ARC
  5
1B0
330
145
100
AcDbEntity
  8
DV2_Default
  6
Continuous
 62
     7
 48
25.4
100
AcDbCircle
 10
404.2855154376
 20
284.5743714983
 30
0.0
 40
5.267143308458891
100
AcDbArc
 50
306.6780452406
 51
112.8596440762
  0
LINE
  5
1B1
330
145
100
AcDbEntity
  8
DV2_Default
  6
Continuous
 62
     7
 48
25.4
100
AcDbLine
 10
409.1138410518
 20
280.4309995277
 30
0.0
 11
407.5374790514
 21
280.4309995277
 31
0.0
  0
LINE
  5
1B2
330
145
100
AcDbEntity
  8
DV2_Default
  6
Continuous
 62
     7
 48
25.4
100
AcDbLine
 10
403.1378489679
 20
290.7817214425
 30
0.0
 11
402.3916405842
 21
289.4892506089
 31
0.0
  0
ARC
  5
1B3
330
145
100
AcDbEntity
  8
DV2_Default
  6
Continuous
 62
     7
 48
25.4
100
AcDbCircle
 10
463.3178536548
 20
284.5300229098
 30
0.0
 40
5.266800000000001
100
AcDbArc
 50
66.6471557982
 51
232.8905335186
  0
LINE
  5
1B4
330
145
100
AcDbEntity
  8
DV2_Default
  6
Continuous
 62
     7
 48
25.4
100
AcDbLine
 10
464.4944274657
 20
290.7817214425
 30
0.0
 11
465.2825503689
 21
289.4166525317
 31
0.0
  0
LINE
  5
1B5
330
145
100
AcDbEntity
  8
DV2_Default
  6
Continuous
 62
     7
 48
25.4
100
AcDbLine
 10
458.5184353819
 20
280.4309995277
 30
0.0
 11
460.015036145
 21
280.4309995277
 31
0.0
  0
CIRCLE
  5
1B6
330
145
100
AcDbEntity
  8
DV2_Default
  6
Continuous
 62
     7
 48
25.4
100
AcDbCircle
 10
483.3920938596
 20
272.9187343393
 30
0.0
 40
3.5371
  0
CIRCLE
  5
1B7
330
145
100
AcDbEntity
  8
DV2_Default
  6
Continuous
 62
     7
 48
25.4
100
AcDbCircle
 10
468.2366492934
 20
281.6687343393
 30
0.0
 40
3.5371
  0
LINE
  5
1B8
330
145
100
AcDbEntity
  8
DV2_Default
  6
Continuous
 62
     7
 48
25.4
100
AcDbLine
 10
459.7713197244
 20
281.7064523836
 30
0.0
 11
463.9713197244
 21
288.9810657754
 31
0.0
  0
CIRCLE
  5
1B9
330
145
100
AcDbEntity
  8
DV2_Default
  6
Continuous
 62
     7
 48
25.4
100
AcDbCircle
 10
483.3920938596
 20
272.9187343393
 30
0.0
 40
4.2
  0
CIRCLE
  5
1BA
330
145
100
AcDbEntity
  8
DV2_Default
  6
Continuous
 62
     7
 48
25.4
100
AcDbCircle
 10
468.2366492934
 20
281.6687343393
 30
0.0
 40
4.2
  0
LINE
  5
1BB
330
145
100
AcDbEntity
  8
DV2_Default
  6
Continuous
 62
     7
 48
25.4
100
AcDbLine
 10
503.8032142788
 20
276.0877404429
 30
0.0
 11
463.3209798814
 21
299.4601693696
 31
0.0
  0
LINE
  5
1BC
330
145
100
AcDbEntity
  8
DV2_Default
  6
Continuous
 62
     7
 48
25.4
100
AcDbLine
 10
490.8532142788
 20
253.6576824849
 30
0.0
 11
450.3709798814
 21
277.0301114116
 31
0.0
  0
LINE
  5
1BD
330
145
100
AcDbEntity
  8
DV2_Default
  6
Continuous
 62
     7
 48
25.4
100
AcDbLine
 10
447.8090320954
 20
272.5926876798
 30
0.0
 11
465.9279030055
 21
303.975492672
 31
0.0
  0
LINE
  5
1BE
330
145
100
AcDbEntity
  8
DV2_Default
  6
Continuous
 62
     7
 48
25.4
100
AcDbLine
 10
459.7713197244
 20
281.7064523836
 30
0.0
 11
460.1401838208
 21
280.3298328348
 31
0.0
  0
LINE
  5
1BF
330
145
100
AcDbEntity
  8
DV2_Default
  6
Continuous
 62
     7
 48
25.4
100
AcDbLine
 10
463.9713197244
 20
288.9810657754
 30
0.0
 11
465.4055732639
 21
289.365372853
 31
0.0
  0
LINE
  5
1C0
330
145
100
AcDbEntity
  8
DV2_Default
  6
Continuous
 62
     7
 48
25.4
100
AcDbLine
 10
460.1401838208
 20
280.3298328348
 30
0.0
 11
494.724934094
 21
260.3623179547
 31
0.0
  0
LINE
  5
1C1
330
145
100
AcDbEntity
  8
DV2_Default
  6
Continuous
 62
     7
 48
25.4
100
AcDbLine
 10
465.4055732639
 20
289.365372853
 30
0.0
 11
499.9532436011
 21
269.419266084
 31
0.0
  0
LINE
  5
1C2
330
145
100
AcDbEntity
  8
DV2_Default
  6
Continuous
 62
     7
 48
25.4
100
AcDbLine
 10
487.4565688914
 20
264.558710561
 30
0.0
 11
492.6854198485
 21
273.615346084
 31
0.0
  0
LINE
  5
1C3
330
145
100
AcDbEntity
  8
DV2_Default
  6
Continuous
 62
     7
 48
25.4
100
AcDbLine
 10
458.5184353819
 20
280.4309995277
 30
0.0
 11
455.0089437548
 21
274.3523817208
 31
0.0
  0
LINE
  5
1C4
330
145
100
AcDbEntity
  8
DV2_Default
  6
Continuous
 62
     7
 48
25.4
100
AcDbLine
 10
464.4944274657
 20
290.7817214425
 30
0.0
 11
467.9589437548
 21
296.7824396788
 31
0.0
  0
ARC
  5
1C5
330
145
100
AcDbEntity
  8
DV2_Default
  6
Continuous
 62
     7
 48
25.4
100
AcDbCircle
 10
463.3178536548
 20
284.5300229098
 30
0.0
 40
5.266800000000001
100
AcDbArc
 50
66.6471557982
 51
232.8905335186
  0
LINE
  5
1C6
330
145
100
AcDbEntity
  8
DV2_Default
  6
Continuous
 62
     7
 48
25.4
100
AcDbLine
 10
464.4944274657
 20
290.7817214425
 30
0.0
 11
465.2825503689
 21
289.4166525317
 31
0.0
  0
LINE
  5
1C7
330
145
100
AcDbEntity
  8
DV2_Default
  6
Continuous
 62
     7
 48
25.4
100
AcDbLine
 10
458.5184353819
 20
280.4309995277
 30
0.0
 11
460.015036145
 21
280.4309995277
 31
0.0
  0
LINE
  5
1C8
330
145
100
AcDbEntity
  8
DV2_Default
  6
Continuous
 62
     7
 48
25.4
100
AcDbLine
 10
446.0664126496
 20
374.9568184368
 30
0.0
 11
446.8108718346
 21
374.9568184368
 31
0.0
  0
LINE
  5
1C9
330
145
100
AcDbEntity
  8
DV2_Default
  6
Continuous
 62
     7
 48
25.4
100
AcDbLine
 10
420.9113552752
 20
374.9568184368
 30
0.0
 11
421.5664126496
 21
374.9568184368
 31
0.0
  0
LINE
  5
1CA
330
145
100
AcDbEntity
  8
DV2_Default
  6
Continuous
 62
     7
 48
25.4
100
AcDbLine
 10
420.9111135549
 20
374.956753668
 30
0.0
 11
421.5664126496
 21
374.956753668
 31
0.0
  0
LINE
  5
1CB
330
145
100
AcDbEntity
  8
DV2_Default
  6
Continuous
 62
     7
 48
25.4
100
AcDbLine
 10
420.9111135549
 20
374.956753668
 30
0.0
 11
413.9111891221
 21
373.0811295692
 31
0.0
  0
LINE
  5
1CC
330
145
100
AcDbEntity
  8
DV2_Default
  6
Continuous
 62
     7
 48
25.4
100
AcDbLine
 10
446.8108718346
 20
374.9568184368
 30
0.0
 11
453.8110379877
 21
373.0811295692
 31
0.0
  0
LINE
  5
1CD
330
145
100
AcDbEntity
  8
DV2_Default
  6
Continuous
 62
     7
 48
25.4
100
AcDbLine
 10
420.9113552752
 20
374.9568184368
 30
0.0
 11
421.5664126496
 21
374.9568184368
 31
0.0
  0
LINE
  5
1CE
330
145
100
AcDbEntity
  8
DV2_Default
  6
Continuous
 62
     7
 48
25.4
100
AcDbLine
 10
420.9111135549
 20
374.956753668
 30
0.0
 11
421.5664126496
 21
374.956753668
 31
0.0
  0
LINE
  5
1CF
330
145
100
AcDbEntity
  8
DV2_Default
  6
Continuous
 62
     7
 48
25.4
100
AcDbLine
 10
420.9111135549
 20
374.956753668
 30
0.0
 11
413.9111891221
 21
373.0811295692
 31
0.0
  0
LINE
  5
1D0
330
145
100
AcDbEntity
  8
DV2_Default
  6
Continuous
 62
     7
 48
25.4
100
AcDbLine
 10
446.8108718346
 20
374.9568184368
 30
0.0
 11
453.8110379877
 21
373.0811295692
 31
0.0
  0
LINE
  5
1D1
330
145
100
AcDbEntity
  8
DV2_Default
  6
Continuous
 62
     7
 48
25.4
100
AcDbLine
 10
420.9111135549
 20
374.956753668
 30
0.0
 11
420.9111135549
 21
328.2118958145
 31
0.0
  0
LINE
  5
1D2
330
145
100
AcDbEntity
  8
DV2_Default
  6
Continuous
 62
     7
 48
25.4
100
AcDbLine
 10
446.8111135549
 20
374.956753668
 30
0.0
 11
446.8111135549
 21
328.2118958145
 31
0.0
  0
LINE
  5
1D3
330
145
100
AcDbEntity
  8
DV2_Default
  6
Continuous
 62
     7
 48
25.4
100
AcDbLine
 10
421.5664126496
 20
326.1118958145
 30
0.0
 11
412.9431571445
 21
326.1118958145
 31
0.0
  0
LINE
  5
1D4
330
145
100
AcDbEntity
  8
DV2_Default
  6
Continuous
 62
     7
 48
25.4
100
AcDbLine
 10
451.935009127
 20
328.2118958145
 30
0.0
 11
446.0664126496
 21
328.2118958145
 31
0.0
  0
LINE
  5
1D5
330
145
100
AcDbEntity
  8
DV2_Default
  6
Continuous
 62
     7
 48
25.4
100
AcDbLine
 10
446.0664126496
 20
374.9568184368
 30
0.0
 11
446.8108718346
 21
374.9568184368
 31
0.0
  0
LINE
  5
1D6
330
145
100
AcDbEntity
  8
DV2_Default
  6
Continuous
 62
     7
 48
25.4
100
AcDbLine
 10
420.9113552752
 20
374.9568184368
 30
0.0
 11
421.5664126496
 21
374.9568184368
 31
0.0
  0
LINE
  5
1D7
330
145
100
AcDbEntity
  8
DV2_Default
  6
Continuous
 62
     7
 48
25.4
100
AcDbLine
 10
420.9111135549
 20
374.956753668
 30
0.0
 11
421.5664126496
 21
374.956753668
 31
0.0
  0
LINE
  5
1D8
330
145
100
AcDbEntity
  8
DV2_Default
  6
Continuous
 62
     7
 48
25.4
100
AcDbLine
 10
420.9111135549
 20
374.956753668
 30
0.0
 11
413.9111891221
 21
373.0811295692
 31
0.0
  0
LINE
  5
1D9
330
145
100
AcDbEntity
  8
DV2_Default
  6
Continuous
 62
     7
 48
25.4
100
AcDbLine
 10
446.8108718346
 20
374.9568184368
 30
0.0
 11
453.8110379877
 21
373.0811295692
 31
0.0
  0
LINE
  5
1DA
330
145
100
AcDbEntity
  8
DV2_Default
  6
Continuous
 62
     7
 48
25.4
100
AcDbLine
 10
420.9113552752
 20
374.9568184368
 30
0.0
 11
421.5664126496
 21
374.9568184368
 31
0.0
  0
LINE
  5
1DB
330
145
100
AcDbEntity
  8
DV2_Default
  6
Continuous
 62
     7
 48
25.4
100
AcDbLine
 10
420.9111135549
 20
374.956753668
 30
0.0
 11
421.5664126496
 21
374.956753668
 31
0.0
  0
LINE
  5
1DC
330
145
100
AcDbEntity
  8
DV2_Default
  6
Continuous
 62
     7
 48
25.4
100
AcDbLine
 10
420.9111135549
 20
374.956753668
 30
0.0
 11
413.9111891221
 21
373.0811295692
 31
0.0
  0
LINE
  5
1DD
330
145
100
AcDbEntity
  8
DV2_Default
  6
Continuous
 62
     7
 48
25.4
100
AcDbLine
 10
446.8108718346
 20
374.9568184368
 30
0.0
 11
453.8110379877
 21
373.0811295692
 31
0.0
  0
LINE
  5
1DE
330
145
100
AcDbEntity
  8
DV2_Default
  6
Continuous
 62
     7
 48
25.4
100
AcDbLine
 10
420.9111135549
 20
374.956753668
 30
0.0
 11
420.9111135549
 21
328.2118958145
 31
0.0
  0
LINE
  5
1DF
330
145
100
AcDbEntity
  8
DV2_Default
  6
Continuous
 62
     7
 48
25.4
100
AcDbLine
 10
451.935009127
 20
328.2118958145
 30
0.0
 11
446.0664126496
 21
328.2118958145
 31
0.0
  0
LINE
  5
1E0
330
145
100
AcDbEntity
  8
DV2_Default
  6
Continuous
 62
     7
 48
25.4
100
AcDbLine
 10
361.9084627179
 20
283.1655644463
 30
0.0
 11
362.5549367098
 21
283.5388063795
 31
0.0
  0
LINE
  5
1E1
330
145
100
AcDbEntity
  8
DV2_Default
  6
Continuous
 62
     7
 48
25.4
100
AcDbLine
 10
453.8110379877
 20
373.0811295692
 30
0.0
 11
453.8110379877
 21
372.2693666889
 31
0.0
  0
LINE
  5
1E2
330
145
100
AcDbEntity
  8
DV2_Default
  6
Continuous
 62
     7
 48
25.4
100
AcDbLine
 10
413.9111891221
 20
373.0811295692
 30
0.0
 11
413.9111891221
 21
372.2947341066
 31
0.0
  0
ARC
  5
1E3
330
145
100
AcDbEntity
  8
DV2_Default
  6
Continuous
 62
     7
 48
25.4
100
AcDbCircle
 10
433.8161382168
 20
301.5933587221
 30
0.0
 40
73.5
100
AcDbArc
 50
100.1123288712
 51
199.8164370975
  0
ARC
  5
1E4
330
145
100
AcDbEntity
  8
DV2_Default
  6
Continuous
 62
     7
 48
25.4
100
AcDbCircle
 10
433.8161382168
 20
301.5933587221
 30
0.0
 40
32.2
100
AcDbArc
 50
233.6267717088
 51
306.1984115234
  0
LINE
  5
1E5
330
145
100
AcDbEntity
  8
DV2_Default
  6
Continuous
 62
     7
 48
25.4
100
AcDbLine
 10
421.5664126496
 20
328.2118958145
 30
0.0
 11
415.6972673067
 21
328.2118958145
 31
0.0
  0
LINE
  5
1E6
330
145
100
AcDbEntity
  8
DV2_Default
  6
Continuous
 62
     7
 48
25.4
100
AcDbLine
 10
421.5664126496
 20
328.2118958145
 30
0.0
 11
415.6972673067
 21
328.2118958145
 31
0.0
  0
LINE
  5
1E7
330
145
100
AcDbEntity
  8
DV2_Default
  6
Continuous
 62
     7
 48
25.4
100
AcDbLine
 10
454.6891192892
 20
326.1118958145
 30
0.0
 11
446.0664126496
 21
326.1118958145
 31
0.0
  0
ARC
  5
1E8
330
145
100
AcDbEntity
  8
DV2_Default
  6
Continuous
 62
     7
 48
25.4
100
AcDbCircle
 10
433.8161382168
 20
301.5933587221
 30
0.0
 40
23.1
100
AcDbArc
 50
122.0251287766
 51
57.9732654692
  0
ARC
  5
1E9
330
145
100
AcDbEntity
  8
DV2_Default
  6
Continuous
 62
     7
 48
25.4
100
AcDbCircle
 10
433.8161382168
 20
301.5933587221
 30
0.0
 40
32.2
100
AcDbArc
 50
353.6267717088
 51
67.6388552887
  0
ARC
  5
1EA
330
145
100
AcDbEntity
  8
DV2_Default
  6
Continuous
 62
     7
 48
25.4
100
AcDbCircle
 10
433.8161382168
 20
301.5933587221
 30
0.0
 40
32.2
100
AcDbArc
 50
112.3600886691
 51
186.1984115234
  0
ARC
  5
1EB
330
145
100
AcDbEntity
  8
DV2_Default
  6
Continuous
 62
     7
 48
25.4
100
AcDbCircle
 10
433.8161382168
 20
301.5933587221
 30
0.0
 40
73.5
100
AcDbArc
 50
340.1123288712
 51
79.8164370975
  0
ARC
  5
1EC
330
145
100
AcDbEntity
  8
DV2_Default
  6
Continuous
 62
     7
 48
25.4
100
AcDbCircle
 10
433.8161382168
 20
301.5933587221
 30
0.0
 40
73.5
100
AcDbArc
 50
220.1123288712
 51
319.8164370975
  0
LINE
  5
1ED
330
145
100
AcDbEntity
  8
DV2_Default
  6
CENTER2
 62
     7
 48
25.4
100
AcDbLine
 10
433.8161382168
 20
301.5933587221
 30
0.0
 11
433.772103588
 21
301.6187821269
 31
0.0
  0
LINE
  5
1EE
330
145
100
AcDbEntity
  8
DV2_Default
  6
Continuous
 62
     7
 48
25.4
100
AcDbLine
 10
435.3316085666
 20
274.4654166383
 30
0.0
 11
435.3316085666
 21
272.7154166383
 31
0.0
  0
LINE
  5
1EF
330
145
100
AcDbEntity
  8
DV2_Default
  6
Continuous
 62
     7
 48
25.4
100
AcDbLine
 10
435.3316085666
 20
272.7154166383
 30
0.0
 11
433.8160641099
 21
271.8404166383
 31
0.0
  0
LINE
  5
1F0
330
145
100
AcDbEntity
  8
DV2_Default
  6
Continuous
 62
     7
 48
25.4
100
AcDbLine
 10
433.8160641099
 20
271.8404166383
 30
0.0
 11
432.3005196533
 21
272.7154166383
 31
0.0
  0
LINE
  5
1F1
330
145
100
AcDbEntity
  8
DV2_Default
  6
Continuous
 62
     7
 48
25.4
100
AcDbLine
 10
432.3005196533
 20
272.7154166383
 30
0.0
 11
432.3005196533
 21
274.4654166383
 31
0.0
  0
LINE
  5
1F2
330
145
100
AcDbEntity
  8
DV2_Default
  6
Continuous
 62
     7
 48
25.4
100
AcDbLine
 10
432.3005196533
 20
274.4654166383
 30
0.0
 11
433.8160641099
 21
275.3404166383
 31
0.0
  0
LINE
  5
1F3
330
145
100
AcDbEntity
  8
DV2_Default
  6
Continuous
 62
     7
 48
25.4
100
AcDbLine
 10
433.8160641099
 20
275.3404166383
 30
0.0
 11
435.3316085666
 21
274.4654166383
 31
0.0
  0
CIRCLE
  5
1F4
330
145
100
AcDbEntity
  8
DV2_Default
  6
Continuous
 62
     7
 48
25.4
100
AcDbCircle
 10
433.8160641099
 20
273.5933587222
 30
0.0
 40
3.78
  0
CIRCLE
  5
1F5
330
145
100
AcDbEntity
  8
DV2_Default
  6
Continuous
 62
     7
 48
25.4
100
AcDbCircle
 10
433.8160641099
 20
273.5933587222
 30
0.0
 40
3.5
  0
CIRCLE
  5
1F6
330
145
100
AcDbEntity
  8
DV2_Default
  6
Continuous
 62
     7
 48
25.4
100
AcDbCircle
 10
433.8161382168
 20
254.9033587221
 30
0.0
 40
6.999999999999999
  0
CIRCLE
  5
1F7
330
145
100
AcDbEntity
  8
DV2_Default
  6
Continuous
 62
     7
 48
25.4
100
AcDbCircle
 10
433.8161382168
 20
254.9033587221
 30
0.0
 40
5.6
  0
ARC
  5
1F8
330
145
100
AcDbEntity
  8
DV2_Default
  6
CENTER2
 62
     7
 48
25.4
100
AcDbCircle
 10
433.9036148588
 20
301.5450050848
 30
0.0
 40
46.69000000000001
100
AcDbArc
 50
261.2901525665
 51
278.4949306412
  0
LINE
  5
1F9
330
145
100
AcDbEntity
  8
DV2_Default
  6
Continuous
 62
     7
 48
25.4
100
AcDbLine
 10
456.551890039
 20
316.4697655856
 30
0.0
 11
458.0674344956
 21
317.3447655856
 31
0.0
  0
LINE
  5
1FA
330
145
100
AcDbEntity
  8
DV2_Default
  6
Continuous
 62
     7
 48
25.4
100
AcDbLine
 10
458.0674344956
 20
317.3447655856
 30
0.0
 11
459.5829789522
 21
316.4697655856
 31
0.0
  0
LINE
  5
1FB
330
145
100
AcDbEntity
  8
DV2_Default
  6
Continuous
 62
     7
 48
25.4
100
AcDbLine
 10
459.5829789522
 20
316.4697655856
 30
0.0
 11
459.5829789522
 21
314.7197655856
 31
0.0
  0
LINE
  5
1FC
330
145
100
AcDbEntity
  8
DV2_Default
  6
Continuous
 62
     7
 48
25.4
100
AcDbLine
 10
459.5829789522
 20
314.7197655856
 30
0.0
 11
458.0674344956
 21
313.8447655856
 31
0.0
  0
LINE
  5
1FD
330
145
100
AcDbEntity
  8
DV2_Default
  6
Continuous
 62
     7
 48
25.4
100
AcDbLine
 10
458.0674344956
 20
313.8447655856
 30
0.0
 11
456.551890039
 21
314.7197655856
 31
0.0
  0
LINE
  5
1FE
330
145
100
AcDbEntity
  8
DV2_Default
  6
Continuous
 62
     7
 48
25.4
100
AcDbLine
 10
456.551890039
 20
314.7197655856
 30
0.0
 11
456.551890039
 21
316.4697655856
 31
0.0
  0
CIRCLE
  5
1FF
330
145
100
AcDbEntity
  8
DV2_Default
  6
Continuous
 62
     7
 48
25.4
100
AcDbCircle
 10
458.0648865762
 20
315.5932945436
 30
0.0
 40
3.78
  0
CIRCLE
  5
200
330
145
100
AcDbEntity
  8
DV2_Default
  6
Continuous
 62
     7
 48
25.4
100
AcDbCircle
 10
458.0648865762
 20
315.5932945436
 30
0.0
 40
3.5
  0
LINE
  5
201
330
145
100
AcDbEntity
  8
DV2_Default
  6
CENTER2
 62
     7
 48
25.4
100
AcDbLine
 10
399.4435899406
 20
321.4383587221
 30
0.0
 11
387.3192342876
 21
328.4383587221
 31
0.0
  0
LINE
  5
202
330
145
100
AcDbEntity
  8
DV2_Default
  6
CENTER2
 62
     7
 48
25.4
100
AcDbLine
 10
412.8410029366
 20
313.7033587224
 30
0.0
 11
406.2938508853
 21
317.4833587217
 31
0.0
  0
LINE
  5
203
330
145
100
AcDbEntity
  8
DV2_Default
  6
CENTER2
 62
     7
 48
25.4
100
AcDbLine
 10
433.8161382168
 20
301.5933587221
 30
0.0
 11
433.8601728457
 21
301.6187821269
 31
0.0
  0
LINE
  5
204
330
145
100
AcDbEntity
  8
DV2_Default
  6
CENTER2
 62
     7
 48
25.4
100
AcDbLine
 10
454.791273497
 20
313.7033587224
 30
0.0
 11
461.3384255484
 21
317.4833587217
 31
0.0
  0
ARC
  5
205
330
145
100
AcDbEntity
  8
DV2_Default
  6
CENTER2
 62
     7
 48
25.4
100
AcDbCircle
 10
433.8161382168
 20
301.5933587221
 30
0.0
 40
28.0
100
AcDbArc
 50
262.2590323341
 51
277.7406643793
  0
ARC
  5
206
330
145
100
AcDbEntity
  8
DV2_Default
  6
CENTER2
 62
     7
 48
25.4
100
AcDbCircle
 10
433.8161382168
 20
301.5933587221
 30
0.0
 40
28.0
100
AcDbArc
 50
142.2590323341
 51
157.7406643793
  0
ARC
  5
207
330
145
100
AcDbEntity
  8
DV2_Default
  6
CENTER2
 62
     7
 48
25.4
100
AcDbCircle
 10
433.8161382168
 20
301.5933587221
 30
0.0
 40
28.0
100
AcDbArc
 50
22.2590323341
 51
37.7406643793
  0
LINE
  5
208
330
145
100
AcDbEntity
  8
DV2_Default
  6
Continuous
 62
     7
 48
25.4
100
AcDbLine
 10
433.8161382168
 20
301.5933587221
 30
0.0
 11
433.7212567784
 21
301.6187821269
 31
0.0
  0
CIRCLE
  5
209
330
145
100
AcDbEntity
  8
DV2_Default
  6
CENTER2
 62
     7
 48
25.4
100
AcDbCircle
 10
383.1141278555
 20
315.1789214531
 30
0.0
 40
2.1
  0
CIRCLE
  5
20A
330
145
100
AcDbEntity
  8
DV2_Default
  6
CENTER2
 62
     7
 48
25.4
100
AcDbCircle
 10
383.1141278555
 20
315.1789214531
 30
0.0
 40
1.925
  0
LINE
  5
20B
330
145
100
AcDbEntity
  8
DV2_Default
  6
CENTER2
 62
     7
 48
25.4
100
AcDbLine
 10
385.1425720907
 20
314.6354014584
 30
0.0
 11
381.0856836203
 21
315.7224414478
 31
0.0
  0
CIRCLE
  5
20C
330
145
100
AcDbEntity
  8
DV2_Default
  6
CENTER2
 62
     7
 48
25.4
100
AcDbCircle
 10
447.4017009478
 20
250.8913483608
 30
0.0
 40
2.1
  0
CIRCLE
  5
20D
330
145
100
AcDbEntity
  8
DV2_Default
  6
CENTER2
 62
     7
 48
25.4
100
AcDbCircle
 10
447.4017009478
 20
250.8913483608
 30
0.0
 40
1.925
  0
LINE
  5
20E
330
145
100
AcDbEntity
  8
DV2_Default
  6
CENTER2
 62
     7
 48
25.4
100
AcDbLine
 10
446.8581809531
 20
252.919792596
 30
0.0
 11
447.9452209425
 21
248.8629041256
 31
0.0
  0
CIRCLE
  5
20F
330
145
100
AcDbEntity
  8
DV2_Default
  6
CENTER2
 62
     7
 48
25.4
100
AcDbCircle
 10
470.9325858472
 20
338.7098063525
 30
0.0
 40
2.1
  0
CIRCLE
  5
210
330
145
100
AcDbEntity
  8
DV2_Default
  6
CENTER2
 62
     7
 48
25.4
100
AcDbCircle
 10
470.9325858472
 20
338.7098063525
 30
0.0
 40
1.925
  0
LINE
  5
211
330
145
100
AcDbEntity
  8
DV2_Default
  6
CENTER2
 62
     7
 48
25.4
100
AcDbLine
 10
469.4476616067
 20
337.224882112
 30
0.0
 11
472.4175100877
 21
340.194730593
 31
0.0
  0
ARC
  5
212
330
145
100
AcDbEntity
  8
DV2_Default
  6
CENTER2
 62
     7
 48
25.4
100
AcDbCircle
 10
433.8161382168
 20
301.5933587221
 30
0.0
 40
52.5
100
AcDbArc
 50
282.7078334503
 51
287.2921665497
  0
ARC
  5
213
330
145
100
AcDbEntity
  8
DV2_Default
  6
CENTER2
 62
     7
 48
25.4
100
AcDbCircle
 10
433.8161382168
 20
301.5933587221
 30
0.0
 40
52.5
100
AcDbArc
 50
42.7078334503
 51
47.2921665497
  0
ARC
  5
214
330
145
100
AcDbEntity
  8
DV2_Default
  6
CENTER2
 62
     7
 48
25.4
100
AcDbCircle
 10
433.8161382168
 20
301.5933587221
 30
0.0
 40
52.5
100
AcDbArc
 50
162.7078334503
 51
167.2921665497
  0
ENDBLK
  5
216
330
145
100
AcDbEntity
  8
0
100
AcDbBlockEnd
  0
BLOCK
  5
221
330
217
100
AcDbEntity
  8
0
100
AcDbBlockBegin
  2
GDimGGroup
 70
     0
 71
     0
 10
0.0
 20
0.0
 30
0.0
  3
GDimGGroup
  1

  0
HATCH
  5
219
330
217
100
AcDbEntity
  8
Default
  6
Continuous
 62
     7
 48
25.4
100
AcDbHatch
 10
0.0
 20
0.0
 30
0.0
210
0.0
220
0.0
230
1.0
  2
SOLID
 70
     1
 71
     0
 91
        1
 92
        1
 93
        3
 72
     1
 10
425.566412839618
 20
394.074824769235
 11
421.5664126496282
 21
393.4081580709033
 72
     1
 10
421.5664126496282
 20
393.4081580709033
 11
425.566412839618
 21
392.7414913725717
 72
     1
 10
425.566412839618
 20
392.7414913725717
 11
425.566412839618
 21
394.074824769235
 97
        0
 75
     0
 76
     1
 98
        0
  0
LWPOLYLINE
  5
21A
330
217
100
AcDbEntity
  8
Default
  6
Continuous
 62
     7
 48
25.4
370
    20
100
AcDbPolyline
 90
        4
 70
     1
 43
0.00025
 10
425.5664128396
 20
394.0748247692
 10
421.5664126496
 20
393.4081580709
 10
425.5664128396
 20
392.7414913726
 10
425.5664128396
 20
394.0748247692
  0
HATCH
  5
21B
330
217
100
AcDbEntity
  8
Default
  6
Continuous
 62
     7
 48
25.4
100
AcDbHatch
 10
0.0
 20
0.0
 30
0.0
210
0.0
220
0.0
230
1.0
  2
SOLID
 70
     1
 71
     0
 91
        1
 92
        1
 93
        3
 72
     1
 10
442.0664118188885
 20
394.074824769235
 11
442.0664118188885
 21
392.7414913725717
 72
     1
 10
442.0664118188885
 20
392.7414913725717
 11
446.0664120088783
 21
393.4081580709033
 72
     1
 10
446.0664120088783
 20
393.4081580709033
 11
442.0664118188885
 21
394.074824769235
 97
        0
 75
     0
 76
     1
 98
        0
  0
LWPOLYLINE
  5
21C
330
217
100
AcDbEntity
  8
Default
  6
Continuous
 62
     7
 48
25.4
370
    20
100
AcDbPolyline
 90
        4
 70
     1
 43
0.00025
 10
442.0664118189
 20
394.0748247692
 10
446.0664120089
 20
393.4081580709
 10
442.0664118189
 20
392.7414913726
 10
442.0664118189
 20
394.0748247692
  0
LINE
  5
21D
330
217
100
AcDbEntity
  8
Default
  6
Continuous
 62
     7
 48
25.4
100
AcDbLine
 10
421.5664126496
 20
375.3547214191
 30
0.0
 11
421.5664126496
 21
395.4081581659
 31
0.0
  0
LINE
  5
21E
330
217
100
AcDbEntity
  8
Default
  6
Continuous
 62
     7
 48
25.4
100
AcDbLine
 10
446.0664126496
 20
375.3547214191
 30
0.0
 11
446.0664126496
 21
395.4081581659
 31
0.0
  0
LINE
  5
21F
330
217
100
AcDbEntity
  8
Default
  6
Continuous
 62
     7
 48
25.4
100
AcDbLine
 10
421.5664126496
 20
393.4081580709
 30
0.0
 11
446.0664120089
 21
393.4081580709
 31
0.0
  0
TEXT
  5
220
330
217
100
AcDbEntity
  8
Default
  6
Continuous
 62
     7
 48
25.4
100
AcDbText
 10
430.6859775466
 20
394.4081580709
 30
0.0
 40
4.0
  1
35
  7
SEACAD_arial_ttf
 11
430.6859775466
 21
398.4081580709
 31
0.0
100
AcDbText
 73
     3
  0
ENDBLK
  5
222
330
217
100
AcDbEntity
  8
0
100
AcDbBlockEnd
  0
BLOCK
  5
22C
330
223
100
AcDbEntity
  8
0
100
AcDbBlockBegin
  2
GDimGGroup1
 70
     0
 71
     0
 10
0.0
 20
0.0
 30
0.0
  3
GDimGGroup1
  1

  0
HATCH
  5
225
330
223
100
AcDbEntity
  8
Default
  6
Continuous
 62
     7
 48
25.4
100
AcDbHatch
 10
0.0
 20
0.0
 30
0.0
210
0.0
220
0.0
230
1.0
  2
SOLID
 70
     1
 71
     0
 91
        1
 92
        1
 93
        3
 72
     1
 10
142.4841906370523
 20
234.3174130703056
 11
146.4841908270421
 21
234.9840797686372
 72
     1
 10
146.4841908270421
 20
234.9840797686372
 11
142.4841906370523
 21
235.6507464669688
 72
     1
 10
142.4841906370523
 20
235.6507464669688
 11
142.4841906370523
 21
234.3174130703056
 97
        0
 75
     0
 76
     1
 98
        0
  0
LWPOLYLINE
  5
226
330
223
100
AcDbEntity
  8
Default
  6
Continuous
 62
     7
 48
25.4
370
    20
100
AcDbPolyline
 90
        4
 70
     1
 43
0.00025
 10
142.4841906371
 20
234.3174130703
 10
146.484190827
 20
234.9840797686
 10
142.4841906371
 20
235.650746467
 10
142.4841906371
 20
234.3174130703
  0
HATCH
  5
227
330
223
100
AcDbEntity
  8
Default
  6
Continuous
 62
     7
 48
25.4
100
AcDbHatch
 10
0.0
 20
0.0
 30
0.0
210
0.0
220
0.0
230
1.0
  2
SOLID
 70
     1
 71
     0
 91
        1
 92
        1
 93
        3
 72
     1
 10
153.9841910170318
 20
234.3174130703056
 11
153.9841910170318
 21
235.6507464669688
 72
     1
 10
153.9841910170318
 20
235.6507464669688
 11
149.984190827042
 21
234.9840797686372
 72
     1
 10
149.984190827042
 20
234.9840797686372
 11
153.9841910170318
 21
234.3174130703056
 97
        0
 75
     0
 76
     1
 98
        0
  0
LWPOLYLINE
  5
228
330
223
100
AcDbEntity
  8
Default
  6
Continuous
 62
     7
 48
25.4
370
    20
100
AcDbPolyline
 90
        4
 70
     1
 43
0.00025
 10
153.984191017
 20
234.3174130703
 10
149.984190827
 20
234.9840797686
 10
153.984191017
 20
235.650746467
 10
153.984191017
 20
234.3174130703
  0
LINE
  5
229
330
223
100
AcDbEntity
  8
Default
  6
Continuous
 62
     7
 48
25.4
100
AcDbLine
 10
149.984190827
 20
243.1786202777
 30
0.0
 11
149.984190827
 21
232.9840796736
 31
0.0
  0
LINE
  5
22A
330
223
100
AcDbEntity
  8
Default
  6
Continuous
 62
     7
 48
25.4
100
AcDbLine
 10
138.4841904471
 20
234.9840797686
 30
0.0
 11
162.1671135032
 21
234.9840797686
 31
0.0
  0
TEXT
  5
22B
330
223
100
AcDbEntity
  8
Default
  6
Continuous
 62
     7
 48
25.4
100
AcDbText
 10
157.6366785908
 20
235.9840797686
 30
0.0
 40
4.0
  1
5
  7
SEACAD_arial_ttf
 11
157.6366785908
 21
239.9840797686
 31
0.0
100
AcDbText
 73
     3
  0
ENDBLK
  5
22D
330
223
100
AcDbEntity
  8
0
100
AcDbBlockEnd
  0
BLOCK
  5
239
330
22E
100
AcDbEntity
  8
0
100
AcDbBlockBegin
  2
GDimGGroup2
 70
     0
 71
     0
 10
0.0
 20
0.0
 30
0.0
  3
GDimGGroup2
  1

  0
HATCH
  5
230
330
22E
100
AcDbEntity
  8
Default
  6
Continuous
 62
     7
 48
25.4
100
AcDbHatch
 10
0.0
 20
0.0
 30
0.0
210
0.0
220
0.0
230
1.0
  2
SOLID
 70
     1
 71
     0
 91
        1
 92
        1
 93
        3
 72
     1
 10
223.2140340394839
 20
252.0843736082625
 11
221.8807006428206
 21
252.0843736082625
 72
     1
 10
221.8807006428206
 20
252.0843736082625
 11
222.5473673411523
 21
248.0843734182727
 72
     1
 10
222.5473673411523
 20
248.0843734182727
 11
223.2140340394839
 21
252.0843736082625
 97
        0
 75
     0
 76
     1
 98
        0
  0
LWPOLYLINE
  5
231
330
22E
100
AcDbEntity
  8
Default
  6
Continuous
 62
     7
 48
25.4
370
    20
100
AcDbPolyline
 90
        4
 70
     1
 43
0.00025
 10
223.2140340395
 20
252.0843736083
 10
222.5473673412
 20
248.0843734183
 10
221.8807006428
 20
252.0843736083
 10
223.2140340395
 20
252.0843736083
  0
HATCH
  5
232
330
22E
100
AcDbEntity
  8
Default
  6
Continuous
 62
     7
 48
25.4
100
AcDbHatch
 10
0.0
 20
0.0
 30
0.0
210
0.0
220
0.0
230
1.0
  2
SOLID
 70
     1
 71
     0
 91
        1
 92
        1
 93
        3
 72
     1
 10
223.2140340394839
 20
258.0843732282829
 11
222.5473673411523
 21
262.0843734182727
 72
     1
 10
222.5473673411523
 20
262.0843734182727
 11
221.8807006428206
 21
258.0843732282829
 72
     1
 10
221.8807006428206
 20
258.0843732282829
 11
223.2140340394839
 21
258.0843732282829
 97
        0
 75
     0
 76
     1
 98
        0
  0
LWPOLYLINE
  5
233
330
22E
100
AcDbEntity
  8
Default
  6
Continuous
 62
     7
 48
25.4
370
    20
100
AcDbPolyline
 90
        4
 70
     1
 43
0.00025
 10
223.2140340395
 20
258.0843732283
 10
222.5473673412
 20
262.0843734183
 10
221.8807006428
 20
258.0843732283
 10
223.2140340395
 20
258.0843732283
  0
LINE
  5
234
330
22E
100
AcDbEntity
  8
Default
  6
Continuous
 62
     7
 48
25.4
100
AcDbLine
 10
210.1849123233
 20
248.0843734183
 30
0.0
 11
224.5473674361
 21
248.0843734183
 31
0.0
  0
LINE
  5
235
330
22E
100
AcDbEntity
  8
Default
  6
Continuous
 62
     7
 48
25.4
100
AcDbLine
 10
210.1849123233
 20
262.0843734183
 30
0.0
 11
224.5473674361
 21
262.0843734183
 31
0.0
  0
LINE
  5
236
330
22E
100
AcDbEntity
  8
Default
  6
Continuous
 62
     7
 48
25.4
100
AcDbLine
 10
222.5473673412
 20
248.0843734183
 30
0.0
 11
222.5473673412
 21
281.7969430425
 31
0.0
  0
TEXT
  5
237
330
22E
100
AcDbEntity
  8
Default
  6
Continuous
 62
     7
 48
25.4
100
AcDbText
 10
221.5473673412
 20
274.1360729601
 30
0.0
 40
4.0
  1
20
 50
90.0
  7
SEACAD_arial_ttf
 11
217.5473673412
 21
274.1360729601
 31
0.0
100
AcDbText
 73
     3
  0
TEXT
  5
238
330
22E
100
AcDbEntity
  8
Default
  6
Continuous
 62
     7
 48
25.4
100
AcDbText
 10
221.5473673412
 20
266.7746694513
 30
0.0
 40
4.0
  1
O
 50
90.0
  7
SEACAD_semeca1_ttf
 11
217.5473673412
 21
266.7746694513
 31
0.0
100
AcDbText
 73
     3
  0
ENDBLK
  5
23A
330
22E
100
AcDbEntity
  8
0
100
AcDbBlockEnd
  0
BLOCK
  5
245
330
23B
100
AcDbEntity
  8
0
100
AcDbBlockBegin
  2
GDimGGroup3
 70
     0
 71
     0
 10
0.0
 20
0.0
 30
0.0
  3
GDimGGroup3
  1

  0
HATCH
  5
23D
330
23B
100
AcDbEntity
  8
Default
  6
Continuous
 62
     7
 48
25.4
100
AcDbHatch
 10
0.0
 20
0.0
 30
0.0
210
0.0
220
0.0
230
1.0
  2
SOLID
 70
     1
 71
     0
 91
        1
 92
        1
 93
        3
 72
     1
 10
194.8911755943672
 20
210.0943100670041
 11
198.8911757843571
 21
210.7609767653357
 72
     1
 10
198.8911757843571
 20
210.7609767653357
 11
194.8911755943672
 21
211.4276434636674
 72
     1
 10
194.8911755943672
 20
211.4276434636674
 11
194.8911755943672
 21
210.0943100670041
 97
        0
 75
     0
 76
     1
 98
        0
  0
LWPOLYLINE
  5
23E
330
23B
100
AcDbEntity
  8
Default
  6
Continuous
 62
     7
 48
25.4
370
    20
100
AcDbPolyline
 90
        4
 70
     1
 43
0.00025
 10
194.8911755944
 20
210.094310067
 10
198.8911757844
 20
210.7609767653
 10
194.8911755944
 20
211.4276434637
 10
194.8911755944
 20
210.094310067
  0
HATCH
  5
23F
330
23B
100
AcDbEntity
  8
Default
  6
Continuous
 62
     7
 48
25.4
100
AcDbHatch
 10
0.0
 20
0.0
 30
0.0
210
0.0
220
0.0
230
1.0
  2
SOLID
 70
     1
 71
     0
 91
        1
 92
        1
 93
        3
 72
     1
 10
214.1849125132773
 20
210.0943100670041
 11
214.1849125132773
 21
211.4276434636674
 72
     1
 10
214.1849125132773
 20
211.4276434636674
 11
210.1849123232875
 21
210.7609767653357
 72
     1
 10
210.1849123232875
 20
210.7609767653357
 11
214.1849125132773
 21
210.0943100670041
 97
        0
 75
     0
 76
     1
 98
        0
  0
LWPOLYLINE
  5
240
330
23B
100
AcDbEntity
  8
Default
  6
Continuous
 62
     7
 48
25.4
370
    20
100
AcDbPolyline
 90
        4
 70
     1
 43
0.00025
 10
214.1849125133
 20
210.094310067
 10
210.1849123233
 20
210.7609767653
 10
214.1849125133
 20
211.4276434637
 10
214.1849125133
 20
210.094310067
  0
LINE
  5
241
330
23B
100
AcDbEntity
  8
Default
  6
Continuous
 62
     7
 48
25.4
100
AcDbLine
 10
198.8911757844
 20
248.0843734183
 30
0.0
 11
198.8911757844
 21
208.7609766703
 31
0.0
  0
LINE
  5
242
330
23B
100
AcDbEntity
  8
Default
  6
Continuous
 62
     7
 48
25.4
100
AcDbLine
 10
210.1849123233
 20
229.6695232189
 30
0.0
 11
210.1849123233
 21
208.7609766703
 31
0.0
  0
LINE
  5
243
330
23B
100
AcDbEntity
  8
Default
  6
Continuous
 62
     7
 48
25.4
100
AcDbLine
 10
190.8911754044
 20
210.7609767653
 30
0.0
 11
224.6281466113
 21
210.7609767653
 31
0.0
  0
TEXT
  5
244
330
23B
100
AcDbEntity
  8
Default
  6
Continuous
 62
     7
 48
25.4
100
AcDbText
 10
216.9672757553
 20
211.7609767653
 30
0.0
 40
4.0
  1
16
  7
SEACAD_arial_ttf
 11
216.9672757553
 21
215.7609767653
 31
0.0
100
AcDbText
 73
     3
  0
ENDBLK
  5
246
330
23B
100
AcDbEntity
  8
0
100
AcDbBlockEnd
  0
BLOCK
  5
252
330
247
100
AcDbEntity
  8
0
100
AcDbBlockBegin
  2
GDimGGroup4
 70
     0
 71
     0
 10
0.0
 20
0.0
 30
0.0
  3
GDimGGroup4
  1

  0
HATCH
  5
249
330
247
100
AcDbEntity
  8
Default
  6
Continuous
 62
     7
 48
25.4
100
AcDbHatch
 10
0.0
 20
0.0
 30
0.0
210
0.0
220
0.0
230
1.0
  2
SOLID
 70
     1
 71
     0
 91
        1
 92
        1
 93
        3
 72
     1
 10
39.7455961282603
 20
371.2695230288904
 11
41.07892952492357
 21
371.2695230288904
 72
     1
 10
41.07892952492357
 20
371.2695230288904
 11
40.41226282659194
 21
375.2695232188802
 72
     1
 10
40.41226282659194
 20
375.2695232188802
 11
39.74559612826031
 21
371.2695230288904
 97
        0
 75
     0
 76
     1
 98
        0
  0
LWPOLYLINE
  5
24A
330
247
100
AcDbEntity
  8
Default
  6
Continuous
 62
     7
 48
25.4
370
    20
100
AcDbPolyline
 90
        4
 70
     1
 43
0.00025
 10
39.7455961283
 20
371.2695230289
 10
40.4122628266
 20
375.2695232189
 10
41.0789295249
 20
371.2695230289
 10
39.7455961283
 20
371.2695230289
  0
HATCH
  5
24B
330
247
100
AcDbEntity
  8
Default
  6
Continuous
 62
     7
 48
25.4
100
AcDbHatch
 10
0.0
 20
0.0
 30
0.0
210
0.0
220
0.0
230
1.0
  2
SOLID
 70
     1
 71
     0
 91
        1
 92
        1
 93
        3
 72
     1
 10
39.7455961282603
 20
232.2695235280793
 11
40.41226282659194
 21
228.2695233380895
 72
     1
 10
40.41226282659194
 20
228.2695233380895
 11
41.07892952492357
 21
232.2695235280793
 72
     1
 10
41.07892952492357
 20
232.2695235280793
 11
39.74559612826031
 21
232.2695235280793
 97
        0
 75
     0
 76
     1
 98
        0
  0
LWPOLYLINE
  5
24C
330
247
100
AcDbEntity
  8
Default
  6
Continuous
 62
     7
 48
25.4
370
    20
100
AcDbPolyline
 90
        4
 70
     1
 43
0.00025
 10
39.7455961283
 20
232.2695235281
 10
40.4122628266
 20
228.2695233381
 10
41.0789295249
 20
232.2695235281
 10
39.7455961283
 20
232.2695235281
  0
LINE
  5
24D
330
247
100
AcDbEntity
  8
Default
  6
Continuous
 62
     7
 48
25.4
100
AcDbLine
 10
147.884190827
 20
375.2695232189
 30
0.0
 11
38.4122627316
 21
375.2695232189
 31
0.0
  0
LINE
  5
24E
330
247
100
AcDbEntity
  8
Default
  6
Continuous
 62
     7
 48
25.4
100
AcDbLine
 10
147.884190827
 20
228.2695232189
 30
0.0
 11
38.4122627316
 21
228.2695232189
 31
0.0
  0
LINE
  5
24F
330
247
100
AcDbEntity
  8
Default
  6
Continuous
 62
     7
 48
25.4
100
AcDbLine
 10
40.4122628266
 20
375.2695232189
 30
0.0
 11
40.4122628266
 21
228.2695233381
 31
0.0
  0
TEXT
  5
250
330
247
100
AcDbEntity
  8
Default
  6
Continuous
 62
     7
 48
25.4
100
AcDbText
 10
39.4122628266
 20
300.754572859
 30
0.0
 40
4.0
  1
210
 50
90.0
  7
SEACAD_arial_ttf
 11
35.4122628266
 21
300.754572859
 31
0.0
100
AcDbText
 73
     3
  0
TEXT
  5
251
330
247
100
AcDbEntity
  8
Default
  6
Continuous
 62
     7
 48
25.4
100
AcDbText
 10
39.4122628266
 20
293.3931693502
 30
0.0
 40
4.0
  1
O
 50
90.0
  7
SEACAD_semeca1_ttf
 11
35.4122628266
 21
293.3931693502
 31
0.0
100
AcDbText
 73
     3
  0
ENDBLK
  5
253
330
247
100
AcDbEntity
  8
0
100
AcDbBlockEnd
  0
BLOCK
  5
25E
330
254
100
AcDbEntity
  8
0
100
AcDbBlockBegin
  2
GDimGGroup5
 70
     0
 71
     0
 10
0.0
 20
0.0
 30
0.0
  3
GDimGGroup5
  1

  0
HATCH
  5
256
330
254
100
AcDbEntity
  8
Default
  6
Continuous
 62
     7
 48
25.4
100
AcDbHatch
 10
0.0
 20
0.0
 30
0.0
210
0.0
220
0.0
230
1.0
  2
SOLID
 70
     1
 71
     0
 91
        1
 92
        1
 93
        3
 72
     1
 10
233.4849121332977
 20
394.8613475506356
 11
233.4849121332977
 21
393.5280141539723
 72
     1
 10
233.4849121332977
 20
393.5280141539723
 11
237.4849123232876
 21
394.194680852304
 72
     1
 10
237.4849123232876
 20
394.194680852304
 11
233.4849121332977
 21
394.8613475506356
 97
        0
 75
     0
 76
     1
 98
        0
  0
LWPOLYLINE
  5
257
330
254
100
AcDbEntity
  8
Default
  6
Continuous
 62
     7
 48
25.4
370
    20
100
AcDbPolyline
 90
        4
 70
     1
 43
0.00025
 10
233.4849121333
 20
394.8613475506
 10
237.4849123233
 20
394.1946808523
 10
233.4849121333
 20
393.528014154
 10
233.4849121333
 20
394.8613475506
  0
HATCH
  5
258
330
254
100
AcDbEntity
  8
Default
  6
Continuous
 62
     7
 48
25.4
100
AcDbHatch
 10
0.0
 20
0.0
 30
0.0
210
0.0
220
0.0
230
1.0
  2
SOLID
 70
     1
 71
     0
 91
        1
 92
        1
 93
        3
 72
     1
 10
214.1849123225425
 20
394.8613475506356
 11
210.1849121325527
 21
394.194680852304
 72
     1
 10
210.1849121325527
 20
394.194680852304
 11
214.1849123225425
 21
393.5280141539723
 72
     1
 10
214.1849123225425
 20
393.5280141539723
 11
214.1849123225425
 21
394.8613475506356
 97
        0
 75
     0
 76
     1
 98
        0
  0
LWPOLYLINE
  5
259
330
254
100
AcDbEntity
  8
Default
  6
Continuous
 62
     7
 48
25.4
370
    20
100
AcDbPolyline
 90
        4
 70
     1
 43
0.00025
 10
214.1849123225
 20
394.8613475506
 10
210.1849121326
 20
394.1946808523
 10
214.1849123225
 20
393.528014154
 10
214.1849123225
 20
394.8613475506
  0
LINE
  5
25A
330
254
100
AcDbEntity
  8
Default
  6
Continuous
 62
     7
 48
25.4
100
AcDbLine
 10
237.4849123233
 20
375.9695232189
 30
0.0
 11
237.4849123233
 21
396.1946809473
 31
0.0
  0
LINE
  5
25B
330
254
100
AcDbEntity
  8
Default
  6
Continuous
 62
     7
 48
25.4
100
AcDbLine
 10
210.1849123233
 20
373.8695232189
 30
0.0
 11
210.1849123233
 21
396.1946809473
 31
0.0
  0
LINE
  5
25C
330
254
100
AcDbEntity
  8
Default
  6
Continuous
 62
     7
 48
25.4
100
AcDbLine
 10
237.4849123233
 20
394.1946808523
 30
0.0
 11
210.1849121326
 21
394.1946808523
 31
0.0
  0
TEXT
  5
25D
330
254
100
AcDbEntity
  8
Default
  6
Continuous
 62
     7
 48
25.4
100
AcDbText
 10
220.7044774453
 20
395.1946808523
 30
0.0
 40
4.0
  1
39
  7
SEACAD_arial_ttf
 11
220.7044774453
 21
399.1946808523
 31
0.0
100
AcDbText
 73
     3
  0
ENDBLK
  5
25F
330
254
100
AcDbEntity
  8
0
100
AcDbBlockEnd
  0
BLOCK
  5
26A
330
260
100
AcDbEntity
  8
0
100
AcDbBlockBegin
  2
GDimGGroup6
 70
     0
 71
     0
 10
0.0
 20
0.0
 30
0.0
  3
GDimGGroup6
  1

  0
HATCH
  5
262
330
260
100
AcDbEntity
  8
Default
  6
Continuous
 62
     7
 48
25.4
100
AcDbHatch
 10
0.0
 20
0.0
 30
0.0
210
0.0
220
0.0
230
1.0
  2
SOLID
 70
     1
 71
     0
 91
        1
 92
        1
 93
        3
 72
     1
 10
291.1900640759926
 20
345.7224973274371
 11
289.8567306793293
 21
345.7224973274371
 72
     1
 10
289.8567306793293
 20
345.7224973274371
 11
290.5233973776609
 21
341.7224971374473
 72
     1
 10
290.5233973776609
 20
341.7224971374473
 11
291.1900640759926
 21
345.7224973274371
 97
        0
 75
     0
 76
     1
 98
        0
  0
LWPOLYLINE
  5
263
330
260
100
AcDbEntity
  8
Default
  6
Continuous
 62
     7
 48
25.4
370
    20
100
AcDbPolyline
 90
        4
 70
     1
 43
0.00025
 10
291.190064076
 20
345.7224973274
 10
290.5233973777
 20
341.7224971374
 10
289.8567306793
 20
345.7224973274
 10
291.190064076
 20
345.7224973274
  0
HATCH
  5
264
330
260
100
AcDbEntity
  8
Default
  6
Continuous
 62
     7
 48
25.4
100
AcDbHatch
 10
0.0
 20
0.0
 30
0.0
210
0.0
220
0.0
230
1.0
  2
SOLID
 70
     1
 71
     0
 91
        1
 92
        1
 93
        3
 72
     1
 10
291.1900640759926
 20
355.1695364324352
 11
290.5233973776609
 21
359.169536622425
 72
     1
 10
290.5233973776609
 20
359.169536622425
 11
289.8567306793293
 21
355.1695364324352
 72
     1
 10
289.8567306793293
 20
355.1695364324352
 11
291.1900640759926
 21
355.1695364324352
 97
        0
 75
     0
 76
     1
 98
        0
  0
LWPOLYLINE
  5
265
330
260
100
AcDbEntity
  8
Default
  6
Continuous
 62
     7
 48
25.4
370
    20
100
AcDbPolyline
 90
        4
 70
     1
 43
0.00025
 10
291.190064076
 20
355.1695364324
 10
290.5233973777
 20
359.1695366224
 10
289.8567306793
 20
355.1695364324
 10
291.190064076
 20
355.1695364324
  0
LINE
  5
266
330
260
100
AcDbEntity
  8
Default
  6
Continuous
 62
     7
 48
25.4
100
AcDbLine
 10
244.948858968
 20
341.7224971374
 30
0.0
 11
292.5233974727
 21
341.7224971374
 31
0.0
  0
LINE
  5
267
330
260
100
AcDbEntity
  8
Default
  6
Continuous
 62
     7
 48
25.4
100
AcDbLine
 10
245.1230757543
 20
359.1695372097
 30
0.0
 11
292.5233974727
 21
359.1695372097
 31
0.0
  0
LINE
  5
268
330
260
100
AcDbEntity
  8
Default
  6
Continuous
 62
     7
 48
25.4
100
AcDbLine
 10
290.5233973777
 20
341.7224971374
 30
0.0
 11
290.5233973777
 21
359.1695366224
 31
0.0
  0
TEXT
  5
269
330
260
100
AcDbEntity
  8
Default
  6
Continuous
 62
     7
 48
25.4
100
AcDbText
 10
289.5233973777
 20
347.3155820973
 30
0.0
 40
4.0
  1
25
 50
90.0
  7
SEACAD_arial_ttf
 11
285.5233973777
 21
347.3155820973
 31
0.0
100
AcDbText
 73
     3
  0
ENDBLK
  5
26B
330
260
100
AcDbEntity
  8
0
100
AcDbBlockEnd
  0
BLOCK
  5
276
330
26C
100
AcDbEntity
  8
0
100
AcDbBlockBegin
  2
GDimGGroup7
 70
     0
 71
     0
 10
0.0
 20
0.0
 30
0.0
  3
GDimGGroup7
  1

  0
HATCH
  5
26E
330
26C
100
AcDbEntity
  8
Default
  6
Continuous
 62
     7
 48
25.4
100
AcDbHatch
 10
0.0
 20
0.0
 30
0.0
210
0.0
220
0.0
230
1.0
  2
SOLID
 70
     1
 71
     0
 91
        1
 92
        1
 93
        3
 72
     1
 10
291.1900643698439
 20
371.9695230288904
 11
290.5233976715122
 21
375.9695232188802
 72
     1
 10
290.5233976715122
 20
375.9695232188802
 11
289.8567309731806
 21
371.9695230288904
 72
     1
 10
289.8567309731806
 20
371.9695230288904
 11
291.1900643698439
 21
371.9695230288904
 97
        0
 75
     0
 76
     1
 98
        0
  0
LWPOLYLINE
  5
26F
330
26C
100
AcDbEntity
  8
Default
  6
Continuous
 62
     7
 48
25.4
370
    20
100
AcDbPolyline
 90
        4
 70
     1
 43
0.00025
 10
291.1900643698
 20
371.9695230289
 10
290.5233976715
 20
375.9695232189
 10
289.8567309732
 20
371.9695230289
 10
291.1900643698
 20
371.9695230289
  0
HATCH
  5
270
330
26C
100
AcDbEntity
  8
Default
  6
Continuous
 62
     7
 48
25.4
100
AcDbHatch
 10
0.0
 20
0.0
 30
0.0
210
0.0
220
0.0
230
1.0
  2
SOLID
 70
     1
 71
     0
 91
        1
 92
        1
 93
        3
 72
     1
 10
291.1900643698439
 20
363.1695370464127
 11
289.8567309731806
 21
363.1695370464127
 72
     1
 10
289.8567309731806
 20
363.1695370464127
 11
290.5233976715122
 21
359.1695368564229
 72
     1
 10
290.5233976715122
 20
359.1695368564229
 11
291.1900643698439
 21
363.1695370464127
 97
        0
 75
     0
 76
     1
 98
        0
  0
LWPOLYLINE
  5
271
330
26C
100
AcDbEntity
  8
Default
  6
Continuous
 62
     7
 48
25.4
370
    20
100
AcDbPolyline
 90
        4
 70
     1
 43
0.00025
 10
291.1900643698
 20
363.1695370464
 10
290.5233976715
 20
359.1695368564
 10
289.8567309732
 20
363.1695370464
 10
291.1900643698
 20
363.1695370464
  0
LINE
  5
272
330
26C
100
AcDbEntity
  8
Default
  6
Continuous
 62
     7
 48
25.4
100
AcDbLine
 10
237.4849123233
 20
375.9695232189
 30
0.0
 11
292.5233977665
 21
375.9695232189
 31
0.0
  0
LINE
  5
273
330
26C
100
AcDbEntity
  8
Default
  6
Continuous
 62
     7
 48
25.4
100
AcDbLine
 10
245.1230757543
 20
359.1695372097
 30
0.0
 11
292.5233977665
 21
359.1695372097
 31
0.0
  0
LINE
  5
274
330
26C
100
AcDbEntity
  8
Default
  6
Continuous
 62
     7
 48
25.4
100
AcDbLine
 10
290.5233976715
 20
375.9695232189
 30
0.0
 11
290.5233976715
 21
359.1695368564
 31
0.0
  0
TEXT
  5
275
330
26C
100
AcDbEntity
  8
Default
  6
Continuous
 62
     7
 48
25.4
100
AcDbText
 10
289.5233976715
 20
364.439095255
 30
0.0
 40
4.0
  1
24
 50
90.0
  7
SEACAD_arial_ttf
 11
285.5233976715
 21
364.439095255
 31
0.0
100
AcDbText
 73
     3
  0
ENDBLK
  5
277
330
26C
100
AcDbEntity
  8
0
100
AcDbBlockEnd
  0
BLOCK
  5
283
330
278
100
AcDbEntity
  8
0
100
AcDbBlockBegin
  2
GDimGGroup8
 70
     0
 71
     0
 10
0.0
 20
0.0
 30
0.0
  3
GDimGGroup8
  1

  0
HATCH
  5
27A
330
278
100
AcDbEntity
  8
Default
  6
Continuous
 62
     7
 48
25.4
100
AcDbHatch
 10
0.0
 20
0.0
 30
0.0
210
0.0
220
0.0
230
1.0
  2
SOLID
 70
     1
 71
     0
 91
        1
 92
        1
 93
        3
 72
     1
 10
83.46623834923423
 20
335.0007730288903
 11
84.79957174589751
 21
335.0007730288903
 72
     1
 10
84.79957174589751
 20
335.0007730288903
 11
84.13290504756587
 21
339.0007732188801
 72
     1
 10
84.13290504756587
 20
339.0007732188801
 11
83.46623834923423
 21
335.0007730288903
 97
        0
 75
     0
 76
     1
 98
        0
  0
LWPOLYLINE
  5
27B
330
278
100
AcDbEntity
  8
Default
  6
Continuous
 62
     7
 48
25.4
370
    20
100
AcDbPolyline
 90
        4
 70
     1
 43
0.00025
 10
83.4662383492
 20
335.0007730289
 10
84.1329050476
 20
339.0007732189
 10
84.7995717459
 20
335.0007730289
 10
83.4662383492
 20
335.0007730289
  0
HATCH
  5
27C
330
278
100
AcDbEntity
  8
Default
  6
Continuous
 62
     7
 48
25.4
100
AcDbHatch
 10
0.0
 20
0.0
 30
0.0
210
0.0
220
0.0
230
1.0
  2
SOLID
 70
     1
 71
     0
 91
        1
 92
        1
 93
        3
 72
     1
 10
83.46623834923423
 20
268.538270214061
 11
84.13290504756587
 21
264.5382700240712
 72
     1
 10
84.13290504756587
 20
264.5382700240712
 11
84.79957174589751
 21
268.538270214061
 72
     1
 10
84.79957174589751
 20
268.538270214061
 11
83.46623834923423
 21
268.538270214061
 97
        0
 75
     0
 76
     1
 98
        0
  0
LWPOLYLINE
  5
27D
330
278
100
AcDbEntity
  8
Default
  6
Continuous
 62
     7
 48
25.4
370
    20
100
AcDbPolyline
 90
        4
 70
     1
 43
0.00025
 10
83.4662383492
 20
268.5382702141
 10
84.1329050476
 20
264.5382700241
 10
84.7995717459
 20
268.5382702141
 10
83.4662383492
 20
268.5382702141
  0
LINE
  5
27E
330
278
100
AcDbEntity
  8
Default
  6
Continuous
 62
     7
 48
25.4
100
AcDbLine
 10
138.084190827
 20
339.0007732189
 30
0.0
 11
82.1329049526
 21
339.0007732189
 31
0.0
  0
LINE
  5
27F
330
278
100
AcDbEntity
  8
Default
  6
Continuous
 62
     7
 48
25.4
100
AcDbLine
 10
138.084190827
 20
264.5382732189
 30
0.0
 11
82.1329049526
 21
264.5382732189
 31
0.0
  0
LINE
  5
280
330
278
100
AcDbEntity
  8
Default
  6
Continuous
 62
     7
 48
25.4
100
AcDbLine
 10
84.1329050476
 20
339.0007732189
 30
0.0
 11
84.1329050476
 21
264.5382700241
 31
0.0
  0
TEXT
  5
281
330
278
100
AcDbEntity
  8
Default
  6
Continuous
 62
     7
 48
25.4
100
AcDbText
 10
83.1329050476
 20
295.2763103324
 30
0.0
 40
4.0
  1
106.375
 50
90.0
  7
SEACAD_arial_ttf
 11
79.1329050476
 21
295.2763103324
 31
0.0
100
AcDbText
 73
     3
  0
TEXT
  5
282
330
278
100
AcDbEntity
  8
Default
  6
Continuous
 62
     7
 48
25.4
100
AcDbText
 10
83.1329050476
 20
287.9149068236
 30
0.0
 40
4.0
  1
O
 50
90.0
  7
SEACAD_semeca1_ttf
 11
79.1329050476
 21
287.9149068236
 31
0.0
100
AcDbText
 73
     3
  0
ENDBLK
  5
284
330
278
100
AcDbEntity
  8
0
100
AcDbBlockEnd
  0
BLOCK
  5
291
330
285
100
AcDbEntity
  8
0
100
AcDbBlockBegin
  2
GDimGGroup9
 70
     0
 71
     0
 10
0.0
 20
0.0
 30
0.0
  3
GDimGGroup9
  1

  0
HATCH
  5
287
330
285
100
AcDbEntity
  8
Default
  6
Continuous
 62
     7
 48
25.4
100
AcDbHatch
 10
0.0
 20
0.0
 30
0.0
210
0.0
220
0.0
230
1.0
  2
SOLID
 70
     1
 71
     0
 91
        1
 92
        1
 93
        3
 72
     1
 10
62.16620121554053
 20
247.1786205859277
 11
62.83286791387216
 21
243.1786203959379
 72
     1
 10
62.83286791387216
 20
243.1786203959379
 11
63.4995346122038
 21
247.1786205859277
 72
     1
 10
63.4995346122038
 20
247.1786205859277
 11
62.16620121554053
 21
247.1786205859277
 97
        0
 75
     0
 76
     1
 98
        0
  0
LWPOLYLINE
  5
288
330
285
100
AcDbEntity
  8
Default
  6
Continuous
 62
     7
 48
25.4
370
    20
100
AcDbPolyline
 90
        4
 70
     1
 43
0.00025
 10
62.1662012155
 20
247.1786205859
 10
62.8328679139
 20
243.1786203959
 10
63.4995346122
 20
247.1786205859
 10
62.1662012155
 20
247.1786205859
  0
HATCH
  5
289
330
285
100
AcDbEntity
  8
Default
  6
Continuous
 62
     7
 48
25.4
100
AcDbHatch
 10
0.0
 20
0.0
 30
0.0
210
0.0
220
0.0
230
1.0
  2
SOLID
 70
     1
 71
     0
 91
        1
 92
        1
 93
        3
 72
     1
 10
62.16620121554053
 20
358.1786229477618
 11
63.4995346122038
 21
358.1786229477618
 72
     1
 10
63.4995346122038
 20
358.1786229477618
 11
62.83286791387216
 21
362.1786231377516
 72
     1
 10
62.83286791387216
 20
362.1786231377516
 11
62.16620121554053
 21
358.1786229477618
 97
        0
 75
     0
 76
     1
 98
        0
  0
LWPOLYLINE
  5
28A
330
285
100
AcDbEntity
  8
Default
  6
Continuous
 62
     7
 48
25.4
370
    20
100
AcDbPolyline
 90
        4
 70
     1
 43
0.00025
 10
62.1662012155
 20
358.1786229478
 10
62.8328679139
 20
362.1786231378
 10
63.4995346122
 20
358.1786229478
 10
62.1662012155
 20
358.1786229478
  0
LINE
  5
28B
330
285
100
AcDbEntity
  8
Default
  6
Continuous
 62
     7
 48
25.4
100
AcDbLine
 10
138.784190827
 20
243.1786203959
 30
0.0
 11
60.8328678189
 21
243.1786203959
 31
0.0
  0
LINE
  5
28C
330
285
100
AcDbEntity
  8
Default
  6
Continuous
 62
     7
 48
25.4
100
AcDbLine
 10
138.784190827
 20
362.1786203959
 30
0.0
 11
60.8328678189
 21
362.1786203959
 31
0.0
  0
LINE
  5
28D
330
285
100
AcDbEntity
  8
Default
  6
Continuous
 62
     7
 48
25.4
100
AcDbLine
 10
62.8328679139
 20
243.1786203959
 30
0.0
 11
62.8328679139
 21
362.1786231378
 31
0.0
  0
TEXT
  5
28E
330
285
100
AcDbEntity
  8
Default
  6
Continuous
 62
     7
 48
25.4
100
AcDbText
 10
61.8328679139
 20
296.898453956
 30
0.0
 40
4.0
  1
170
 50
90.0
  7
SEACAD_arial_ttf
 11
57.8328679139
 21
296.898453956
 31
0.0
100
AcDbText
 73
     3
  0
TEXT
  5
28F
330
285
100
AcDbEntity
  8
Default
  6
Continuous
 62
     7
 48
25.4
100
AcDbText
 10
61.8328679139
 20
308.6897583038
 30
0.0
 40
4.0
  1
H6
 50
90.0
  7
SEACAD_arial_ttf
 11
57.8328679139
 21
308.6897583038
 31
0.0
100
AcDbText
 73
     3
  0
TEXT
  5
290
330
285
100
AcDbEntity
  8
Default
  6
Continuous
 62
     7
 48
25.4
100
AcDbText
 10
61.8328679139
 20
289.5370504472
 30
0.0
 40
4.0
  1
O
 50
90.0
  7
SEACAD_semeca1_ttf
 11
57.8328679139
 21
289.5370504472
 31
0.0
100
AcDbText
 73
     3
  0
ENDBLK
  5
292
330
285
100
AcDbEntity
  8
0
100
AcDbBlockEnd
  0
BLOCK
  5
29D
330
293
100
AcDbEntity
  8
0
100
AcDbBlockBegin
  2
GDimGGroup10
 70
     0
 71
     0
 10
0.0
 20
0.0
 30
0.0
  3
GDimGGroup10
  1

  0
HATCH
  5
295
330
293
100
AcDbEntity
  8
Default
  6
Continuous
 62
     7
 48
25.4
100
AcDbHatch
 10
0.0
 20
0.0
 30
0.0
210
0.0
220
0.0
230
1.0
  2
SOLID
 70
     1
 71
     0
 91
        1
 92
        1
 93
        3
 72
     1
 10
142.0841910170319
 20
194.2694558558175
 11
142.0841910170319
 21
195.6027892524808
 72
     1
 10
142.0841910170319
 20
195.6027892524808
 11
138.0841908270421
 21
194.9361225541492
 72
     1
 10
138.0841908270421
 20
194.9361225541492
 11
142.0841910170319
 21
194.2694558558175
 97
        0
 75
     0
 76
     1
 98
        0
  0
LWPOLYLINE
  5
296
330
293
100
AcDbEntity
  8
Default
  6
Continuous
 62
     7
 48
25.4
370
    20
100
AcDbPolyline
 90
        4
 70
     1
 43
0.00025
 10
142.084191017
 20
194.2694558558
 10
138.084190827
 20
194.9361225541
 10
142.084191017
 20
195.6027892525
 10
142.084191017
 20
194.2694558558
  0
HATCH
  5
297
330
293
100
AcDbEntity
  8
Default
  6
Continuous
 62
     7
 48
25.4
100
AcDbHatch
 10
0.0
 20
0.0
 30
0.0
210
0.0
220
0.0
230
1.0
  2
SOLID
 70
     1
 71
     0
 91
        1
 92
        1
 93
        3
 72
     1
 10
206.1849119367005
 20
194.2694558558175
 11
210.1849121266903
 21
194.9361225541492
 72
     1
 10
210.1849121266903
 20
194.9361225541492
 11
206.1849119367005
 21
195.6027892524808
 72
     1
 10
206.1849119367005
 20
195.6027892524808
 11
206.1849119367005
 21
194.2694558558175
 97
        0
 75
     0
 76
     1
 98
        0
  0
LWPOLYLINE
  5
298
330
293
100
AcDbEntity
  8
Default
  6
Continuous
 62
     7
 48
25.4
370
    20
100
AcDbPolyline
 90
        4
 70
     1
 43
0.00025
 10
206.1849119367
 20
194.2694558558
 10
210.1849121267
 20
194.9361225541
 10
206.1849119367
 20
195.6027892525
 10
206.1849119367
 20
194.2694558558
  0
LINE
  5
299
330
293
100
AcDbEntity
  8
Default
  6
Continuous
 62
     7
 48
25.4
100
AcDbLine
 10
138.084190827
 20
243.8786204856
 30
0.0
 11
138.084190827
 21
192.9361224592
 31
0.0
  0
LINE
  5
29A
330
293
100
AcDbEntity
  8
Default
  6
Continuous
 62
     7
 48
25.4
100
AcDbLine
 10
210.1849123233
 20
229.6695232189
 30
0.0
 11
210.1849123233
 21
192.9361224592
 31
0.0
  0
LINE
  5
29B
330
293
100
AcDbEntity
  8
Default
  6
Continuous
 62
     7
 48
25.4
100
AcDbLine
 10
138.084190827
 20
194.9361225541
 30
0.0
 11
210.1849121267
 21
194.9361225541
 31
0.0
  0
TEXT
  5
29C
330
293
100
AcDbEntity
  8
Default
  6
Continuous
 62
     7
 48
25.4
100
AcDbText
 10
169.438899303
 20
195.9361225541
 30
0.0
 40
4.0
  1
103
  7
SEACAD_arial_ttf
 11
169.438899303
 21
199.9361225541
 31
0.0
100
AcDbText
 73
     3
  0
ENDBLK
  5
29E
330
293
100
AcDbEntity
  8
0
100
AcDbBlockEnd
  0
BLOCK
  5
2A9
330
29F
100
AcDbEntity
  8
0
100
AcDbBlockBegin
  2
GDimGGroup11
 70
     0
 71
     0
 10
0.0
 20
0.0
 30
0.0
  3
GDimGGroup11
  1

  0
HATCH
  5
2A1
330
29F
100
AcDbEntity
  8
Default
  6
Continuous
 62
     7
 48
25.4
100
AcDbHatch
 10
0.0
 20
0.0
 30
0.0
210
0.0
220
0.0
230
1.0
  2
SOLID
 70
     1
 71
     0
 91
        1
 92
        1
 93
        3
 72
     1
 10
134.0841906370523
 20
210.7636134902679
 11
138.0841908270421
 21
211.4302801885996
 72
     1
 10
138.0841908270421
 20
211.4302801885996
 11
134.0841906370523
 21
212.0969468869312
 72
     1
 10
134.0841906370523
 20
212.0969468869312
 11
134.0841906370523
 21
210.7636134902679
 97
        0
 75
     0
 76
     1
 98
        0
  0
LWPOLYLINE
  5
2A2
330
29F
100
AcDbEntity
  8
Default
  6
Continuous
 62
     7
 48
25.4
370
    20
100
AcDbPolyline
 90
        4
 70
     1
 43
0.00025
 10
134.0841906371
 20
210.7636134903
 10
138.084190827
 20
211.4302801886
 10
134.0841906371
 20
212.0969468869
 10
134.0841906371
 20
210.7636134903
  0
HATCH
  5
2A3
330
29F
100
AcDbEntity
  8
Default
  6
Continuous
 62
     7
 48
25.4
100
AcDbHatch
 10
0.0
 20
0.0
 30
0.0
210
0.0
220
0.0
230
1.0
  2
SOLID
 70
     1
 71
     0
 91
        1
 92
        1
 93
        3
 72
     1
 10
153.9841910170318
 20
210.7636134902679
 11
153.9841910170318
 21
212.0969468869312
 72
     1
 10
153.9841910170318
 20
212.0969468869312
 11
149.984190827042
 21
211.4302801885996
 72
     1
 10
149.984190827042
 20
211.4302801885996
 11
153.9841910170318
 21
210.7636134902679
 97
        0
 75
     0
 76
     1
 98
        0
  0
LWPOLYLINE
  5
2A4
330
29F
100
AcDbEntity
  8
Default
  6
Continuous
 62
     7
 48
25.4
370
    20
100
AcDbPolyline
 90
        4
 70
     1
 43
0.00025
 10
153.984191017
 20
210.7636134903
 10
149.984190827
 20
211.4302801886
 10
153.984191017
 20
212.0969468869
 10
153.984191017
 20
210.7636134903
  0
LINE
  5
2A5
330
29F
100
AcDbEntity
  8
Default
  6
Continuous
 62
     7
 48
25.4
100
AcDbLine
 10
138.084190827
 20
243.8786203959
 30
0.0
 11
138.084190827
 21
209.4302800936
 31
0.0
  0
LINE
  5
2A6
330
29F
100
AcDbEntity
  8
Default
  6
Continuous
 62
     7
 48
25.4
100
AcDbLine
 10
149.984190827
 20
243.1786203959
 30
0.0
 11
149.984190827
 21
209.4302800936
 31
0.0
  0
LINE
  5
2A7
330
29F
100
AcDbEntity
  8
Default
  6
Continuous
 62
     7
 48
25.4
100
AcDbLine
 10
130.0841904471
 20
211.4302801886
 30
0.0
 11
157.9841905499
 21
211.4302801886
 31
0.0
  0
TEXT
  5
2A8
330
29F
100
AcDbEntity
  8
Default
  6
Continuous
 62
     7
 48
25.4
100
AcDbText
 10
140.9037561815
 20
212.4302801886
 30
0.0
 40
4.0
  1
17
  7
SEACAD_arial_ttf
 11
140.9037561815
 21
216.4302801886
 31
0.0
100
AcDbText
 73
     3
  0
ENDBLK
  5
2AA
330
29F
100
AcDbEntity
  8
0
100
AcDbBlockEnd
  0
BLOCK
  5
2B5
330
2AB
100
AcDbEntity
  8
0
100
AcDbBlockBegin
  2
GDimGGroup12
 70
     0
 71
     0
 10
0.0
 20
0.0
 30
0.0
  3
GDimGGroup12
  1

  0
HATCH
  5
2AD
330
2AB
100
AcDbEntity
  8
Default
  6
Continuous
 62
     7
 48
25.4
100
AcDbHatch
 10
0.0
 20
0.0
 30
0.0
210
0.0
220
0.0
230
1.0
  2
SOLID
 70
     1
 71
     0
 91
        1
 92
        1
 93
        3
 72
     1
 10
312.1614072911009
 20
313.46952340887
 11
310.8280738944376
 21
313.46952340887
 72
     1
 10
310.8280738944376
 20
313.46952340887
 11
311.4947405927692
 21
309.4695232188802
 72
     1
 10
311.4947405927692
 20
309.4695232188802
 11
312.1614072911009
 21
313.46952340887
 97
        0
 75
     0
 76
     1
 98
        0
  0
LWPOLYLINE
  5
2AE
330
2AB
100
AcDbEntity
  8
Default
  6
Continuous
 62
     7
 48
25.4
370
    20
100
AcDbPolyline
 90
        4
 70
     1
 43
0.00025
 10
312.1614072911
 20
313.4695234089
 10
311.4947405928
 20
309.4695232189
 10
310.8280738944
 20
313.4695234089
 10
312.1614072911
 20
313.4695234089
  0
HATCH
  5
2AF
330
2AB
100
AcDbEntity
  8
Default
  6
Continuous
 62
     7
 48
25.4
100
AcDbHatch
 10
0.0
 20
0.0
 30
0.0
210
0.0
220
0.0
230
1.0
  2
SOLID
 70
     1
 71
     0
 91
        1
 92
        1
 93
        3
 72
     1
 10
312.1614072911009
 20
371.9695236845415
 11
311.4947405927692
 21
375.9695238745313
 72
     1
 10
311.4947405927692
 20
375.9695238745313
 11
310.8280738944376
 21
371.9695236845415
 72
     1
 10
310.8280738944376
 20
371.9695236845415
 11
312.1614072911009
 21
371.9695236845415
 97
        0
 75
     0
 76
     1
 98
        0
  0
LWPOLYLINE
  5
2B0
330
2AB
100
AcDbEntity
  8
Default
  6
Continuous
 62
     7
 48
25.4
370
    20
100
AcDbPolyline
 90
        4
 70
     1
 43
0.00025
 10
312.1614072911
 20
371.9695236845
 10
311.4947405928
 20
375.9695238745
 10
310.8280738944
 20
371.9695236845
 10
312.1614072911
 20
371.9695236845
  0
LINE
  5
2B1
330
2AB
100
AcDbEntity
  8
Default
  6
Continuous
 62
     7
 48
25.4
100
AcDbLine
 10
237.4849123233
 20
309.4695232189
 30
0.0
 11
313.4947406878
 21
309.4695232189
 31
0.0
  0
LINE
  5
2B2
330
2AB
100
AcDbEntity
  8
Default
  6
Continuous
 62
     7
 48
25.4
100
AcDbLine
 10
237.4849123233
 20
375.9695232189
 30
0.0
 11
313.4947406878
 21
375.9695232189
 31
0.0
  0
LINE
  5
2B3
330
2AB
100
AcDbEntity
  8
Default
  6
Continuous
 62
     7
 48
25.4
100
AcDbLine
 10
311.4947405928
 20
309.4695232189
 30
0.0
 11
311.4947405928
 21
375.9695238745
 31
0.0
  0
TEXT
  5
2B4
330
2AB
100
AcDbEntity
  8
Default
  6
Continuous
 62
     7
 48
25.4
100
AcDbText
 10
310.4947405928
 20
339.5890887641
 30
0.0
 40
4.0
  1
95
 50
90.0
  7
SEACAD_arial_ttf
 11
306.4947405928
 21
339.5890887641
 31
0.0
100
AcDbText
 73
     3
  0
ENDBLK
  5
2B6
330
2AB
100
AcDbEntity
  8
0
100
AcDbBlockEnd
  0
BLOCK
  5
2C3
330
2B7
100
AcDbEntity
  8
0
100
AcDbBlockBegin
  2
GDimGGroup13
 70
     0
 71
     0
 10
0.0
 20
0.0
 30
0.0
  3
GDimGGroup13
  1

  0
HATCH
  5
2B9
330
2B7
100
AcDbEntity
  8
Default
  6
Continuous
 62
     7
 48
25.4
100
AcDbHatch
 10
0.0
 20
0.0
 30
0.0
210
0.0
220
0.0
230
1.0
  2
SOLID
 70
     1
 71
     0
 91
        1
 92
        1
 93
        3
 72
     1
 10
84.50351339506727
 20
349.6318147118817
 11
84.52748092186302
 21
345.5767103279919
 72
     1
 10
84.52748092186302
 20
345.5767103279919
 11
85.81997792642588
 21
349.4203931322539
 72
     1
 10
85.81997792642589
 20
349.4203931322539
 11
84.50351339506727
 21
349.6318147118817
 97
        0
 75
     0
 76
     1
 98
        0
  0
LWPOLYLINE
  5
2BA
330
2B7
100
AcDbEntity
  8
Default
  6
Continuous
 62
     7
 48
25.4
370
    20
100
AcDbPolyline
 90
        4
 70
     1
 43
0.00025
 10
84.5035133951
 20
349.6318147119
 10
84.5274809219
 20
345.576710328
 10
85.8199779264
 20
349.4203931323
 10
84.5035133951
 20
349.6318147119
  0
HATCH
  5
2BB
330
2B7
100
AcDbEntity
  8
Default
  6
Continuous
 62
     7
 48
25.4
100
AcDbHatch
 10
0.0
 20
0.0
 30
0.0
210
0.0
220
0.0
230
1.0
  2
SOLID
 70
     1
 71
     0
 91
        1
 92
        1
 93
        3
 72
     1
 10
84.93971521359238
 20
335.0282248835146
 11
84.12527937832492
 21
339.0007732188801
 72
     1
 10
84.12527937832492
 20
339.0007732188801
 11
83.60729760021613
 21
334.9788158739882
 72
     1
 10
83.60729760021614
 20
334.9788158739882
 11
84.93971521359238
 21
335.0282248835146
 97
        0
 75
     0
 76
     1
 98
        0
  0
LWPOLYLINE
  5
2BC
330
2B7
100
AcDbEntity
  8
Default
  6
Continuous
 62
     7
 48
25.4
370
    20
100
AcDbPolyline
 90
        4
 70
     1
 43
0.00025
 10
84.9397152136
 20
335.0282248835
 10
84.1252793783
 20
339.0007732189
 10
83.6072976002
 20
334.978815874
 10
84.9397152136
 20
335.0282248835
  0
LINE
  5
2BD
330
2B7
100
AcDbEntity
  8
Default
  6
Continuous
 62
     7
 48
25.4
100
AcDbLine
 10
138.084190827
 20
339.0007732189
 30
0.0
 11
82.5423882932
 21
345.8204490548
 31
0.0
  0
LINE
  5
2BE
330
2B7
100
AcDbEntity
  8
Default
  6
Continuous
 62
     7
 48
25.4
100
AcDbLine
 10
138.084190827
 20
339.0007732189
 30
0.0
 11
82.1252790505
 21
339.0007732189
 31
0.0
  0
ARC
  5
2BF
330
2B7
100
AcDbEntity
  8
Default
  6
Continuous
 62
     7
 48
25.4
100
AcDbCircle
 10
138.084190827
 20
339.0007732189
 30
0.0
 40
53.95891144871637
100
AcDbArc
 50
164.5052723849
 51
180.0000000525
  0
ARC
  5
2C0
330
2B7
100
AcDbEntity
  8
Default
  6
Continuous
 62
     7
 48
25.4
100
AcDbCircle
 10
138.084190827
 20
339.0007732189
 30
0.0
 40
53.95891144871706
100
AcDbArc
 50
180.0
 51
188.4947276151
  0
TEXT
  5
2C1
330
2B7
100
AcDbEntity
  8
Default
  6
Continuous
 62
     7
 48
25.4
100
AcDbText
 10
82.5026383484
 20
330.4998289786
 30
0.0
 40
4.0
  1
7°
 50
86.5
  7
SEACAD_arial_ttf
 11
78.5100991547
 21
330.7440231367
 31
0.0
100
AcDbText
 73
     3
  0
TEXT
  5
2C2
330
2B7
100
AcDbEntity
  8
Default
  6
Continuous
 62
     7
 48
25.4
100
AcDbText
 10
83.0027055157
 20
338.6758548926
 30
0.0
 40
4.0
  1
07'30"
 50
86.5
  7
SEACAD_arial_ttf
 11
79.010166322
 21
338.9200490508
 31
0.0
100
AcDbText
 73
     3
  0
ENDBLK
  5
2C4
330
2B7
100
AcDbEntity
  8
0
100
AcDbBlockEnd
  0
BLOCK
  5
2CF
330
2C5
100
AcDbEntity
  8
0
100
AcDbBlockBegin
  2
GDimGGroup14
 70
     0
 71
     0
 10
0.0
 20
0.0
 30
0.0
  3
GDimGGroup14
  1

  0
HATCH
  5
2C7
330
2C5
100
AcDbEntity
  8
Default
  6
Continuous
 62
     7
 48
25.4
100
AcDbHatch
 10
0.0
 20
0.0
 30
0.0
210
0.0
220
0.0
230
1.0
  2
SOLID
 70
     1
 71
     0
 91
        1
 92
        1
 93
        3
 72
     1
 10
508.7265129041667
 20
262.9432365893489
 11
507.393642514991
 21
259.1133668092857
 72
     1
 10
507.393642514991
 20
259.1133668092857
 11
509.8965857847724
 21
262.303934312856
 72
     1
 10
509.8965857847724
 20
262.303934312856
 11
508.7265129041667
 21
262.9432365893489
 97
        0
 75
     0
 76
     1
 98
        0
  0
LWPOLYLINE
  5
2C8
330
2C5
100
AcDbEntity
  8
Default
  6
Continuous
 62
     7
 48
25.4
370
    20
100
AcDbPolyline
 90
        4
 70
     1
 43
0.00025
 10
508.7265129042
 20
262.9432365893
 10
507.393642515
 20
259.1133668093
 10
509.8965857848
 20
262.3039343129
 10
508.7265129042
 20
262.9432365893
  0
HATCH
  5
2C9
330
2C5
100
AcDbEntity
  8
Default
  6
Continuous
 62
     7
 48
25.4
100
AcDbHatch
 10
0.0
 20
0.0
 30
0.0
210
0.0
220
0.0
230
1.0
  2
SOLID
 70
     1
 71
     0
 91
        1
 92
        1
 93
        3
 72
     1
 10
519.3484508006
 20
297.5787758222613
 11
518.7761220425175
 21
301.5933599600338
 72
     1
 10
518.7761220425175
 20
301.5933599600338
 11
518.0154868230476
 21
297.6101602324925
 72
     1
 10
518.0154868230477
 20
297.6101602324926
 11
519.3484508006001
 21
297.5787758222613
 97
        0
 75
     0
 76
     1
 98
        0
  0
LWPOLYLINE
  5
2CA
330
2C5
100
AcDbEntity
  8
Default
  6
Continuous
 62
     7
 48
25.4
370
    20
100
AcDbPolyline
 90
        4
 70
     1
 43
0.00025
 10
519.3484508006
 20
297.5787758223
 10
518.7761220425
 20
301.59335996
 10
518.015486823
 20
297.6101602325
 10
519.3484508006
 20
297.5787758223
  0
LINE
  5
2CB
330
2C5
100
AcDbEntity
  8
Default
  6
Continuous
 62
     7
 48
25.4
100
AcDbLine
 10
502.1892592145
 20
262.1181189088
 30
0.0
 11
509.1256903803
 21
258.113368508
 31
0.0
  0
LINE
  5
2CC
330
2C5
100
AcDbEntity
  8
Default
  6
Continuous
 62
     7
 48
25.4
100
AcDbLine
 10
433.8161382168
 20
301.5933587221
 30
0.0
 11
520.7761186451
 21
301.5933587221
 31
0.0
  0
ARC
  5
2CD
330
2C5
100
AcDbEntity
  8
Default
  6
Continuous
 62
     7
 48
25.4
100
AcDbCircle
 10
433.8161382168
 20
301.5933587221
 30
0.0
 40
84.95998382568227
100
AcDbArc
 50
330.0
 51
0.0000008348
  0
TEXT
  5
2CE
330
2C5
100
AcDbEntity
  8
Default
  6
Continuous
 62
     7
 48
25.4
100
AcDbText
 10
513.8124607767
 20
275.747231926
 30
0.0
 40
4.0
  1
30°
 50
75.0
  7
SEACAD_arial_ttf
 11
509.9487574715
 21
276.7825081065
 31
0.0
100
AcDbText
 73
     3
  0
ENDBLK
  5
2D0
330
2C5
100
AcDbEntity
  8
0
100
AcDbBlockEnd
  0
BLOCK
  5
368
330
2D1
100
AcDbEntity
  8
0
100
AcDbBlockBegin
  2
SE2
 70
     0
 71
     0
 10
0.0
 20
0.0
 30
0.0
  3
SE2
  1

  0
LINE
  5
2D4
330
2D1
100
AcDbEntity
  8
DV3_Default
  6
Continuous
 62
     7
 48
25.4
100
AcDbLine
 10
199.5375922449
 20
146.3182696986
 30
0.0
 11
199.5375922449
 21
156.4682696986
 31
0.0
  0
LINE
  5
2D5
330
2D1
100
AcDbEntity
  8
DV3_Default
  6
Continuous
 62
     7
 48
25.4
100
AcDbLine
 10
201.6375922449
 20
158.5682696986
 30
0.0
 11
205.1375922449
 21
158.5682696986
 31
0.0
  0
LINE
  5
2D6
330
2D1
100
AcDbEntity
  8
DV3_Default
  6
Continuous
 62
     7
 48
25.4
100
AcDbLine
 10
199.5375922449
 20
146.3182696986
 30
0.0
 11
201.6375922449
 21
144.2182696986
 31
0.0
  0
LINE
  5
2D7
330
2D1
100
AcDbEntity
  8
DV3_Default
  6
Continuous
 62
     7
 48
25.4
100
AcDbLine
 10
201.6375922449
 20
158.5682696986
 30
0.0
 11
199.5375922449
 21
156.4682696986
 31
0.0
  0
LINE
  5
2D8
330
2D1
100
AcDbEntity
  8
DV3_Default
  6
Continuous
 62
     7
 48
25.4
100
AcDbLine
 10
205.4875922449
 20
146.2132696986
 30
0.0
 11
205.4875922449
 21
144.5682696986
 31
0.0
  0
ARC
  5
2D9
330
2D1
100
AcDbEntity
  8
DV3_Default
  6
Continuous
 62
     7
 48
25.4
100
AcDbCircle
 10
205.7675922449
 20
146.2132696986
 30
0.0
 40
0.2800000000000008
100
AcDbArc
 50
90.0
 51
180.0
  0
LINE
  5
2DA
330
2D1
100
AcDbEntity
  8
DV3_Default
  6
Continuous
 62
     7
 48
25.4
100
AcDbLine
 10
205.7675922449
 20
156.2932696986
 30
0.0
 11
213.7475922449
 21
156.2932696986
 31
0.0
  0
ARC
  5
2DB
330
2D1
100
AcDbEntity
  8
DV3_Default
  6
Continuous
 62
     7
 48
25.4
100
AcDbCircle
 10
205.7675922449
 20
156.5732696986
 30
0.0
 40
0.2800000000000008
100
AcDbArc
 50
180.0
 51
270.0
  0
LINE
  5
2DC
330
2D1
100
AcDbEntity
  8
DV3_Default
  6
Continuous
 62
     7
 48
25.4
100
AcDbLine
 10
205.4875922449
 20
158.2182696986
 30
0.0
 11
205.4875922449
 21
156.5732696986
 31
0.0
  0
LINE
  5
2DD
330
2D1
100
AcDbEntity
  8
DV3_Default
  6
Continuous
 62
     7
 48
25.4
100
AcDbLine
 10
205.1375922449
 20
144.2182696986
 30
0.0
 11
201.6375922449
 21
144.2182696986
 31
0.0
  0
LINE
  5
2DE
330
2D1
100
AcDbEntity
  8
DV3_Default
  6
Continuous
 62
     7
 48
25.4
100
AcDbLine
 10
205.1375922449
 20
144.2182696986
 30
0.0
 11
205.4875922449
 21
144.5682696986
 31
0.0
  0
LINE
  5
2DF
330
2D1
100
AcDbEntity
  8
DV3_Default
  6
Continuous
 62
     7
 48
25.4
100
AcDbLine
 10
205.4875922449
 20
158.2182696986
 30
0.0
 11
205.1375922449
 21
158.5682696986
 31
0.0
  0
LINE
  5
2E0
330
2D1
100
AcDbEntity
  8
DV3_Default
  6
Continuous
 62
     7
 48
25.4
100
AcDbLine
 10
213.7475922449
 20
146.4932696986
 30
0.0
 11
205.7675922449
 21
146.4932696986
 31
0.0
  0
LINE
  5
2E1
330
2D1
100
AcDbEntity
  8
DV3_Default
  6
Continuous
 62
     7
 48
25.4
100
AcDbLine
 10
213.7475922449
 20
146.4932696986
 30
0.0
 11
213.7475922449
 21
156.2932696986
 31
0.0
  0
LINE
  5
2E2
330
2D1
100
AcDbEntity
  8
DV3_Default
  6
Continuous
 62
     7
 48
25.4
100
AcDbLine
 10
205.4875922449
 20
158.2182696986
 30
0.0
 11
201.6693316844
 21
158.2182696986
 31
0.0
  0
LINE
  5
2E3
330
2D1
100
AcDbEntity
  8
DV3_Default
  6
Continuous
 62
     7
 48
25.4
100
AcDbLine
 10
201.6615352937
 20
158.2260660893
 30
0.0
 11
199.7378701932
 21
156.3024009888
 31
0.0
  0
LINE
  5
2E4
330
2D1
100
AcDbEntity
  8
DV3_Default
  6
Continuous
 62
     7
 48
25.4
100
AcDbLine
 10
205.4875922449
 20
144.5682696986
 30
0.0
 11
201.6693316844
 21
144.5682696986
 31
0.0
  0
LINE
  5
2E5
330
2D1
100
AcDbEntity
  8
DV3_Default
  6
Continuous
 62
     7
 48
25.4
100
AcDbLine
 10
199.7378701932
 20
146.5109642624
 30
0.0
 11
199.7378701932
 21
156.3024009888
 31
0.0
  0
LINE
  5
2E6
330
2D1
100
AcDbEntity
  8
DV3_Default
  6
Continuous
 62
     7
 48
25.4
100
AcDbLine
 10
199.7378701932
 20
146.5109642624
 30
0.0
 11
201.6693316844
 21
144.5682696986
 31
0.0
  0
LINE
  5
2E7
330
2D1
100
AcDbEntity
  8
DV3_Default
  6
Continuous
 62
     7
 48
25.4
100
AcDbLine
 10
213.7475922449
 20
156.2932696986
 30
0.0
 11
211.6475922449
 21
156.2932696986
 31
0.0
  0
LINE
  5
2E8
330
2D1
100
AcDbEntity
  8
DV3_Default
  6
CENTER2
 62
     7
 48
25.4
100
AcDbLine
 10
216.1975915524
 20
151.3914276411
 30
0.0
 11
194.984312524
 21
151.4073770658
 31
0.0
  0
LINE
  5
2E9
330
2D1
100
AcDbEntity
  8
DV3_Default
  6
Continuous
 62
     7
 48
25.4
100
AcDbLine
 10
211.6475922449
 20
156.2932696986
 30
0.0
 11
211.6475922449
 21
162.9382844901
 31
0.0
  0
LINE
  5
2EA
330
2D1
100
AcDbEntity
  8
DV3_Default
  6
Continuous
 62
     7
 48
25.4
100
AcDbLine
 10
210.2475922449
 20
164.3382844901
 30
0.0
 11
201.7806211216
 21
164.3382844901
 31
0.0
  0
LINE
  5
2EB
330
2D1
100
AcDbEntity
  8
DV3_Default
  6
Continuous
 62
     7
 48
25.4
100
AcDbLine
 10
211.6475922449
 20
146.4932696986
 30
0.0
 11
211.6475922449
 21
139.8382844901
 31
0.0
  0
LINE
  5
2EC
330
2D1
100
AcDbEntity
  8
DV3_Default
  6
Continuous
 62
     7
 48
25.4
100
AcDbLine
 10
201.7806211216
 20
138.4607105348
 30
0.0
 11
210.2444175177
 21
138.4607105348
 31
0.0
  0
LINE
  5
2ED
330
2D1
100
AcDbEntity
  8
DV3_Default
  6
Continuous
 62
     7
 48
25.4
100
AcDbLine
 10
210.2475922449
 20
164.3382844901
 30
0.0
 11
211.6475922449
 21
162.9382844901
 31
0.0
  0
LINE
  5
2EE
330
2D1
100
AcDbEntity
  8
DV3_Default
  6
Continuous
 62
     7
 48
25.4
100
AcDbLine
 10
210.2444175177
 20
138.4414736815
 30
0.0
 11
211.6475922449
 21
139.8382844901
 31
0.0
  0
LINE
  5
2EF
330
2D1
100
AcDbEntity
  8
DV3_Default
  6
Continuous
 62
     7
 48
25.4
100
AcDbLine
 10
210.2475922449
 20
164.3382844901
 30
0.0
 11
210.2475922449
 21
172.7382844901
 31
0.0
  0
LINE
  5
2F0
330
2D1
100
AcDbEntity
  8
DV3_Default
  6
Continuous
 62
     7
 48
25.4
100
AcDbLine
 10
410.0753931398
 20
142.3402029479
 30
0.0
 11
270.0753931398
 21
142.3402029479
 31
0.0
  0
LINE
  5
2F1
330
2D1
100
AcDbEntity
  8
DV3_Default
  6
Continuous
 62
     7
 48
25.4
100
AcDbLine
 10
410.0753931398
 20
142.3402029479
 30
0.0
 11
410.0753931398
 21
35.2402029479
 31
0.0
  0
LINE
  5
2F2
330
2D1
100
AcDbEntity
  8
DV3_Default
  6
Continuous
 62
     7
 48
25.4
100
AcDbLine
 10
410.0753931398
 20
35.2402029479
 30
0.0
 11
270.0753931398
 21
35.2402029479
 31
0.0
  0
LINE
  5
2F3
330
2D1
100
AcDbEntity
  8
DV3_Default
  6
Continuous
 62
     7
 48
25.4
100
AcDbLine
 10
270.0753931398
 20
35.2402029479
 30
0.0
 11
270.0753931398
 21
142.3402029479
 31
0.0
  0
LINE
  5
2F4
330
2D1
100
AcDbEntity
  8
DV3_Default
  6
Continuous
 62
     7
 48
25.4
100
AcDbLine
 10
298.0753931398
 20
142.3402029479
 30
0.0
 11
298.0753931398
 21
35.2402029479
 31
0.0
  0
LINE
  5
2F5
330
2D1
100
AcDbEntity
  8
DV3_Default
  6
Continuous
 62
     7
 48
25.4
100
AcDbLine
 10
326.0753931398
 20
35.2402029479
 30
0.0
 11
326.0753931398
 21
142.3402029479
 31
0.0
  0
LINE
  5
2F6
330
2D1
100
AcDbEntity
  8
DV3_Default
  6
Continuous
 62
     7
 48
25.4
100
AcDbLine
 10
354.0753931398
 20
142.3402029479
 30
0.0
 11
354.0753931398
 21
35.2402029479
 31
0.0
  0
LINE
  5
2F7
330
2D1
100
AcDbEntity
  8
DV3_Default
  6
Continuous
 62
     7
 48
25.4
100
AcDbLine
 10
382.0753931398
 20
35.2402029479
 30
0.0
 11
382.0753931398
 21
142.3402029479
 31
0.0
  0
TEXT
  5
2F8
330
2D1
100
AcDbEntity
  8
DV3_Default
  6
Continuous
 62
     7
 48
25.4
100
AcDbText
 10
268.4353686728
 20
29.619571023
 30
0.0
 40
3.5
  1
0
  7
SEACAD_arial_ttf
 11
268.4353686728
 21
33.119571023
 31
0.0
100
AcDbText
 73
     3
  0
TEXT
  5
2F9
330
2D1
100
AcDbEntity
  8
DV3_Default
  6
Continuous
 62
     7
 48
25.4
100
AcDbText
 10
292.415122864
 20
29.1795349807
 30
0.0
 40
3.5
  1
1000
  7
SEACAD_arial_ttf
 11
292.415122864
 21
32.6795349807
 31
0.0
100
AcDbText
 73
     3
  0
TEXT
  5
2FA
330
2D1
100
AcDbEntity
  8
DV3_Default
  6
Continuous
 62
     7
 48
25.4
100
AcDbText
 10
320.5939134419
 20
29.1914824662
 30
0.0
 40
3.5
  1
2000
  7
SEACAD_arial_ttf
 11
320.5939134419
 21
32.6914824662
 31
0.0
100
AcDbText
 73
     3
  0
TEXT
  5
2FB
330
2D1
100
AcDbEntity
  8
DV3_Default
  6
Continuous
 62
     7
 48
25.4
100
AcDbText
 10
348.8258247967
 20
29.2417802412
 30
0.0
 40
3.5
  1
3000
  7
SEACAD_arial_ttf
 11
348.8258247967
 21
32.7417802412
 31
0.0
100
AcDbText
 73
     3
  0
TEXT
  5
2FC
330
2D1
100
AcDbEntity
  8
DV3_Default
  6
Continuous
 62
     7
 48
25.4
100
AcDbText
 10
376.7804745099
 20
29.3772189787
 30
0.0
 40
3.5
  1
4000
  7
SEACAD_arial_ttf
 11
376.7804745099
 21
32.8772189787
 31
0.0
100
AcDbText
 73
     3
  0
TEXT
  5
2FD
330
2D1
100
AcDbEntity
  8
DV3_Default
  6
Continuous
 62
     7
 48
25.4
100
AcDbText
 10
404.6344928176
 20
29.6665127217
 30
0.0
 40
3.5
  1
5000
  7
SEACAD_arial_ttf
 11
404.6344928176
 21
33.1665127217
 31
0.0
100
AcDbText
 73
     3
  0
TEXT
  5
2FE
330
2D1
100
AcDbEntity
  8
DV3_Default
  6
Continuous
 62
     7
 48
25.4
100
AcDbText
 10
264.0108069904
 20
44.395255321
 30
0.0
 40
3.5
  1
10
  7
SEACAD_arial_ttf
 11
264.0108069904
 21
47.895255321
 31
0.0
100
AcDbText
 73
     3
  0
TEXT
  5
2FF
330
2D1
100
AcDbEntity
  8
DV3_Default
  6
Continuous
 62
     7
 48
25.4
100
AcDbText
 10
264.0003944703
 20
55.2164096676
 30
0.0
 40
3.5
  1
20
  7
SEACAD_arial_ttf
 11
264.0003944703
 21
58.7164096676
 31
0.0
100
AcDbText
 73
     3
  0
TEXT
  5
300
330
2D1
100
AcDbEntity
  8
DV3_Default
  6
Continuous
 62
     7
 48
25.4
100
AcDbText
 10
263.9197657274
 20
65.9627753584
 30
0.0
 40
3.5
  1
30
  7
SEACAD_arial_ttf
 11
263.9197657274
 21
69.4627753584
 31
0.0
100
AcDbText
 73
     3
  0
TEXT
  5
301
330
2D1
100
AcDbEntity
  8
DV3_Default
  6
Continuous
 62
     7
 48
25.4
100
AcDbText
 10
263.7344672226
 20
76.4446221262
 30
0.0
 40
3.5
  1
40
  7
SEACAD_arial_ttf
 11
263.7344672226
 21
79.9446221262
 31
0.0
100
AcDbText
 73
     3
  0
TEXT
  5
302
330
2D1
100
AcDbEntity
  8
DV3_Default
  6
Continuous
 62
     7
 48
25.4
100
AcDbText
 10
263.7129007931
 20
87.2373682328
 30
0.0
 40
3.5
  1
50
  7
SEACAD_arial_ttf
 11
263.7129007931
 21
90.7373682328
 31
0.0
100
AcDbText
 73
     3
  0
TEXT
  5
303
330
2D1
100
AcDbEntity
  8
DV3_Default
  6
Continuous
 62
     7
 48
25.4
100
AcDbText
 10
263.7678110302
 20
97.9242880708
 30
0.0
 40
3.5
  1
60
  7
SEACAD_arial_ttf
 11
263.7678110302
 21
101.4242880708
 31
0.0
100
AcDbText
 73
     3
  0
TEXT
  5
304
330
2D1
100
AcDbEntity
  8
DV3_Default
  6
Continuous
 62
     7
 48
25.4
100
AcDbText
 10
263.5653253978
 20
108.4232495771
 30
0.0
 40
3.5
  1
70
  7
SEACAD_arial_ttf
 11
263.5653253978
 21
111.9232495771
 31
0.0
100
AcDbText
 73
     3
  0
TEXT
  5
305
330
2D1
100
AcDbEntity
  8
DV3_Default
  6
Continuous
 62
     7
 48
25.4
100
AcDbText
 10
263.7253302612
 20
119.3312186964
 30
0.0
 40
3.5
  1
80
  7
SEACAD_arial_ttf
 11
263.7253302612
 21
122.8312186964
 31
0.0
100
AcDbText
 73
     3
  0
TEXT
  5
306
330
2D1
100
AcDbEntity
  8
DV3_Default
  6
Continuous
 62
     7
 48
25.4
100
AcDbText
 10
263.6773822098
 20
130.0030718444
 30
0.0
 40
3.5
  1
90
  7
SEACAD_arial_ttf
 11
263.6773822098
 21
133.5030718444
 31
0.0
100
AcDbText
 73
     3
  0
TEXT
  5
307
330
2D1
100
AcDbEntity
  8
DV3_Default
  6
Continuous
 62
     7
 48
25.4
100
AcDbText
 10
326.5647232805
 20
134.8397457948
 30
0.0
 40
4.2
  1
Input Force
  7
SEACAD_arial_ttf
 11
326.5647232805
 21
139.0397457948
 31
0.0
100
AcDbText
 73
     3
  0
TEXT
  5
308
330
2D1
100
AcDbEntity
  8
DV3_Default
  6
Continuous
 62
     7
 48
25.4
100
AcDbText
 10
337.5917693907
 20
126.3321555928
 30
0.0
 40
3.5
  1
32KN
  7
SEACAD_arial_ttf
 11
337.5917693907
 21
129.8321555928
 31
0.0
100
AcDbText
 73
     3
  0
TEXT
  5
309
330
2D1
100
AcDbEntity
  8
DV3_Default
  6
Continuous
 62
     7
 48
25.4
100
AcDbText
 10
337.9889484297
 20
116.0450061164
 30
0.0
 40
3.5
  1
29KN
  7
SEACAD_arial_ttf
 11
337.9889484297
 21
119.5450061164
 31
0.0
100
AcDbText
 73
     3
  0
TEXT
  5
30A
330
2D1
100
AcDbEntity
  8
DV3_Default
  6
Continuous
 62
     7
 48
25.4
100
AcDbText
 10
337.7711379972
 20
106.0511177538
 30
0.0
 40
3.5
  1
26KN
  7
SEACAD_arial_ttf
 11
337.7711379972
 21
109.5511177538
 31
0.0
100
AcDbText
 73
     3
  0
TEXT
  5
30B
330
2D1
100
AcDbEntity
  8
DV3_Default
  6
Continuous
 62
     7
 48
25.4
100
AcDbText
 10
337.5133305076
 20
95.6519123453
 30
0.0
 40
3.5
  1
23KN
  7
SEACAD_arial_ttf
 11
337.5133305076
 21
99.1519123453
 31
0.0
100
AcDbText
 73
     3
  0
TEXT
  5
30C
330
2D1
100
AcDbEntity
  8
DV3_Default
  6
Continuous
 62
     7
 48
25.4
100
AcDbText
 10
336.8446195874
 20
84.7528080513
 30
0.0
 40
3.5
  1
20KN
  7
SEACAD_arial_ttf
 11
336.8446195874
 21
88.2528080513
 31
0.0
100
AcDbText
 73
     3
  0
TEXT
  5
30D
330
2D1
100
AcDbEntity
  8
DV3_Default
  6
Continuous
 62
     7
 48
25.4
100
AcDbText
 10
336.4947762173
 20
73.8456810417
 30
0.0
 40
3.5
  1
17KN
  7
SEACAD_arial_ttf
 11
336.4947762173
 21
77.3456810417
 31
0.0
100
AcDbText
 73
     3
  0
TEXT
  5
30E
330
2D1
100
AcDbEntity
  8
DV3_Default
  6
Continuous
 62
     7
 48
25.4
100
AcDbText
 10
336.748720331
 20
64.9271511899
 30
0.0
 40
3.5
  1
14KN
  7
SEACAD_arial_ttf
 11
336.748720331
 21
68.4271511899
 31
0.0
100
AcDbText
 73
     3
  0
TEXT
  5
30F
330
2D1
100
AcDbEntity
  8
DV3_Default
  6
Continuous
 62
     7
 48
25.4
100
AcDbText
 10
336.8313968474
 20
55.3531995558
 30
0.0
 40
3.5
  1
11KN
  7
SEACAD_arial_ttf
 11
336.8313968474
 21
58.8531995558
 31
0.0
100
AcDbText
 73
     3
  0
TEXT
  5
310
330
2D1
100
AcDbEntity
  8
DV3_Default
  6
Continuous
 62
     7
 48
25.4
100
AcDbText
 10
327.5910882173
 20
16.2938507695
 30
0.0
 40
4.2
  1
Speed in min-
  7
SEACAD_arial_ttf
 11
327.5910882173
 21
20.4938507695
 31
0.0
100
AcDbText
 73
     3
  0
TEXT
  5
311
330
2D1
100
AcDbEntity
  8
DV3_Default
  6
Continuous
 62
     7
 48
25.4
100
AcDbText
 10
364.0215229999
 20
16.2938507695
 30
0.0
 40
3.2102777778
  1
¹
  7
SEACAD_arial_ttf
 11
364.0215229999
 21
19.5041285473
 31
0.0
100
AcDbText
 73
     3
  0
TEXT
  5
312
330
2D1
100
AcDbEntity
  8
DV3_Default
  6
Continuous
 62
     7
 48
25.4
100
AcDbText
 10
222.906503585
 20
95.0344621171
 30
0.0
 40
4.2
  1
Total Gripping 
  7
SEACAD_arial_ttf
 11
222.906503585
 21
99.2344621171
 31
0.0
100
AcDbText
 73
     3
  0
TEXT
  5
313
330
2D1
100
AcDbEntity
  8
DV3_Default
  6
Continuous
 62
     7
 48
25.4
100
AcDbText
 10
222.906503585
 20
88.4605490737
 30
0.0
 40
4.2
  1
Force in KN
  7
SEACAD_arial_ttf
 11
222.906503585
 21
92.6605490737
 31
0.0
100
AcDbText
 73
     3
  0
TEXT
  5
314
330
2D1
100
AcDbEntity
  8
DV3_Default
  6
Continuous
 62
     7
 48
25.4
100
AcDbText
 10
284.6654378701
 20
162.057589112
 30
0.0
 40
4.2
  1
Gripping Characteristic Graph For BB208A6
  7
SEACAD_arial_ttf
 11
284.6654378701
 21
166.257589112
 31
0.0
100
AcDbText
 73
     3
  0
LWPOLYLINE
  5
315
330
2D1
100
AcDbEntity
  8
DV3_Default
  6
Continuous
 62
     7
 48
25.4
100
AcDbPolyline
 90
        2
 70
     0
 43
0.0
 10
414.4107606274
 20
48.6406134934
 10
375.6135900691
 20
60.262117036
  0
HATCH
  5
316
330
2D1
100
AcDbEntity
  8
DV3_Default
  6
Continuous
 62
     7
 48
25.4
100
AcDbHatch
 10
0.0
 20
0.0
 30
0.0
210
0.0
220
0.0
230
1.0
  2
SOLID
 70
     1
 71
     0
 91
        1
 92
        1
 93
        3
 72
     1
 10
379.8378275220832
 20
59.72749730589354
 11
375.6135900690796
 21
60.26211703600627
 72
     1
 10
375.6135900690796
 20
60.26211703600627
 11
379.4361001797221
 21
58.38637271195252
 72
     1
 10
379.4361001797221
 20
58.38637271195252
 11
379.8378275220832
 21
59.72749730589354
 97
        0
 75
     0
 76
     1
 98
        0
  0
LWPOLYLINE
  5
317
330
2D1
100
AcDbEntity
  8
DV3_Default
  6
Continuous
 62
     7
 48
25.4
370
    20
100
AcDbPolyline
 90
        4
 70
     1
 43
0.00025
 10
379.8378275221
 20
59.7274973059
 10
375.6135900691
 20
60.262117036
 10
379.4361001797
 20
58.386372712
 10
379.8378275221
 20
59.7274973059
  0
LINE
  5
318
330
2D1
100
AcDbEntity
  8
DV3_Default
  6
Continuous
 62
     7
 48
25.4
100
AcDbLine
 10
414.4107606274
 20
48.6406134934
 30
0.0
 11
467.3672823665
 21
48.6406134934
 31
0.0
  0
TEXT
  5
319
330
2D1
100
AcDbEntity
  8
DV3_Default
  6
Continuous
 62
     7
 48
25.4
100
AcDbText
 10
414.4107606274
 20
49.6906134934
 30
0.0
 40
4.2
  1
Gripping Force Limit
  7
SEACAD_arial_ttf
 11
414.4107606274
 21
53.8906134934
 31
0.0
100
AcDbText
 73
     3
  0
TEXT
  5
31A
330
2D1
100
AcDbEntity
  8
DV3_Default
  6
Continuous
 62
     7
 48
25.4
100
AcDbText
 10
19.6225304412
 20
144.0090168869
 30
0.0
 40
3.5
  1
SPINDLE NOSE SIZE
  7
SEACAD_arial_ttf
 11
19.6225304412
 21
147.5090168869
 31
0.0
100
AcDbText
 73
     3
  0
TEXT
  5
31B
330
2D1
100
AcDbEntity
  8
DV3_Default
  6
Continuous
 62
     7
 48
25.4
100
AcDbText
 10
125.7347055024
 20
144.0090168869
 30
0.0
 40
3.5
  1
A2-6
  7
SEACAD_arial_ttf
 11
125.7347055024
 21
147.5090168869
 31
0.0
100
AcDbText
 73
     3
  0
TEXT
  5
31C
330
2D1
100
AcDbEntity
  8
DV3_Default
  6
Continuous
 62
     7
 48
25.4
100
AcDbText
 10
19.2632694808
 20
68.3239123887
 30
0.0
 40
3.5
  1
TOTAL GRIPPING FORCE AT MAX. SPEED
  7
SEACAD_arial_ttf
 11
19.2632694808
 21
71.8239123887
 31
0.0
100
AcDbText
 73
     3
  0
TEXT
  5
31D
330
2D1
100
AcDbEntity
  8
DV3_Default
  6
Continuous
 62
     7
 48
25.4
100
AcDbText
 10
124.6612416365
 20
17.7750911314
 30
0.0
 40
3.5
  1
SB08B1
  7
SEACAD_arial_ttf
 11
124.6612416365
 21
21.2750911314
 31
0.0
100
AcDbText
 73
     3
  0
LINE
  5
31E
330
2D1
100
AcDbEntity
  8
DV3_Default
  6
Continuous
 62
     7
 48
25.4
100
AcDbLine
 10
17.7673143689
 20
23.9667015434
 30
0.0
 11
185.7673143689
 21
23.9667015434
 31
0.0
  0
LINE
  5
31F
330
2D1
100
AcDbEntity
  8
DV3_Default
  6
Continuous
 62
     7
 48
25.4
100
AcDbLine
 10
185.7673143689
 20
149.9667015434
 30
0.0
 11
17.7673143689
 21
149.9667015434
 31
0.0
  0
LINE
  5
320
330
2D1
100
AcDbEntity
  8
DV3_Default
  6
Continuous
 62
     7
 48
25.4
100
AcDbLine
 10
17.7673143689
 20
141.5667015434
 30
0.0
 11
185.7673143689
 21
141.5667015434
 31
0.0
  0
LINE
  5
321
330
2D1
100
AcDbEntity
  8
DV3_Default
  6
Continuous
 62
     7
 48
25.4
100
AcDbLine
 10
185.7673143689
 20
133.1667015434
 30
0.0
 11
17.7673143689
 21
133.1667015434
 31
0.0
  0
LINE
  5
322
330
2D1
100
AcDbEntity
  8
DV3_Default
  6
Continuous
 62
     7
 48
25.4
100
AcDbLine
 10
17.7673143689
 20
124.7667015434
 30
0.0
 11
185.7673143689
 21
124.7667015434
 31
0.0
  0
LINE
  5
323
330
2D1
100
AcDbEntity
  8
DV3_Default
  6
Continuous
 62
     7
 48
25.4
100
AcDbLine
 10
185.7673143689
 20
116.3667015434
 30
0.0
 11
17.7673143689
 21
116.3667015434
 31
0.0
  0
LINE
  5
324
330
2D1
100
AcDbEntity
  8
DV3_Default
  6
Continuous
 62
     7
 48
25.4
100
AcDbLine
 10
17.7673143689
 20
107.9667015434
 30
0.0
 11
185.7673143689
 21
107.9667015434
 31
0.0
  0
LINE
  5
325
330
2D1
100
AcDbEntity
  8
DV3_Default
  6
Continuous
 62
     7
 48
25.4
100
AcDbLine
 10
185.7673143689
 20
99.5667015434
 30
0.0
 11
17.7673143689
 21
99.5667015434
 31
0.0
  0
LINE
  5
326
330
2D1
100
AcDbEntity
  8
DV3_Default
  6
Continuous
 62
     7
 48
25.4
100
AcDbLine
 10
17.7673143689
 20
91.1667015434
 30
0.0
 11
185.7673143689
 21
91.1667015434
 31
0.0
  0
LINE
  5
327
330
2D1
100
AcDbEntity
  8
DV3_Default
  6
Continuous
 62
     7
 48
25.4
100
AcDbLine
 10
185.7673143689
 20
82.7667015434
 30
0.0
 11
17.7673143689
 21
82.7667015434
 31
0.0
  0
LINE
  5
328
330
2D1
100
AcDbEntity
  8
DV3_Default
  6
Continuous
 62
     7
 48
25.4
100
AcDbLine
 10
17.7673143689
 20
74.3667015434
 30
0.0
 11
185.7673143689
 21
74.3667015434
 31
0.0
  0
LINE
  5
329
330
2D1
100
AcDbEntity
  8
DV3_Default
  6
Continuous
 62
     7
 48
25.4
100
AcDbLine
 10
185.7673143689
 20
65.9667015434
 30
0.0
 11
17.7673143689
 21
65.9667015434
 31
0.0
  0
LINE
  5
32A
330
2D1
100
AcDbEntity
  8
DV3_Default
  6
Continuous
 62
     7
 48
25.4
100
AcDbLine
 10
17.7673143689
 20
57.5667015434
 30
0.0
 11
185.7673143689
 21
57.5667015434
 31
0.0
  0
LINE
  5
32B
330
2D1
100
AcDbEntity
  8
DV3_Default
  6
Continuous
 62
     7
 48
25.4
100
AcDbLine
 10
185.7673143689
 20
49.1667015434
 30
0.0
 11
17.7673143689
 21
49.1667015434
 31
0.0
  0
LINE
  5
32C
330
2D1
100
AcDbEntity
  8
DV3_Default
  6
Continuous
 62
     7
 48
25.4
100
AcDbLine
 10
17.7673143689
 20
40.7667015434
 30
0.0
 11
185.7673143689
 21
40.7667015434
 31
0.0
  0
LINE
  5
32D
330
2D1
100
AcDbEntity
  8
DV3_Default
  6
Continuous
 62
     7
 48
25.4
100
AcDbLine
 10
185.7673143689
 20
32.3667015434
 30
0.0
 11
17.7673143689
 21
32.3667015434
 31
0.0
  0
TEXT
  5
32E
330
2D1
100
AcDbEntity
  8
DV3_Default
  6
Continuous
 62
     7
 48
25.4
100
AcDbText
 10
73.5159426445
 20
163.68072309
 30
0.0
 40
4.2
  1
Specifications
  7
SEACAD_arial_ttf
 11
73.5159426445
 21
167.88072309
 31
0.0
100
AcDbText
 73
     3
  0
TEXT
  5
32F
330
2D1
100
AcDbEntity
  8
DV3_Default
  6
Continuous
 62
     7
 48
25.4
100
AcDbText
 10
19.5391786199
 20
135.4252713757
 30
0.0
 40
3.5
  1
THROUGH HOLE
  7
SEACAD_arial_ttf
 11
19.5391786199
 21
138.9252713757
 31
0.0
100
AcDbText
 73
     3
  0
TEXT
  5
330
330
2D1
100
AcDbEntity
  8
DV3_Default
  6
Continuous
 62
     7
 48
25.4
100
AcDbText
 10
125.346967657
 20
135.3857989015
 30
0.0
 40
3.5
  1
66mm
  7
SEACAD_arial_ttf
 11
125.346967657
 21
138.8857989015
 31
0.0
100
AcDbText
 73
     3
  0
TEXT
  5
331
330
2D1
100
AcDbEntity
  8
DV3_Default
  6
Continuous
 62
     7
 48
25.4
100
AcDbText
 10
19.6285841084
 20
126.9590218237
 30
0.0
 40
3.5
  1
MAX. GRIPPING RANGE
  7
SEACAD_arial_ttf
 11
19.6285841084
 21
130.4590218237
 31
0.0
100
AcDbText
 73
     3
  0
TEXT
  5
332
330
2D1
100
AcDbEntity
  8
DV3_Default
  6
Continuous
 62
     7
 48
25.4
100
AcDbText
 10
19.6285841084
 20
118.7479706597
 30
0.0
 40
3.5
  1
MIN. GRIPPING RANGE
  7
SEACAD_arial_ttf
 11
19.6285841084
 21
122.2479706597
 31
0.0
100
AcDbText
 73
     3
  0
TEXT
  5
333
330
2D1
100
AcDbEntity
  8
DV3_Default
  6
Continuous
 62
     7
 48
25.4
100
AcDbText
 10
19.5391786199
 20
110.4475140073
 30
0.0
 40
3.5
  1
JAW STROKE
  7
SEACAD_arial_ttf
 11
19.5391786199
 21
113.9475140073
 31
0.0
100
AcDbText
 73
     3
  0
TEXT
  5
334
330
2D1
100
AcDbEntity
  8
DV3_Default
  6
Continuous
 62
     7
 48
25.4
100
AcDbText
 10
19.6732868526
 20
101.904877044
 30
0.0
 40
3.5
  1
PLUNGER STROKE
  7
SEACAD_arial_ttf
 11
19.6732868526
 21
105.404877044
 31
0.0
100
AcDbText
 73
     3
  0
TEXT
  5
335
330
2D1
100
AcDbEntity
  8
DV3_Default
  6
Continuous
 62
     7
 48
25.4
100
AcDbText
 10
19.6732868526
 20
93.7385286243
 30
0.0
 40
3.5
  1
MAX. PERMISSIBLE INPUT FORCE
  7
SEACAD_arial_ttf
 11
19.6732868526
 21
97.2385286243
 31
0.0
100
AcDbText
 73
     3
  0
TEXT
  5
336
330
2D1
100
AcDbEntity
  8
DV3_Default
  6
Continuous
 62
     7
 48
25.4
100
AcDbText
 10
19.4180884645
 20
85.1511889168
 30
0.0
 40
3.5
  1
MAX. STATIC GRIPPING FORCE
  7
SEACAD_arial_ttf
 11
19.4180884645
 21
88.6511889168
 31
0.0
100
AcDbText
 73
     3
  0
TEXT
  5
337
330
2D1
100
AcDbEntity
  8
DV3_Default
  6
Continuous
 62
     7
 48
25.4
100
AcDbText
 10
19.4180884645
 20
76.7296421089
 30
0.0
 40
3.5
  1
MAX. PERMISSIBLE SPEED
  7
SEACAD_arial_ttf
 11
19.4180884645
 21
80.2296421089
 31
0.0
100
AcDbText
 73
     3
  0
TEXT
  5
338
330
2D1
100
AcDbEntity
  8
DV3_Default
  6
Continuous
 62
     7
 48
25.4
100
AcDbText
 10
19.9563399169
 20
60.0970441371
 30
0.0
 40
3.5
  1
MASS WITH STANDARD SOFT TOP JAWS
  7
SEACAD_arial_ttf
 11
19.9563399169
 21
63.5970441371
 31
0.0
100
AcDbText
 73
     3
  0
TEXT
  5
339
330
2D1
100
AcDbEntity
  8
DV3_Default
  6
Continuous
 62
     7
 48
25.4
100
AcDbText
 10
19.9563399169
 20
51.6269645942
 30
0.0
 40
3.5
  1
MOMENT OF INERTIA
  7
SEACAD_arial_ttf
 11
19.9563399169
 21
55.1269645942
 31
0.0
100
AcDbText
 73
     3
  0
TEXT
  5
33A
330
2D1
100
AcDbEntity
  8
DV3_Default
  6
Continuous
 62
     7
 48
25.4
100
AcDbText
 10
19.9116371727
 20
43.5072339141
 30
0.0
 40
3.5
  1
MATCHING CYLINDER
  7
SEACAD_arial_ttf
 11
19.9116371727
 21
47.0072339141
 31
0.0
100
AcDbText
 73
     3
  0
TEXT
  5
33B
330
2D1
100
AcDbEntity
  8
DV3_Default
  6
Continuous
 62
     7
 48
25.4
100
AcDbText
 10
19.7011415288
 20
34.992451627
 30
0.0
 40
3.5
  1
MAX. PERMISSIBLE OIL PRESSURE
  7
SEACAD_arial_ttf
 11
19.7011415288
 21
38.492451627
 31
0.0
100
AcDbText
 73
     3
  0
TEXT
  5
33C
330
2D1
100
AcDbEntity
  8
DV3_Default
  6
Continuous
 62
     7
 48
25.4
100
AcDbText
 10
19.8210900682
 20
26.5397296544
 30
0.0
 40
3.5
  1
MATCHING HARD TOP JAW
  7
SEACAD_arial_ttf
 11
19.8210900682
 21
30.0397296544
 31
0.0
100
AcDbText
 73
     3
  0
TEXT
  5
33D
330
2D1
100
AcDbEntity
  8
DV3_Default
  6
Continuous
 62
     7
 48
25.4
100
AcDbText
 10
19.907175068
 20
18.0806305818
 30
0.0
 40
3.5
  1
MATCHING SOFT TOP JAW
  7
SEACAD_arial_ttf
 11
19.907175068
 21
21.5806305818
 31
0.0
100
AcDbText
 73
     3
  0
LINE
  5
33E
330
2D1
100
AcDbEntity
  8
DV3_Default
  6
Continuous
 62
     7
 48
25.4
100
AcDbLine
 10
17.7673143689
 20
15.5667015434
 30
0.0
 11
185.7673143689
 21
15.5667015434
 31
0.0
  0
LINE
  5
33F
330
2D1
100
AcDbEntity
  8
DV3_Default
  6
Continuous
 62
     7
 48
25.4
100
AcDbLine
 10
122.639327419
 20
149.9667015434
 30
0.0
 11
122.639327419
 21
15.5667015434
 31
0.0
  0
LINE
  5
340
330
2D1
100
AcDbEntity
  8
DV3_Default
  6
Continuous
 62
     7
 48
25.4
100
AcDbLine
 10
17.7673143689
 20
149.9667015434
 30
0.0
 11
17.7673143689
 21
15.5667015434
 31
0.0
  0
LINE
  5
341
330
2D1
100
AcDbEntity
  8
DV3_Default
  6
Continuous
 62
     7
 48
25.4
100
AcDbLine
 10
185.7673143689
 20
149.9667015434
 30
0.0
 11
185.7673143689
 21
15.5667015434
 31
0.0
  0
TEXT
  5
342
330
2D1
100
AcDbEntity
  8
DV3_Default
  6
Continuous
 62
     7
 48
25.4
100
AcDbText
 10
125.3675394805
 20
127.2882446311
 30
0.0
 40
3.5
  1
210mm
  7
SEACAD_arial_ttf
 11
125.3675394805
 21
130.7882446311
 31
0.0
100
AcDbText
 73
     3
  0
TEXT
  5
343
330
2D1
100
AcDbEntity
  8
DV3_Default
  6
Continuous
 62
     7
 48
25.4
100
AcDbText
 10
125.3909423298
 20
118.5624119679
 30
0.0
 40
3.5
  1
23mm
  7
SEACAD_arial_ttf
 11
125.3909423298
 21
122.0624119679
 31
0.0
100
AcDbText
 73
     3
  0
TEXT
  5
344
330
2D1
100
AcDbEntity
  8
DV3_Default
  6
Continuous
 62
     7
 48
25.4
100
AcDbText
 10
125.2775103542
 20
110.3580602587
 30
0.0
 40
3.5
  1
7.4mm
  7
SEACAD_arial_ttf
 11
125.2775103542
 21
113.8580602587
 31
0.0
100
AcDbText
 73
     3
  0
TEXT
  5
345
330
2D1
100
AcDbEntity
  8
DV3_Default
  6
Continuous
 62
     7
 48
25.4
100
AcDbText
 10
124.7560294003
 20
101.8751342418
 30
0.0
 40
3.5
  1
16mm
  7
SEACAD_arial_ttf
 11
124.7560294003
 21
105.3751342418
 31
0.0
100
AcDbText
 73
     3
  0
TEXT
  5
346
330
2D1
100
AcDbEntity
  8
DV3_Default
  6
Continuous
 62
     7
 48
25.4
100
AcDbText
 10
125.0164252786
 20
93.6057005985
 30
0.0
 40
3.5
  1
32kN
  7
SEACAD_arial_ttf
 11
125.0164252786
 21
97.1057005985
 31
0.0
100
AcDbText
 73
     3
  0
TEXT
  5
347
330
2D1
100
AcDbEntity
  8
DV3_Default
  6
Continuous
 62
     7
 48
25.4
100
AcDbText
 10
125.187481228
 20
85.0349789957
 30
0.0
 40
3.5
  1
99kN
  7
SEACAD_arial_ttf
 11
125.187481228
 21
88.5349789957
 31
0.0
100
AcDbText
 73
     3
  0
TEXT
  5
348
330
2D1
100
AcDbEntity
  8
DV3_Default
  6
Continuous
 62
     7
 48
25.4
100
AcDbText
 10
125.1712923205
 20
76.7182959795
 30
0.0
 40
3.5
  1
5000min-
  7
SEACAD_arial_ttf
 11
125.1712923205
 21
80.2182959795
 31
0.0
100
AcDbText
 73
     3
  0
TEXT
  5
349
330
2D1
100
AcDbEntity
  8
DV3_Default
  6
Continuous
 62
     7
 48
25.4
100
AcDbText
 10
145.7147705814
 20
76.7182959795
 30
0.0
 40
3.2102777778
  1
¹
  7
SEACAD_arial_ttf
 11
145.7147705814
 21
79.9285737573
 31
0.0
100
AcDbText
 73
     3
  0
TEXT
  5
34A
330
2D1
100
AcDbEntity
  8
DV3_Default
  6
Continuous
 62
     7
 48
25.4
100
AcDbText
 10
124.9463518353
 20
68.5163125202
 30
0.0
 40
3.5
  1
33kN
  7
SEACAD_arial_ttf
 11
124.9463518353
 21
72.0163125202
 31
0.0
100
AcDbText
 73
     3
  0
TEXT
  5
34B
330
2D1
100
AcDbEntity
  8
DV3_Default
  6
Continuous
 62
     7
 48
25.4
100
AcDbText
 10
125.0993782286
 20
59.8954396719
 30
0.0
 40
3.5
  1
25kg
  7
SEACAD_arial_ttf
 11
125.0993782286
 21
63.3954396719
 31
0.0
100
AcDbText
 73
     3
  0
TEXT
  5
34C
330
2D1
100
AcDbEntity
  8
DV3_Default
  6
Continuous
 62
     7
 48
25.4
100
AcDbText
 10
124.8190808541
 20
51.4900886447
 30
0.0
 40
3.5
  1
0.143kg.m
  7
SEACAD_arial_ttf
 11
124.8190808541
 21
54.9900886447
 31
0.0
100
AcDbText
 73
     3
  0
TEXT
  5
34D
330
2D1
100
AcDbEntity
  8
DV3_Default
  6
Continuous
 62
     7
 48
25.4
100
AcDbText
 10
147.9495156367
 20
51.4900886447
 30
0.0
 40
3.2102777778
  1
²
  7
SEACAD_arial_ttf
 11
147.9495156367
 21
54.7003664225
 31
0.0
100
AcDbText
 73
     3
  0
TEXT
  5
34E
330
2D1
100
AcDbEntity
  8
DV3_Default
  6
Continuous
 62
     7
 48
25.4
100
AcDbText
 10
124.8405266932
 20
43.2569297246
 30
0.0
 40
3.5
  1
SS1666K
  7
SEACAD_arial_ttf
 11
124.8405266932
 21
46.7569297246
 31
0.0
100
AcDbText
 73
     3
  0
TEXT
  5
34F
330
2D1
100
AcDbEntity
  8
DV3_Default
  6
Continuous
 62
     7
 48
25.4
100
AcDbText
 10
124.797196979
 20
34.4853106084
 30
0.0
 40
3.5
  1
2.34MPa
  7
SEACAD_arial_ttf
 11
124.797196979
 21
37.9853106084
 31
0.0
100
AcDbText
 73
     3
  0
TEXT
  5
350
330
2D1
100
AcDbEntity
  8
DV3_Default
  6
Continuous
 62
     7
 48
25.4
100
AcDbText
 10
124.8391503151
 20
26.402773142
 30
0.0
 40
3.5
  1
HB08B1
  7
SEACAD_arial_ttf
 11
124.8391503151
 21
29.902773142
 31
0.0
100
AcDbText
 73
     3
  0
LINE
  5
351
330
2D1
100
AcDbEntity
  8
DV3_Default
  6
Continuous
 62
     7
 48
25.4
100
AcDbLine
 10
210.2444175177
 20
138.4414736815
 30
0.0
 11
210.2444175177
 21
130.0414736815
 31
0.0
  0
LINE
  5
352
330
2D1
100
AcDbEntity
  8
DV3_Default
  6
Continuous
 62
     7
 48
25.4
100
AcDbLine
 10
270.0753931398
 20
45.9502029479
 30
0.0
 11
410.0753931398
 21
45.9502029479
 31
0.0
  0
LINE
  5
353
330
2D1
100
AcDbEntity
  8
DV3_Default
  6
Continuous
 62
     7
 48
25.4
100
AcDbLine
 10
410.0753931398
 20
56.6602029479
 30
0.0
 11
270.0753931398
 21
56.6602029479
 31
0.0
  0
LINE
  5
354
330
2D1
100
AcDbEntity
  8
DV3_Default
  6
Continuous
 62
     7
 48
25.4
100
AcDbLine
 10
270.0753931398
 20
67.3702029479
 30
0.0
 11
410.0753931398
 21
67.3702029479
 31
0.0
  0
LINE
  5
355
330
2D1
100
AcDbEntity
  8
DV3_Default
  6
Continuous
 62
     7
 48
25.4
100
AcDbLine
 10
410.0753931398
 20
78.0802029479
 30
0.0
 11
270.0753931398
 21
78.0802029479
 31
0.0
  0
LINE
  5
356
330
2D1
100
AcDbEntity
  8
DV3_Default
  6
Continuous
 62
     7
 48
25.4
100
AcDbLine
 10
270.0753931398
 20
88.7902029479
 30
0.0
 11
410.0753931398
 21
88.7902029479
 31
0.0
  0
LINE
  5
357
330
2D1
100
AcDbEntity
  8
DV3_Default
  6
Continuous
 62
     7
 48
25.4
100
AcDbLine
 10
410.0753931398
 20
99.5002029479
 30
0.0
 11
270.0753931398
 21
99.5002029479
 31
0.0
  0
LINE
  5
358
330
2D1
100
AcDbEntity
  8
DV3_Default
  6
Continuous
 62
     7
 48
25.4
100
AcDbLine
 10
270.0753931398
 20
110.2102029479
 30
0.0
 11
410.0753931398
 21
110.2102029479
 31
0.0
  0
LINE
  5
359
330
2D1
100
AcDbEntity
  8
DV3_Default
  6
Continuous
 62
     7
 48
25.4
100
AcDbLine
 10
410.0753931398
 20
120.9202029479
 30
0.0
 11
270.0753931398
 21
120.9202029479
 31
0.0
  0
LINE
  5
35A
330
2D1
100
AcDbEntity
  8
DV3_Default
  6
Continuous
 62
     7
 48
25.4
100
AcDbLine
 10
270.0753931398
 20
131.6302029479
 30
0.0
 11
410.0753931398
 21
131.6302029479
 31
0.0
  0
TEXT
  5
35B
330
2D1
100
AcDbEntity
  8
DV3_Default
  6
Continuous
 62
     7
 48
25.4
100
AcDbText
 10
260.8799002578
 20
140.2140227543
 30
0.0
 40
3.5
  1
100
  7
SEACAD_arial_ttf
 11
260.8799002578
 21
143.7140227543
 31
0.0
100
AcDbText
 73
     3
  0
ARC
  5
35C
330
2D1
100
AcDbEntity
  8
DV3_Default
  6
Continuous
 62
     7
 48
25.4
100
AcDbCircle
 10
275.6296480055
 20
519.3815419545
 30
0.0
 40
469.8802347492549
100
AcDbArc
 50
277.7634086488
 51
286.5723593162
  0
ARC
  5
35D
330
2D1
100
AcDbEntity
  8
DV3_Default
  6
Continuous
 62
     7
 48
25.4
100
AcDbCircle
 10
266.0415306561
 20
-38.5760635291
 30
0.0
 40
179.4417627856695
100
AcDbArc
 50
36.8419282783
 51
88.7118792259
  0
ARC
  5
35E
330
2D1
100
AcDbEntity
  8
DV3_Default
  6
Continuous
 62
     7
 48
25.4
100
AcDbCircle
 10
263.1131559347
 20
-50.8048896299
 30
0.0
 40
182.5678935376429
100
AcDbArc
 50
40.1782508613
 51
87.8144921835
  0
ARC
  5
35F
330
2D1
100
AcDbEntity
  8
DV3_Default
  6
Continuous
 62
     7
 48
25.4
100
AcDbCircle
 10
267.422941328
 20
-46.9658445378
 30
0.0
 40
168.2983649502892
100
AcDbArc
 50
41.4874111873
 51
89.0969574397
  0
ARC
  5
360
330
2D1
100
AcDbEntity
  8
DV3_Default
  6
Continuous
 62
     7
 48
25.4
100
AcDbCircle
 10
264.9760299889
 20
-58.5842574305
 30
0.0
 40
170.4580107271076
100
AcDbArc
 50
45.2231237776
 51
88.2857034247
  0
ARC
  5
361
330
2D1
100
AcDbEntity
  8
DV3_Default
  6
Continuous
 62
     7
 48
25.4
100
AcDbCircle
 10
263.1078285185
 20
-74.7479967136
 30
0.0
 40
176.0699555684497
100
AcDbArc
 50
50.1121296668
 51
87.732058756
  0
ARC
  5
362
330
2D1
100
AcDbEntity
  8
DV3_Default
  6
Continuous
 62
     7
 48
25.4
100
AcDbCircle
 10
258.3859093988
 20
-88.4628216443
 30
0.0
 40
180.537459485855
100
AcDbArc
 50
54.1657327774
 51
86.2876017803
  0
ARC
  5
363
330
2D1
100
AcDbEntity
  8
DV3_Default
  6
Continuous
 62
     7
 48
25.4
100
AcDbCircle
 10
273.1453952962
 20
-61.7774503886
 30
0.0
 40
142.6892182201626
100
AcDbArc
 50
55.6492941606
 51
91.2328313412
  0
ARC
  5
364
330
2D1
100
AcDbEntity
  8
DV3_Default
  6
Continuous
 62
     7
 48
25.4
100
AcDbCircle
 10
273.6763932381
 20
-64.5634125336
 30
0.0
 40
135.2492968789836
100
AcDbArc
 50
61.069802342
 51
91.5256751544
  0
ARC
  5
365
330
2D1
100
AcDbEntity
  8
DV3_Default
  6
Continuous
 62
     7
 48
25.4
100
AcDbCircle
 10
258.3859093988
 20
-88.4628216443
 30
0.0
 40
180.537459485855
100
AcDbArc
 50
53.460620524
 51
53.4982655933
  0
LINE
  5
367
330
2D1
100
AcDbEntity
  8
DV3_Default
  6
HIDDEN2
 62
     7
 48
25.4
100
AcDbLine
 10
409.6474812896
 20
69.0189046353
 30
0.0
 11
270.0753931398
 21
69.0189046353
 31
0.0
  0
ENDBLK
  5
369
330
2D1
100
AcDbEntity
  8
0
100
AcDbBlockEnd
  0
BLOCK
  5
375
330
36A
100
AcDbEntity
  8
0
100
AcDbBlockBegin
  2
GDimGGroup15
 70
     0
 71
     0
 10
0.0
 20
0.0
 30
0.0
  3
GDimGGroup15
  1

  0
HATCH
  5
36C
330
36A
100
AcDbEntity
  8
Default
  6
Continuous
 62
     7
 48
25.4
100
AcDbHatch
 10
0.0
 20
0.0
 30
0.0
210
0.0
220
0.0
230
1.0
  2
SOLID
 70
     1
 71
     0
 91
        1
 92
        1
 93
        3
 72
     1
 10
228.31713453801
 20
142.4932695085755
 11
227.6504678396784
 21
146.4932696985653
 72
     1
 10
227.6504678396784
 20
146.4932696985653
 11
226.9838011413467
 21
142.4932695085755
 72
     1
 10
226.9838011413467
 20
142.4932695085755
 11
228.31713453801
 21
142.4932695085755
 97
        0
 75
     0
 76
     1
 98
        0
  0
LWPOLYLINE
  5
36D
330
36A
100
AcDbEntity
  8
Default
  6
Continuous
 62
     7
 48
25.4
370
    20
100
AcDbPolyline
 90
        4
 70
     1
 43
0.00025
 10
228.317134538
 20
142.4932695086
 10
227.6504678397
 20
146.4932696986
 10
226.9838011413
 20
142.4932695086
 10
228.317134538
 20
142.4932695086
  0
HATCH
  5
36E
330
36A
100
AcDbEntity
  8
Default
  6
Continuous
 62
     7
 48
25.4
100
AcDbHatch
 10
0.0
 20
0.0
 30
0.0
210
0.0
220
0.0
230
1.0
  2
SOLID
 70
     1
 71
     0
 91
        1
 92
        1
 93
        3
 72
     1
 10
228.31713453801
 20
160.2932698885551
 11
226.9838011413467
 21
160.2932698885551
 72
     1
 10
226.9838011413467
 20
160.2932698885551
 11
227.6504678396784
 21
156.2932696985653
 72
     1
 10
227.6504678396784
 20
156.2932696985653
 11
228.31713453801
 21
160.2932698885551
 97
        0
 75
     0
 76
     1
 98
        0
  0
LWPOLYLINE
  5
36F
330
36A
100
AcDbEntity
  8
Default
  6
Continuous
 62
     7
 48
25.4
370
    20
100
AcDbPolyline
 90
        4
 70
     1
 43
0.00025
 10
228.317134538
 20
160.2932698886
 10
227.6504678397
 20
156.2932696986
 10
226.9838011413
 20
160.2932698886
 10
228.317134538
 20
160.2932698886
  0
LINE
  5
370
330
36A
100
AcDbEntity
  8
Default
  6
Continuous
 62
     7
 48
25.4
100
AcDbLine
 10
213.7475922449
 20
146.4932696986
 30
0.0
 11
229.6504679347
 21
146.4932696986
 31
0.0
  0
LINE
  5
371
330
36A
100
AcDbEntity
  8
Default
  6
Continuous
 62
     7
 48
25.4
100
AcDbLine
 10
213.7475924726
 20
156.2932696986
 30
0.0
 11
229.6504679347
 21
156.2932696986
 31
0.0
  0
LINE
  5
372
330
36A
100
AcDbEntity
  8
Default
  6
Continuous
 62
     7
 48
25.4
100
AcDbLine
 10
227.6504678397
 20
110.938149141
 30
0.0
 11
227.6504678397
 21
164.2932692635
 31
0.0
  0
TEXT
  5
373
330
36A
100
AcDbEntity
  8
Default
  6
Continuous
 62
     7
 48
25.4
100
AcDbText
 10
226.6504678397
 20
112.3381482801
 30
0.0
 40
4.0
  1
14
 50
90.0
  7
SEACAD_arial_ttf
 11
222.6504678397
 21
112.3381482801
 31
0.0
100
AcDbText
 73
     3
  0
TEXT
  5
374
330
36A
100
AcDbEntity
  8
Default
  6
Continuous
 62
     7
 48
25.4
100
AcDbText
 10
226.6504678397
 20
120.9990178453
 30
0.0
 40
4.0
  1
H8/h8
 50
90.0
  7
SEACAD_arial_ttf
 11
222.6504678397
 21
120.9990178453
 31
0.0
100
AcDbText
 73
     3
  0
ENDBLK
  5
376
330
36A
100
AcDbEntity
  8
0
100
AcDbBlockEnd
  0
BLOCK
  5
381
330
377
100
AcDbEntity
  8
0
100
AcDbBlockBegin
  2
GDimGGroup16
 70
     0
 71
     0
 10
0.0
 20
0.0
 30
0.0
  3
GDimGGroup16
  1

  0
HATCH
  5
379
330
377
100
AcDbEntity
  8
Default
  6
Continuous
 62
     7
 48
25.4
100
AcDbHatch
 10
0.0
 20
0.0
 30
0.0
210
0.0
220
0.0
230
1.0
  2
SOLID
 70
     1
 71
     0
 91
        1
 92
        1
 93
        3
 72
     1
 10
244.7046824615752
 20
142.4607107248084
 11
243.371349064912
 21
142.4607107248084
 72
     1
 10
243.371349064912
 20
142.4607107248084
 11
244.0380157632436
 21
138.4607105348186
 72
     1
 10
244.0380157632436
 20
138.4607105348186
 11
244.7046824615752
 21
142.4607107248084
 97
        0
 75
     0
 76
     1
 98
        0
  0
LWPOLYLINE
  5
37A
330
377
100
AcDbEntity
  8
Default
  6
Continuous
 62
     7
 48
25.4
370
    20
100
AcDbPolyline
 90
        4
 70
     1
 43
0.00025
 10
244.7046824616
 20
142.4607107248
 10
244.0380157632
 20
138.4607105348
 10
243.3713490649
 20
142.4607107248
 10
244.7046824616
 20
142.4607107248
  0
HATCH
  5
37B
330
377
100
AcDbEntity
  8
Default
  6
Continuous
 62
     7
 48
25.4
100
AcDbHatch
 10
0.0
 20
0.0
 30
0.0
210
0.0
220
0.0
230
1.0
  2
SOLID
 70
     1
 71
     0
 91
        1
 92
        1
 93
        3
 72
     1
 10
244.7046824615752
 20
160.3382848035471
 11
244.0380157632436
 21
164.3382849935369
 72
     1
 10
244.0380157632436
 20
164.3382849935369
 11
243.371349064912
 21
160.3382848035471
 72
     1
 10
243.371349064912
 20
160.3382848035471
 11
244.7046824615752
 21
160.3382848035471
 97
        0
 75
     0
 76
     1
 98
        0
  0
LWPOLYLINE
  5
37C
330
377
100
AcDbEntity
  8
Default
  6
Continuous
 62
     7
 48
25.4
370
    20
100
AcDbPolyline
 90
        4
 70
     1
 43
0.00025
 10
244.7046824616
 20
160.3382848035
 10
244.0380157632
 20
164.3382849935
 10
243.3713490649
 20
160.3382848035
 10
244.7046824616
 20
160.3382848035
  0
LINE
  5
37D
330
377
100
AcDbEntity
  8
Default
  6
Continuous
 62
     7
 48
25.4
100
AcDbLine
 10
210.2444173498
 20
138.4607105348
 30
0.0
 11
246.0380158582
 21
138.4607105348
 31
0.0
  0
LINE
  5
37E
330
377
100
AcDbEntity
  8
Default
  6
Continuous
 62
     7
 48
25.4
100
AcDbLine
 10
210.2475922284
 20
164.3382844901
 30
0.0
 11
246.0380158582
 21
164.3382844901
 31
0.0
  0
LINE
  5
37F
330
377
100
AcDbEntity
  8
Default
  6
Continuous
 62
     7
 48
25.4
100
AcDbLine
 10
244.0380157632
 20
138.4607105348
 30
0.0
 11
244.0380157632
 21
164.3382849935
 31
0.0
  0
TEXT
  5
380
330
377
100
AcDbEntity
  8
Default
  6
Continuous
 62
     7
 48
25.4
100
AcDbText
 10
243.0380157632
 20
148.2690629816
 30
0.0
 40
4.0
  1
37
 50
90.0
  7
SEACAD_arial_ttf
 11
239.0380157632
 21
148.2690629816
 31
0.0
100
AcDbText
 73
     3
  0
ENDBLK
  5
382
330
377
100
AcDbEntity
  8
0
100
AcDbBlockEnd
  0
BLOCK
  5
38D
330
383
100
AcDbEntity
  8
0
100
AcDbBlockBegin
  2
GDimGGroup17
 70
     0
 71
     0
 10
0.0
 20
0.0
 30
0.0
  3
GDimGGroup17
  1

  0
HATCH
  5
385
330
383
100
AcDbEntity
  8
Default
  6
Continuous
 62
     7
 48
25.4
100
AcDbHatch
 10
0.0
 20
0.0
 30
0.0
210
0.0
220
0.0
230
1.0
  2
SOLID
 70
     1
 71
     0
 91
        1
 92
        1
 93
        3
 72
     1
 10
217.7475924348734
 20
181.4704298989178
 11
213.7475922448836
 21
180.8037632005862
 72
     1
 10
213.7475922448836
 20
180.8037632005862
 11
217.7475924348734
 21
180.1370965022545
 72
     1
 10
217.7475924348734
 20
180.1370965022545
 11
217.7475924348734
 21
181.4704298989178
 97
        0
 75
     0
 76
     1
 98
        0
  0
LWPOLYLINE
  5
386
330
383
100
AcDbEntity
  8
Default
  6
Continuous
 62
     7
 48
25.4
370
    20
100
AcDbPolyline
 90
        4
 70
     1
 43
0.00025
 10
217.7475924349
 20
181.4704298989
 10
213.7475922449
 20
180.8037632006
 10
217.7475924349
 20
180.1370965023
 10
217.7475924349
 20
181.4704298989
  0
HATCH
  5
387
330
383
100
AcDbEntity
  8
Default
  6
Continuous
 62
     7
 48
25.4
100
AcDbHatch
 10
0.0
 20
0.0
 30
0.0
210
0.0
220
0.0
230
1.0
  2
SOLID
 70
     1
 71
     0
 91
        1
 92
        1
 93
        3
 72
     1
 10
207.6475920548938
 20
181.4704298989178
 11
207.6475920548938
 21
180.1370965022545
 72
     1
 10
207.6475920548938
 20
180.1370965022545
 11
211.6475922448836
 21
180.8037632005862
 72
     1
 10
211.6475922448836
 20
180.8037632005862
 11
207.6475920548938
 21
181.4704298989178
 97
        0
 75
     0
 76
     1
 98
        0
  0
LWPOLYLINE
  5
388
330
383
100
AcDbEntity
  8
Default
  6
Continuous
 62
     7
 48
25.4
370
    20
100
AcDbPolyline
 90
        4
 70
     1
 43
0.00025
 10
207.6475920549
 20
181.4704298989
 10
211.6475922449
 20
180.8037632006
 10
207.6475920549
 20
180.1370965023
 10
207.6475920549
 20
181.4704298989
  0
LINE
  5
389
330
383
100
AcDbEntity
  8
Default
  6
Continuous
 62
     7
 48
25.4
100
AcDbLine
 10
213.7475922449
 20
156.2932696986
 30
0.0
 11
213.7475922449
 21
182.8037632956
 31
0.0
  0
LINE
  5
38A
330
383
100
AcDbEntity
  8
Default
  6
Continuous
 62
     7
 48
25.4
100
AcDbLine
 10
211.6475922449
 20
139.8382844901
 30
0.0
 11
211.6475922449
 21
182.8037632956
 31
0.0
  0
LINE
  5
38B
330
383
100
AcDbEntity
  8
Default
  6
Continuous
 62
     7
 48
25.4
100
AcDbLine
 10
221.3040362789
 20
180.8037632006
 30
0.0
 11
203.6475926383
 21
180.8037632006
 31
0.0
  0
TEXT
  5
38C
330
383
100
AcDbEntity
  8
Default
  6
Continuous
 62
     7
 48
25.4
100
AcDbText
 10
216.7736014828
 20
181.8037632006
 30
0.0
 40
4.0
  1
3
  7
SEACAD_arial_ttf
 11
216.7736014828
 21
185.8037632006
 31
0.0
100
AcDbText
 73
     3
  0
ENDBLK
  5
38E
330
383
100
AcDbEntity
  8
0
100
AcDbBlockEnd
  0
BLOCK
  5
399
330
38F
100
AcDbEntity
  8
0
100
AcDbBlockBegin
  2
GDimGGroup18
 70
     0
 71
     0
 10
0.0
 20
0.0
 30
0.0
  3
GDimGGroup18
  1

  0
HATCH
  5
391
330
38F
100
AcDbEntity
  8
Default
  6
Continuous
 62
     7
 48
25.4
100
AcDbHatch
 10
0.0
 20
0.0
 30
0.0
210
0.0
220
0.0
230
1.0
  2
SOLID
 70
     1
 71
     0
 91
        1
 92
        1
 93
        3
 72
     1
 10
215.6475924348734
 20
181.4704300557333
 11
211.6475922448836
 21
180.8037633574017
 72
     1
 10
211.6475922448836
 20
180.8037633574017
 11
215.6475924348734
 21
180.13709665907
 72
     1
 10
215.6475924348734
 20
180.13709665907
 11
215.6475924348734
 21
181.4704300557333
 97
        0
 75
     0
 76
     1
 98
        0
  0
LWPOLYLINE
  5
392
330
38F
100
AcDbEntity
  8
Default
  6
Continuous
 62
     7
 48
25.4
370
    20
100
AcDbPolyline
 90
        4
 70
     1
 43
0.00025
 10
215.6475924349
 20
181.4704300557
 10
211.6475922449
 20
180.8037633574
 10
215.6475924349
 20
180.1370966591
 10
215.6475924349
 20
181.4704300557
  0
HATCH
  5
393
330
38F
100
AcDbEntity
  8
Default
  6
Continuous
 62
     7
 48
25.4
100
AcDbHatch
 10
0.0
 20
0.0
 30
0.0
210
0.0
220
0.0
230
1.0
  2
SOLID
 70
     1
 71
     0
 91
        1
 92
        1
 93
        3
 72
     1
 10
206.2475920548938
 20
181.4704300557333
 11
206.2475920548938
 21
180.13709665907
 72
     1
 10
206.2475920548938
 20
180.13709665907
 11
210.2475922448836
 21
180.8037633574017
 72
     1
 10
210.2475922448836
 20
180.8037633574017
 11
206.2475920548938
 21
181.4704300557333
 97
        0
 75
     0
 76
     1
 98
        0
  0
LWPOLYLINE
  5
394
330
38F
100
AcDbEntity
  8
Default
  6
Continuous
 62
     7
 48
25.4
370
    20
100
AcDbPolyline
 90
        4
 70
     1
 43
0.00025
 10
206.2475920549
 20
181.4704300557
 10
210.2475922449
 20
180.8037633574
 10
206.2475920549
 20
180.1370966591
 10
206.2475920549
 20
181.4704300557
  0
LINE
  5
395
330
38F
100
AcDbEntity
  8
Default
  6
Continuous
 62
     7
 48
25.4
100
AcDbLine
 10
211.6475922449
 20
139.8382844901
 30
0.0
 11
211.6475922449
 21
182.8037634524
 31
0.0
  0
LINE
  5
396
330
38F
100
AcDbEntity
  8
Default
  6
Continuous
 62
     7
 48
25.4
100
AcDbLine
 10
210.2475922449
 20
172.7382844901
 30
0.0
 11
210.2475922449
 21
182.8037634524
 31
0.0
  0
LINE
  5
397
330
38F
100
AcDbEntity
  8
Default
  6
Continuous
 62
     7
 48
25.4
100
AcDbLine
 10
219.6475926249
 20
180.8037633574
 30
0.0
 11
199.5031430779
 21
180.8037633574
 31
0.0
  0
TEXT
  5
398
330
38F
100
AcDbEntity
  8
Default
  6
Continuous
 62
     7
 48
25.4
100
AcDbText
 10
200.9031432078
 20
181.8037633574
 30
0.0
 40
4.0
  1
2
  7
SEACAD_arial_ttf
 11
200.9031432078
 21
185.8037633574
 31
0.0
100
AcDbText
 73
     3
  0
ENDBLK
  5
39A
330
38F
100
AcDbEntity
  8
0
100
AcDbBlockEnd
  0
BLOCK
  5
3A6
330
39B
100
AcDbEntity
  8
0
100
AcDbBlockBegin
  2
GDimGGroup19
 70
     0
 71
     0
 10
0.0
 20
0.0
 30
0.0
  3
GDimGGroup19
  1

  0
HATCH
  5
39D
330
39B
100
AcDbEntity
  8
Default
  6
Continuous
 62
     7
 48
25.4
100
AcDbHatch
 10
0.0
 20
0.0
 30
0.0
210
0.0
220
0.0
230
1.0
  2
SOLID
 70
     1
 71
     0
 91
        1
 92
        1
 93
        3
 72
     1
 10
102.0156466046577
 20
277.41952340887
 11
102.6823133029893
 21
273.4195232188802
 72
     1
 10
102.6823133029893
 20
273.4195232188802
 11
103.3489800013209
 21
277.41952340887
 72
     1
 10
103.3489800013209
 20
277.41952340887
 11
102.0156466046577
 21
277.41952340887
 97
        0
 75
     0
 76
     1
 98
        0
  0
LWPOLYLINE
  5
39E
330
39B
100
AcDbEntity
  8
Default
  6
Continuous
 62
     7
 48
25.4
370
    20
100
AcDbPolyline
 90
        4
 70
     1
 43
0.00025
 10
102.0156466047
 20
277.4195234089
 10
102.682313303
 20
273.4195232189
 10
103.3489800013
 20
277.4195234089
 10
102.0156466047
 20
277.4195234089
  0
HATCH
  5
39F
330
39B
100
AcDbEntity
  8
Default
  6
Continuous
 62
     7
 48
25.4
100
AcDbHatch
 10
0.0
 20
0.0
 30
0.0
210
0.0
220
0.0
230
1.0
  2
SOLID
 70
     1
 71
     0
 91
        1
 92
        1
 93
        3
 72
     1
 10
102.0156466046577
 20
326.1195217056672
 11
103.3489800013209
 21
326.1195217056672
 72
     1
 10
103.3489800013209
 20
326.1195217056672
 11
102.6823133029893
 21
330.119521895657
 72
     1
 10
102.6823133029893
 20
330.119521895657
 11
102.0156466046577
 21
326.1195217056672
 97
        0
 75
     0
 76
     1
 98
        0
  0
LWPOLYLINE
  5
3A0
330
39B
100
AcDbEntity
  8
Default
  6
Continuous
 62
     7
 48
25.4
370
    20
100
AcDbPolyline
 90
        4
 70
     1
 43
0.00025
 10
102.0156466047
 20
326.1195217057
 10
102.682313303
 20
330.1195218957
 10
103.3489800013
 20
326.1195217057
 10
102.0156466047
 20
326.1195217057
  0
LINE
  5
3A1
330
39B
100
AcDbEntity
  8
Default
  6
Continuous
 62
     7
 48
25.4
100
AcDbLine
 10
160.8338904367
 20
273.4195232189
 30
0.0
 11
100.682313208
 21
273.4195232189
 31
0.0
  0
LINE
  5
3A2
330
39B
100
AcDbEntity
  8
Default
  6
Continuous
 62
     7
 48
25.4
100
AcDbLine
 10
160.8338904367
 20
330.1195232189
 30
0.0
 11
100.682313208
 21
330.1195232189
 31
0.0
  0
LINE
  5
3A3
330
39B
100
AcDbEntity
  8
Default
  6
Continuous
 62
     7
 48
25.4
100
AcDbLine
 10
102.682313303
 20
273.4195232189
 30
0.0
 11
102.682313303
 21
330.1195218957
 31
0.0
  0
TEXT
  5
3A4
330
39B
100
AcDbEntity
  8
Default
  6
Continuous
 62
     7
 48
25.4
100
AcDbText
 10
101.682313303
 20
302.319789529
 30
0.0
 40
4.0
  1
81
 50
90.0
  7
SEACAD_arial_ttf
 11
97.682313303
 21
302.319789529
 31
0.0
100
AcDbText
 73
     3
  0
TEXT
  5
3A5
330
39B
100
AcDbEntity
  8
Default
  6
Continuous
 62
     7
 48
25.4
100
AcDbText
 10
101.682313303
 20
294.9583860203
 30
0.0
 40
4.0
  1
O
 50
90.0
  7
SEACAD_semeca1_ttf
 11
97.682313303
 21
294.9583860203
 31
0.0
100
AcDbText
 73
     3
  0
ENDBLK
  5
3A7
330
39B
100
AcDbEntity
  8
0
100
AcDbBlockEnd
  0
BLOCK
  5
3B1
330
3A8
100
AcDbEntity
  8
0
100
AcDbBlockBegin
  2
GDimGGroup20
 70
     0
 71
     0
 10
0.0
 20
0.0
 30
0.0
  3
GDimGGroup20
  1

  0
HATCH
  5
3AA
330
3A8
100
AcDbEntity
  8
Default
  6
Continuous
 62
     7
 48
25.4
100
AcDbHatch
 10
0.0
 20
0.0
 30
0.0
210
0.0
220
0.0
230
1.0
  2
SOLID
 70
     1
 71
     0
 91
        1
 92
        1
 93
        3
 72
     1
 10
193.3676867288124
 20
282.6695234088699
 11
192.0343533321491
 21
282.6695234088699
 72
     1
 10
192.0343533321491
 20
282.6695234088699
 11
192.7010200304808
 21
278.6695232188801
 72
     1
 10
192.7010200304808
 20
278.6695232188801
 11
193.3676867288124
 21
282.6695234088699
 97
        0
 75
     0
 76
     1
 98
        0
  0
LWPOLYLINE
  5
3AB
330
3A8
100
AcDbEntity
  8
Default
  6
Continuous
 62
     7
 48
25.4
370
    20
100
AcDbPolyline
 90
        4
 70
     1
 43
0.00025
 10
193.3676867288
 20
282.6695234089
 10
192.7010200305
 20
278.6695232189
 10
192.0343533321
 20
282.6695234089
 10
193.3676867288
 20
282.6695234089
  0
HATCH
  5
3AC
330
3A8
100
AcDbEntity
  8
Default
  6
Continuous
 62
     7
 48
25.4
100
AcDbHatch
 10
0.0
 20
0.0
 30
0.0
210
0.0
220
0.0
230
1.0
  2
SOLID
 70
     1
 71
     0
 91
        1
 92
        1
 93
        3
 72
     1
 10
193.3676867288124
 20
320.8695227785508
 11
192.7010200304808
 21
324.8695229685406
 72
     1
 10
192.7010200304808
 20
324.8695229685406
 11
192.0343533321491
 21
320.8695227785508
 72
     1
 10
192.0343533321491
 20
320.8695227785508
 11
193.3676867288124
 21
320.8695227785508
 97
        0
 75
     0
 76
     1
 98
        0
  0
LWPOLYLINE
  5
3AD
330
3A8
100
AcDbEntity
  8
Default
  6
Continuous
 62
     7
 48
25.4
370
    20
100
AcDbPolyline
 90
        4
 70
     1
 43
0.00025
 10
193.3676867288
 20
320.8695227786
 10
192.7010200305
 20
324.8695229685
 10
192.0343533321
 20
320.8695227786
 10
193.3676867288
 20
320.8695227786
  0
LINE
  5
3AE
330
3A8
100
AcDbEntity
  8
Default
  6
Continuous
 62
     7
 48
25.4
100
AcDbLine
 10
192.7010200305
 20
278.6695232189
 30
0.0
 11
192.7010200305
 21
324.8695229685
 31
0.0
  0
TEXT
  5
3AF
330
3A8
100
AcDbEntity
  8
Default
  6
Continuous
 62
     7
 48
25.4
100
AcDbText
 10
191.7010200305
 20
302.3197900655
 30
0.0
 40
4.0
  1
66
 50
90.0
  7
SEACAD_arial_ttf
 11
187.7010200305
 21
302.3197900655
 31
0.0
100
AcDbText
 73
     3
  0
TEXT
  5
3B0
330
3A8
100
AcDbEntity
  8
Default
  6
Continuous
 62
     7
 48
25.4
100
AcDbText
 10
191.7010200305
 20
294.9583865567
 30
0.0
 40
4.0
  1
O
 50
90.0
  7
SEACAD_semeca1_ttf
 11
187.7010200305
 21
294.9583865567
 31
0.0
100
AcDbText
 73
     3
  0
ENDBLK
  5
3B2
330
3A8
100
AcDbEntity
  8
0
100
AcDbBlockEnd
  0
BLOCK
  5
3BF
330
3B3
100
AcDbEntity
  8
0
100
AcDbBlockBegin
  2
GDimGGroup21
 70
     0
 71
     0
 10
0.0
 20
0.0
 30
0.0
  3
GDimGGroup21
  1

  0
HATCH
  5
3B5
330
3B3
100
AcDbEntity
  8
Default
  6
Continuous
 62
     7
 48
25.4
100
AcDbHatch
 10
0.0
 20
0.0
 30
0.0
210
0.0
220
0.0
230
1.0
  2
SOLID
 70
     1
 71
     0
 91
        1
 92
        1
 93
        3
 72
     1
 10
270.7008430890631
 20
305.7695234088699
 11
269.3675096923998
 21
305.7695234088699
 72
     1
 10
269.3675096923998
 20
305.7695234088699
 11
270.0341763907315
 21
301.7695232188801
 72
     1
 10
270.0341763907315
 20
301.7695232188801
 11
270.7008430890631
 21
305.7695234088699
 97
        0
 75
     0
 76
     1
 98
        0
  0
LWPOLYLINE
  5
3B6
330
3B3
100
AcDbEntity
  8
Default
  6
Continuous
 62
     7
 48
25.4
370
    20
100
AcDbPolyline
 90
        4
 70
     1
 43
0.00025
 10
270.7008430891
 20
305.7695234089
 10
270.0341763907
 20
301.7695232189
 10
269.3675096924
 20
305.7695234089
 10
270.7008430891
 20
305.7695234089
  0
HATCH
  5
3B7
330
3B3
100
AcDbEntity
  8
Default
  6
Continuous
 62
     7
 48
25.4
100
AcDbHatch
 10
0.0
 20
0.0
 30
0.0
210
0.0
220
0.0
230
1.0
  2
SOLID
 70
     1
 71
     0
 91
        1
 92
        1
 93
        3
 72
     1
 10
270.7008430890631
 20
329.7594141109387
 11
270.0341763907315
 21
333.7594143009285
 72
     1
 10
270.0341763907315
 20
333.7594143009285
 11
269.3675096923998
 21
329.7594141109387
 72
     1
 10
269.3675096923998
 20
329.7594141109387
 11
270.7008430890631
 21
329.7594141109387
 97
        0
 75
     0
 76
     1
 98
        0
  0
LWPOLYLINE
  5
3B8
330
3B3
100
AcDbEntity
  8
Default
  6
Continuous
 62
     7
 48
25.4
370
    20
100
AcDbPolyline
 90
        4
 70
     1
 43
0.00025
 10
270.7008430891
 20
329.7594141109
 10
270.0341763907
 20
333.7594143009
 10
269.3675096924
 20
329.7594141109
 10
270.7008430891
 20
329.7594141109
  0
LINE
  5
3B9
330
3B3
100
AcDbEntity
  8
Default
  6
Continuous
 62
     7
 48
25.4
100
AcDbLine
 10
258.2110633143
 20
301.7695232189
 30
0.0
 11
272.0341764857
 21
301.7695232189
 31
0.0
  0
LINE
  5
3BA
330
3B3
100
AcDbEntity
  8
Default
  6
Continuous
 62
     7
 48
25.4
100
AcDbLine
 10
210.1849122995
 20
333.7594142791
 30
0.0
 11
272.0341764857
 21
333.7594142791
 31
0.0
  0
LINE
  5
3BB
330
3B3
100
AcDbEntity
  8
Default
  6
Continuous
 62
     7
 48
25.4
100
AcDbLine
 10
270.0341763907
 20
272.5283543474
 30
0.0
 11
270.0341763907
 21
333.7594143009
 31
0.0
  0
TEXT
  5
3BC
330
3B3
100
AcDbEntity
  8
Default
  6
Continuous
 62
     7
 48
25.4
100
AcDbText
 10
263.0341763907
 20
288.6413975253
 30
0.0
 40
4.0
  1
45.7
 50
90.0
  7
SEACAD_arial_ttf
 11
259.0341763907
 21
288.6413975253
 31
0.0
100
AcDbText
 73
     3
  0
TEXT
  5
3BD
330
3B3
100
AcDbEntity
  8
Default
  6
Continuous
 62
     7
 48
25.4
100
AcDbText
 10
263.0341763907
 20
273.928354047
 30
0.0
 40
4.0
  1
MAX
 50
90.0
  7
SEACAD_arial_ttf
 11
259.0341763907
 21
273.928354047
 31
0.0
100
AcDbText
 73
     3
  0
TEXT
  5
3BE
330
3B3
100
AcDbEntity
  8
Default
  6
Continuous
 62
     7
 48
25.4
100
AcDbText
 10
269.0341763907
 20
273.928354047
 30
0.0
 40
4.0
  1
MIN 42
 50
90.0
  7
SEACAD_arial_ttf
 11
265.0341763907
 21
273.928354047
 31
0.0
100
AcDbText
 73
     3
  0
ENDBLK
  5
3C0
330
3B3
100
AcDbEntity
  8
0
100
AcDbBlockEnd
  0
BLOCK
  5
3CD
330
3C1
100
AcDbEntity
  8
0
100
AcDbBlockBegin
  2
GDimGGroup22
 70
     0
 71
     0
 10
0.0
 20
0.0
 30
0.0
  3
GDimGGroup22
  1

  0
HATCH
  5
3C3
330
3C1
100
AcDbEntity
  8
Default
  6
Continuous
 62
     7
 48
25.4
100
AcDbHatch
 10
0.0
 20
0.0
 30
0.0
210
0.0
220
0.0
230
1.0
  2
SOLID
 70
     1
 71
     0
 91
        1
 92
        1
 93
        3
 72
     1
 10
291.1224349182617
 20
329.7594140890932
 11
290.4557682199301
 21
333.759414279083
 72
     1
 10
290.4557682199301
 20
333.759414279083
 11
289.7891015215984
 21
329.7594140890932
 72
     1
 10
289.7891015215984
 20
329.7594140890932
 11
291.1224349182617
 21
329.7594140890932
 97
        0
 75
     0
 76
     1
 98
        0
  0
LWPOLYLINE
  5
3C4
330
3C1
100
AcDbEntity
  8
Default
  6
Continuous
 62
     7
 48
25.4
370
    20
100
AcDbPolyline
 90
        4
 70
     1
 43
0.00025
 10
291.1224349183
 20
329.7594140891
 10
290.4557682199
 20
333.7594142791
 10
289.7891015216
 20
329.7594140891
 10
291.1224349183
 20
329.7594140891
  0
HATCH
  5
3C5
330
3C1
100
AcDbEntity
  8
Default
  6
Continuous
 62
     7
 48
25.4
100
AcDbHatch
 10
0.0
 20
0.0
 30
0.0
210
0.0
220
0.0
230
1.0
  2
SOLID
 70
     1
 71
     0
 91
        1
 92
        1
 93
        3
 72
     1
 10
291.1224349182617
 20
345.7224973274371
 11
289.7891015215984
 21
345.7224973274371
 72
     1
 10
289.7891015215984
 20
345.7224973274371
 11
290.4557682199301
 21
341.7224971374473
 72
     1
 10
290.4557682199301
 20
341.7224971374473
 11
291.1224349182617
 21
345.7224973274371
 97
        0
 75
     0
 76
     1
 98
        0
  0
LWPOLYLINE
  5
3C6
330
3C1
100
AcDbEntity
  8
Default
  6
Continuous
 62
     7
 48
25.4
370
    20
100
AcDbPolyline
 90
        4
 70
     1
 43
0.00025
 10
291.1224349183
 20
345.7224973274
 10
290.4557682199
 20
341.7224971374
 10
289.7891015216
 20
345.7224973274
 10
291.1224349183
 20
345.7224973274
  0
LINE
  5
3C7
330
3C1
100
AcDbEntity
  8
Default
  6
Continuous
 62
     7
 48
25.4
100
AcDbLine
 10
210.1849122995
 20
333.7594142791
 30
0.0
 11
292.4557683149
 21
333.7594142791
 31
0.0
  0
LINE
  5
3C8
330
3C1
100
AcDbEntity
  8
Default
  6
Continuous
 62
     7
 48
25.4
100
AcDbLine
 10
244.948858968
 20
341.7224971374
 30
0.0
 11
292.4557683149
 21
341.7224971374
 31
0.0
  0
LINE
  5
3C9
330
3C1
100
AcDbEntity
  8
Default
  6
Continuous
 62
     7
 48
25.4
100
AcDbLine
 10
290.4557682199
 20
270.2133155104
 30
0.0
 11
290.4557682199
 21
349.7224974122
 31
0.0
  0
TEXT
  5
3CA
330
3C1
100
AcDbEntity
  8
Default
  6
Continuous
 62
     7
 48
25.4
100
AcDbText
 10
283.4557682199
 20
286.326361188
 30
0.0
 40
4.0
  1
23.75
 50
90.0
  7
SEACAD_arial_ttf
 11
279.4557682199
 21
286.326361188
 31
0.0
100
AcDbText
 73
     3
  0
TEXT
  5
3CB
330
3C1
100
AcDbEntity
  8
Default
  6
Continuous
 62
     7
 48
25.4
100
AcDbText
 10
283.4557682199
 20
271.6133177098
 30
0.0
 40
4.0
  1
MAX
 50
90.0
  7
SEACAD_arial_ttf
 11
279.4557682199
 21
271.6133177098
 31
0.0
100
AcDbText
 73
     3
  0
TEXT
  5
3CC
330
3C1
100
AcDbEntity
  8
Default
  6
Continuous
 62
     7
 48
25.4
100
AcDbText
 10
289.4557682199
 20
271.6133177098
 30
0.0
 40
4.0
  1
MIN 11.75
 50
90.0
  7
SEACAD_arial_ttf
 11
285.4557682199
 21
271.6133177098
 31
0.0
100
AcDbText
 73
     3
  0
ENDBLK
  5
3CE
330
3C1
100
AcDbEntity
  8
0
100
AcDbBlockEnd
  0
BLOCK
  5
3D9
330
3CF
100
AcDbEntity
  8
0
100
AcDbBlockBegin
  2
GDimGGroup23
 70
     0
 71
     0
 10
0.0
 20
0.0
 30
0.0
  3
GDimGGroup23
  1

  0
HATCH
  5
3D1
330
3CF
100
AcDbEntity
  8
Default
  6
Continuous
 62
     7
 48
25.4
100
AcDbHatch
 10
0.0
 20
0.0
 30
0.0
210
0.0
220
0.0
230
1.0
  2
SOLID
 70
     1
 71
     0
 91
        1
 92
        1
 93
        3
 72
     1
 10
156.1338900791361
 20
313.7520214594752
 11
160.1338902691259
 21
314.4186881578068
 72
     1
 10
160.1338902691259
 20
314.4186881578068
 11
156.1338900791361
 21
315.0853548561385
 72
     1
 10
156.1338900791361
 20
315.0853548561385
 11
156.1338900791361
 21
313.7520214594752
 97
        0
 75
     0
 76
     1
 98
        0
  0
LWPOLYLINE
  5
3D2
330
3CF
100
AcDbEntity
  8
Default
  6
Continuous
 62
     7
 48
25.4
370
    20
100
AcDbPolyline
 90
        4
 70
     1
 43
0.00025
 10
156.1338900791
 20
313.7520214595
 10
160.1338902691
 20
314.4186881578
 10
156.1338900791
 20
315.0853548561
 10
156.1338900791
 20
313.7520214595
  0
HATCH
  5
3D3
330
3CF
100
AcDbEntity
  8
Default
  6
Continuous
 62
     7
 48
25.4
100
AcDbHatch
 10
0.0
 20
0.0
 30
0.0
210
0.0
220
0.0
230
1.0
  2
SOLID
 70
     1
 71
     0
 91
        1
 92
        1
 93
        3
 72
     1
 10
142.0841910170319
 20
313.7520214594752
 11
142.0841910170319
 21
315.0853548561385
 72
     1
 10
142.0841910170319
 20
315.0853548561385
 11
138.0841908270421
 21
314.4186881578068
 72
     1
 10
138.0841908270421
 20
314.4186881578068
 11
142.0841910170319
 21
313.7520214594752
 97
        0
 75
     0
 76
     1
 98
        0
  0
LWPOLYLINE
  5
3D4
330
3CF
100
AcDbEntity
  8
Default
  6
Continuous
 62
     7
 48
25.4
370
    20
100
AcDbPolyline
 90
        4
 70
     1
 43
0.00025
 10
142.084191017
 20
313.7520214595
 10
138.084190827
 20
314.4186881578
 10
142.084191017
 20
315.0853548561
 10
142.084191017
 20
313.7520214595
  0
LINE
  5
3D5
330
3CF
100
AcDbEntity
  8
Default
  6
Continuous
 62
     7
 48
25.4
100
AcDbLine
 10
160.1338902691
 20
314.4186881578
 30
0.0
 11
108.7433280626
 21
314.4186881578
 31
0.0
  0
TEXT
  5
3D6
330
3CF
100
AcDbEntity
  8
Default
  6
Continuous
 62
     7
 48
25.4
100
AcDbText
 10
124.8563725793
 20
321.4186881578
 30
0.0
 40
4.0
  1
31.5
  7
SEACAD_arial_ttf
 11
124.8563725793
 21
325.4186881578
 31
0.0
100
AcDbText
 73
     3
  0
TEXT
  5
3D7
330
3CF
100
AcDbEntity
  8
Default
  6
Continuous
 62
     7
 48
25.4
100
AcDbText
 10
110.143329101
 20
321.4186881578
 30
0.0
 40
4.0
  1
MAX
  7
SEACAD_arial_ttf
 11
110.143329101
 21
325.4186881578
 31
0.0
100
AcDbText
 73
     3
  0
TEXT
  5
3D8
330
3CF
100
AcDbEntity
  8
Default
  6
Continuous
 62
     7
 48
25.4
100
AcDbText
 10
110.143329101
 20
315.4186881578
 30
0.0
 40
4.0
  1
MIN 15.5
  7
SEACAD_arial_ttf
 11
110.143329101
 21
319.4186881578
 31
0.0
100
AcDbText
 73
     3
  0
ENDBLK
  5
3DA
330
3CF
100
AcDbEntity
  8
0
100
AcDbBlockEnd
  0
BLOCK
  5
3E3
330
3DB
100
AcDbEntity
  8
0
100
AcDbBlockBegin
  2
GDimGGroup24
 70
     0
 71
     0
 10
0.0
 20
0.0
 30
0.0
  3
GDimGGroup24
  1

  0
HATCH
  5
3DD
330
3DB
100
AcDbEntity
  8
Default
  6
Continuous
 62
     7
 48
25.4
100
AcDbHatch
 10
0.0
 20
0.0
 30
0.0
210
0.0
220
0.0
230
1.0
  2
SOLID
 70
     1
 71
     0
 91
        1
 92
        1
 93
        3
 72
     1
 10
170.1338900791361
 20
284.699155316639
 11
170.1338900791361
 21
283.3658219199756
 72
     1
 10
170.1338900791361
 20
283.3658219199756
 11
174.1338902691259
 21
284.0324886183073
 72
     1
 10
174.1338902691259
 20
284.0324886183073
 11
170.1338900791361
 21
284.699155316639
 97
        0
 75
     0
 76
     1
 98
        0
  0
LWPOLYLINE
  5
3DE
330
3DB
100
AcDbEntity
  8
Default
  6
Continuous
 62
     7
 48
25.4
370
    20
100
AcDbPolyline
 90
        4
 70
     1
 43
0.00025
 10
170.1338900791
 20
284.6991553166
 10
174.1338902691
 20
284.0324886183
 10
170.1338900791
 20
283.36582192
 10
170.1338900791
 20
284.6991553166
  0
HATCH
  5
3DF
330
3DB
100
AcDbEntity
  8
Default
  6
Continuous
 62
     7
 48
25.4
100
AcDbHatch
 10
0.0
 20
0.0
 30
0.0
210
0.0
220
0.0
230
1.0
  2
SOLID
 70
     1
 71
     0
 91
        1
 92
        1
 93
        3
 72
     1
 10
164.1338904591158
 20
284.699155316639
 11
160.1338902691259
 21
284.0324886183073
 72
     1
 10
160.1338902691259
 20
284.0324886183073
 11
164.1338904591158
 21
283.3658219199756
 72
     1
 10
164.1338904591158
 20
283.3658219199756
 11
164.1338904591158
 21
284.699155316639
 97
        0
 75
     0
 76
     1
 98
        0
  0
LWPOLYLINE
  5
3E0
330
3DB
100
AcDbEntity
  8
Default
  6
Continuous
 62
     7
 48
25.4
370
    20
100
AcDbPolyline
 90
        4
 70
     1
 43
0.00025
 10
164.1338904591
 20
284.6991553166
 10
160.1338902691
 20
284.0324886183
 10
164.1338904591
 20
283.36582192
 10
164.1338904591
 20
284.6991553166
  0
LINE
  5
3E1
330
3DB
100
AcDbEntity
  8
Default
  6
Continuous
 62
     7
 48
25.4
100
AcDbLine
 10
174.1338902691
 20
284.0324886183
 30
0.0
 11
125.0354917327
 21
284.0324886183
 31
0.0
  0
TEXT
  5
3E2
330
3DB
100
AcDbEntity
  8
Default
  6
Continuous
 62
     7
 48
25.4
100
AcDbText
 10
126.4354930235
 20
285.0324886183
 30
0.0
 40
4.0
  1
20
  7
SEACAD_arial_ttf
 11
126.4354930235
 21
289.0324886183
 31
0.0
100
AcDbText
 73
     3
  0
ENDBLK
  5
3E4
330
3DB
100
AcDbEntity
  8
0
100
AcDbBlockEnd
  0
BLOCK
  5
3EE
330
3E5
100
AcDbEntity
  8
0
100
AcDbBlockBegin
  2
GDimGGroup25
 70
     0
 71
     0
 10
0.0
 20
0.0
 30
0.0
  3
GDimGGroup25
  1

  0
HATCH
  5
3E7
330
3E5
100
AcDbEntity
  8
Default
  6
Continuous
 62
     7
 48
25.4
100
AcDbHatch
 10
0.0
 20
0.0
 30
0.0
210
0.0
220
0.0
230
1.0
  2
SOLID
 70
     1
 71
     0
 91
        1
 92
        1
 93
        3
 72
     1
 10
167.7028251238668
 20
295.2959189058777
 11
166.3694917272036
 21
295.2959189058777
 72
     1
 10
166.3694917272036
 20
295.2959189058777
 11
167.0361584255352
 21
291.2959187158879
 72
     1
 10
167.0361584255352
 20
291.2959187158879
 11
167.7028251238668
 21
295.2959189058777
 97
        0
 75
     0
 76
     1
 98
        0
  0
LWPOLYLINE
  5
3E8
330
3E5
100
AcDbEntity
  8
Default
  6
Continuous
 62
     7
 48
25.4
370
    20
100
AcDbPolyline
 90
        4
 70
     1
 43
0.00025
 10
167.7028251239
 20
295.2959189059
 10
167.0361584255
 20
291.2959187159
 10
166.3694917272
 20
295.2959189059
 10
167.7028251239
 20
295.2959189059
  0
HATCH
  5
3E9
330
3E5
100
AcDbEntity
  8
Default
  6
Continuous
 62
     7
 48
25.4
100
AcDbHatch
 10
0.0
 20
0.0
 30
0.0
210
0.0
220
0.0
230
1.0
  2
SOLID
 70
     1
 71
     0
 91
        1
 92
        1
 93
        3
 72
     1
 10
167.7028251238668
 20
308.2431271539565
 11
167.0361584255352
 21
312.2431273439463
 72
     1
 10
167.0361584255352
 20
312.2431273439463
 11
166.3694917272036
 21
308.2431271539565
 72
     1
 10
166.3694917272036
 20
308.2431271539565
 11
167.7028251238668
 21
308.2431271539565
 97
        0
 75
     0
 76
     1
 98
        0
  0
LWPOLYLINE
  5
3EA
330
3E5
100
AcDbEntity
  8
Default
  6
Continuous
 62
     7
 48
25.4
370
    20
100
AcDbPolyline
 90
        4
 70
     1
 43
0.00025
 10
167.7028251239
 20
308.243127154
 10
167.0361584255
 20
312.2431273439
 10
166.3694917272
 20
308.243127154
 10
167.7028251239
 20
308.243127154
  0
LINE
  5
3EB
330
3E5
100
AcDbEntity
  8
Default
  6
Continuous
 62
     7
 48
25.4
100
AcDbLine
 10
167.0361584255
 20
291.2959187159
 30
0.0
 11
167.0361584255
 21
312.2431273439
 31
0.0
  0
TEXT
  5
3EC
330
3E5
100
AcDbEntity
  8
Default
  6
Continuous
 62
     7
 48
25.4
100
AcDbText
 10
166.0361584255
 20
302.3197900017
 30
0.0
 40
4.0
  1
30
 50
90.0
  7
SEACAD_arial_ttf
 11
162.0361584255
 21
302.3197900017
 31
0.0
100
AcDbText
 73
     3
  0
TEXT
  5
3ED
330
3E5
100
AcDbEntity
  8
Default
  6
Continuous
 62
     7
 48
25.4
100
AcDbText
 10
166.0361584255
 20
294.9583864929
 30
0.0
 40
4.0
  1
O
 50
90.0
  7
SEACAD_semeca1_ttf
 11
162.0361584255
 21
294.9583864929
 31
0.0
100
AcDbText
 73
     3
  0
ENDBLK
  5
3EF
330
3E5
100
AcDbEntity
  8
0
100
AcDbBlockEnd
  0
BLOCK
  5
3FA
330
3F0
100
AcDbEntity
  8
0
100
AcDbBlockBegin
  2
GDimGGroup26
 70
     0
 71
     0
 10
0.0
 20
0.0
 30
0.0
  3
GDimGGroup26
  1

  0
HATCH
  5
3F2
330
3F0
100
AcDbEntity
  8
Default
  6
Continuous
 62
     7
 48
25.4
100
AcDbHatch
 10
0.0
 20
0.0
 30
0.0
210
0.0
220
0.0
230
1.0
  2
SOLID
 70
     1
 71
     0
 91
        1
 92
        1
 93
        3
 72
     1
 10
489.3820946006825
 20
362.791913455115
 11
492.7375430705412
 21
360.5147635758347
 72
     1
 10
492.7375430705412
 20
360.5147635758347
 11
490.3020052896307
 21
363.7570778302432
 72
     1
 10
490.3020052896307
 20
363.7570778302432
 11
489.3820946006825
 21
362.791913455115
 97
        0
 75
     0
 76
     1
 98
        0
  0
LWPOLYLINE
  5
3F3
330
3F0
100
AcDbEntity
  8
Default
  6
Continuous
 62
     7
 48
25.4
370
    20
100
AcDbPolyline
 90
        4
 70
     1
 43
0.00025
 10
489.3820946007
 20
362.7919134551
 10
492.7375430705
 20
360.5147635758
 10
490.3020052896
 20
363.7570778302
 10
489.3820946007
 20
362.7919134551
  0
HATCH
  5
3F4
330
3F0
100
AcDbEntity
  8
Default
  6
Continuous
 62
     7
 48
25.4
100
AcDbHatch
 10
0.0
 20
0.0
 30
0.0
210
0.0
220
0.0
230
1.0
  2
SOLID
 70
     1
 71
     0
 91
        1
 92
        1
 93
        3
 72
     1
 10
437.8309840605848
 20
385.4912857787987
 11
433.8161363956547
 21
384.9208085803161
 72
     1
 10
433.8161363956547
 20
384.9208085803161
 11
437.7989848998261
 21
384.1583364172817
 72
     1
 10
437.7989848998261
 20
384.1583364172817
 11
437.8309840605848
 21
385.4912857787987
 97
        0
 75
     0
 76
     1
 98
        0
  0
LWPOLYLINE
  5
3F5
330
3F0
100
AcDbEntity
  8
Default
  6
Continuous
 62
     7
 48
25.4
370
    20
100
AcDbPolyline
 90
        4
 70
     1
 43
0.00025
 10
437.8309840606
 20
385.4912857788
 10
433.8161363957
 20
384.9208085803
 10
437.7989848998
 20
384.1583364173
 10
437.8309840606
 20
385.4912857788
  0
LINE
  5
3F6
330
3F0
100
AcDbEntity
  8
Default
  6
Continuous
 62
     7
 48
25.4
100
AcDbLine
 10
470.9325865022
 20
338.7098070075
 30
0.0
 11
494.1517542305
 21
361.9289747358
 31
0.0
  0
LINE
  5
3F7
330
3F0
100
AcDbEntity
  8
Default
  6
Continuous
 62
     7
 48
25.4
100
AcDbLine
 10
433.8161382168
 20
301.5933587221
 30
0.0
 11
433.8161382168
 21
386.9208051829
 31
0.0
  0
ARC
  5
3F8
330
3F0
100
AcDbEntity
  8
Default
  6
Continuous
 62
     7
 48
25.4
100
AcDbCircle
 10
433.8161382168
 20
301.5933587221
 30
0.0
 40
83.32744985818816
100
AcDbArc
 50
45.0
 51
90.0000012522
  0
TEXT
  5
3F9
330
3F0
100
AcDbEntity
  8
Default
  6
Continuous
 62
     7
 48
25.4
100
AcDbText
 10
462.1503259892
 20
381.1323278651
 30
0.0
 40
4.0
  1
45°
 50
337.5
  7
SEACAD_arial_ttf
 11
463.6810597186
 21
384.8278459951
 31
0.0
100
AcDbText
 73
     3
  0
ENDBLK
  5
3FB
330
3F0
100
AcDbEntity
  8
0
100
AcDbBlockEnd
  0
BLOCK
  5
406
330
3FC
100
AcDbEntity
  8
0
100
AcDbBlockBegin
  2
GDimGGroup27
 70
     0
 71
     0
 10
0.0
 20
0.0
 30
0.0
  3
GDimGGroup27
  1

  0
HATCH
  5
3FE
330
3FC
100
AcDbEntity
  8
Default
  6
Continuous
 62
     7
 48
25.4
100
AcDbHatch
 10
0.0
 20
0.0
 30
0.0
210
0.0
220
0.0
230
1.0
  2
SOLID
 70
     1
 71
     0
 91
        1
 92
        1
 93
        3
 72
     1
 10
503.3280820480914
 20
346.3250954988092
 11
505.9798266265993
 21
343.2570836512218
 72
     1
 10
505.9798266265993
 20
343.2570836512218
 11
504.4664504623635
 21
347.0192822892665
 72
     1
 10
504.4664504623635
 20
347.0192822892665
 11
503.3280820480914
 21
346.3250954988092
 97
        0
 75
     0
 76
     1
 98
        0
  0
LWPOLYLINE
  5
3FF
330
3FC
100
AcDbEntity
  8
Default
  6
Continuous
 62
     7
 48
25.4
370
    20
100
AcDbPolyline
 90
        4
 70
     1
 43
0.00025
 10
503.3280820481
 20
346.3250954988
 10
505.9798266266
 20
343.2570836512
 10
504.4664504624
 20
347.0192822893
 10
503.3280820481
 20
346.3250954988
  0
HATCH
  5
400
330
3FC
100
AcDbEntity
  8
Default
  6
Continuous
 62
     7
 48
25.4
100
AcDbHatch
 10
0.0
 20
0.0
 30
0.0
210
0.0
220
0.0
230
1.0
  2
SOLID
 70
     1
 71
     0
 91
        1
 92
        1
 93
        3
 72
     1
 10
495.9798569106605
 20
358.079226244105
 11
492.7375426412851
 21
360.5147640050908
 72
     1
 10
492.7375426412851
 20
360.5147640050908
 11
495.0146925411854
 21
357.1593155492258
 72
     1
 10
495.0146925411854
 20
357.1593155492258
 11
495.9798569106605
 21
358.079226244105
 97
        0
 75
     0
 76
     1
 98
        0
  0
LWPOLYLINE
  5
401
330
3FC
100
AcDbEntity
  8
Default
  6
Continuous
 62
     7
 48
25.4
370
    20
100
AcDbPolyline
 90
        4
 70
     1
 43
0.00025
 10
495.9798569107
 20
358.0792262441
 10
492.7375426413
 20
360.5147640051
 10
495.0146925412
 20
357.1593155492
 10
495.9798569107
 20
358.0792262441
  0
LINE
  5
402
330
3FC
100
AcDbEntity
  8
Default
  6
Continuous
 62
     7
 48
25.4
100
AcDbLine
 10
474.2508628979
 20
324.9383579014
 30
0.0
 11
507.7118744919
 21
344.2570819525
 31
0.0
  0
LINE
  5
403
330
3FC
100
AcDbEntity
  8
Default
  6
Continuous
 62
     7
 48
25.4
100
AcDbLine
 10
470.9325865022
 20
338.7098070075
 30
0.0
 11
494.1517542305
 21
361.9289747358
 31
0.0
  0
ARC
  5
404
330
3FC
100
AcDbEntity
  8
Default
  6
Continuous
 62
     7
 48
25.4
100
AcDbCircle
 10
433.8161382168
 20
301.5933587221
 30
0.0
 40
83.32744985818832
100
AcDbArc
 50
30.0
 51
45.0000004174
  0
TEXT
  5
405
330
3FC
100
AcDbEntity
  8
Default
  6
Continuous
 62
     7
 48
25.4
100
AcDbText
 10
498.1237491947
 20
356.3090327046
 30
0.0
 40
4.0
  1
15°
 50
307.5
  7
SEACAD_arial_ttf
 11
501.2971625559
 21
358.7440784206
 31
0.0
100
AcDbText
 73
     3
  0
ENDBLK
  5
407
330
3FC
100
AcDbEntity
  8
0
100
AcDbBlockEnd
  0
BLOCK
  5
412
330
408
100
AcDbEntity
  8
0
100
AcDbBlockBegin
  2
GDimGGroup28
 70
     0
 71
     0
 10
0.0
 20
0.0
 30
0.0
  3
GDimGGroup28
  1

  0
HATCH
  5
40A
330
408
100
AcDbEntity
  8
Default
  6
Continuous
 62
     7
 48
25.4
100
AcDbHatch
 10
0.0
 20
0.0
 30
0.0
210
0.0
220
0.0
230
1.0
  2
SOLID
 70
     1
 71
     0
 91
        1
 92
        1
 93
        3
 72
     1
 10
516.3798638310379
 20
305.6020770909688
 11
517.1435839846603
 21
301.6194677034523
 72
     1
 10
517.1435839846603
 20
301.6194677034523
 11
517.7128031001581
 21
305.6344939306562
 72
     1
 10
517.7128031001581
 20
305.6344939306562
 11
516.3798638310379
 21
305.6020770909688
 97
        0
 75
     0
 76
     1
 98
        0
  0
LWPOLYLINE
  5
40B
330
408
100
AcDbEntity
  8
Default
  6
Continuous
 62
     7
 48
25.4
370
    20
100
AcDbPolyline
 90
        4
 70
     1
 43
0.00025
 10
516.379863831
 20
305.602077091
 10
517.1435839847
 20
301.6194677035
 10
517.7128031002
 20
305.6344939307
 10
516.379863831
 20
305.602077091
  0
HATCH
  5
40C
330
408
100
AcDbEntity
  8
Default
  6
Continuous
 62
     7
 48
25.4
100
AcDbHatch
 10
0.0
 20
0.0
 30
0.0
210
0.0
220
0.0
230
1.0
  2
SOLID
 70
     1
 71
     0
 91
        1
 92
        1
 93
        3
 72
     1
 10
508.4812980256148
 20
340.0653623388461
 11
505.9798265076274
 21
343.2570838572873
 72
     1
 10
505.9798265076274
 20
343.2570838572873
 11
507.3109304240671
 21
339.4265997664416
 72
     1
 10
507.3109304240671
 20
339.4265997664416
 11
508.4812980256148
 21
340.0653623388461
 97
        0
 75
     0
 76
     1
 98
        0
  0
LWPOLYLINE
  5
40D
330
408
100
AcDbEntity
  8
Default
  6
Continuous
 62
     7
 48
25.4
370
    20
100
AcDbPolyline
 90
        4
 70
     1
 43
0.00025
 10
508.4812980256
 20
340.0653623388
 10
505.9798265076
 20
343.2570838573
 10
507.3109304241
 20
339.4265997664
 10
508.4812980256
 20
340.0653623388
  0
LINE
  5
40E
330
408
100
AcDbEntity
  8
Default
  6
Continuous
 62
     7
 48
25.4
100
AcDbLine
 10
514.9555497364
 20
301.6187821269
 30
0.0
 11
519.143580489
 21
301.6200943622
 31
0.0
  0
LINE
  5
40F
330
408
100
AcDbEntity
  8
Default
  6
Continuous
 62
     7
 48
25.4
100
AcDbLine
 10
474.2508628979
 20
324.9383579014
 30
0.0
 11
507.7118744919
 21
344.2570819525
 31
0.0
  0
ARC
  5
410
330
408
100
AcDbEntity
  8
Default
  6
Continuous
 62
     7
 48
25.4
100
AcDbCircle
 10
433.8161382168
 20
301.5933587221
 30
0.0
 40
83.32744985818641
100
AcDbArc
 50
0.017952481
 51
30.0000001636
  0
TEXT
  5
411
330
408
100
AcDbEntity
  8
Default
  6
Continuous
 62
     7
 48
25.4
100
AcDbText
 10
514.1633406396
 20
327.5471806349
 30
0.0
 40
4.0
  1
30°
 50
285.0089762405
  7
SEACAD_arial_ttf
 11
518.0268817058
 21
328.5830621094
 31
0.0
100
AcDbText
 73
     3
  0
ENDBLK
  5
413
330
408
100
AcDbEntity
  8
0
100
AcDbBlockEnd
  0
BLOCK
  5
41E
330
414
100
AcDbEntity
  8
0
100
AcDbBlockBegin
  2
GDimGGroup29
 70
     0
 71
     0
 10
0.0
 20
0.0
 30
0.0
  3
GDimGGroup29
  1

  0
HATCH
  5
416
330
414
100
AcDbEntity
  8
Default
  6
Continuous
 62
     7
 48
25.4
100
AcDbHatch
 10
0.0
 20
0.0
 30
0.0
210
0.0
220
0.0
230
1.0
  2
SOLID
 70
     1
 71
     0
 91
        1
 92
        1
 93
        3
 72
     1
 10
134.0841906370523
 20
194.2739549855434
 11
138.0841908270421
 21
194.9406216838751
 72
     1
 10
138.0841908270421
 20
194.9406216838751
 11
134.0841906370523
 21
195.6072883822067
 72
     1
 10
134.0841906370523
 20
195.6072883822067
 11
134.0841906370523
 21
194.2739549855434
 97
        0
 75
     0
 76
     1
 98
        0
  0
LWPOLYLINE
  5
417
330
414
100
AcDbEntity
  8
Default
  6
Continuous
 62
     7
 48
25.4
370
    20
100
AcDbPolyline
 90
        4
 70
     1
 43
0.00025
 10
134.0841906371
 20
194.2739549855
 10
138.084190827
 20
194.9406216839
 10
134.0841906371
 20
195.6072883822
 10
134.0841906371
 20
194.2739549855
  0
HATCH
  5
418
330
414
100
AcDbEntity
  8
Default
  6
Continuous
 62
     7
 48
25.4
100
AcDbHatch
 10
0.0
 20
0.0
 30
0.0
210
0.0
220
0.0
230
1.0
  2
SOLID
 70
     1
 71
     0
 91
        1
 92
        1
 93
        3
 72
     1
 10
128.0841905848982
 20
194.2739549855434
 11
128.0841905848982
 21
195.6072883822067
 72
     1
 10
128.0841905848982
 20
195.6072883822067
 11
124.0841903949084
 21
194.9406216838751
 72
     1
 10
124.0841903949084
 20
194.9406216838751
 11
128.0841905848982
 21
194.2739549855434
 97
        0
 75
     0
 76
     1
 98
        0
  0
LWPOLYLINE
  5
419
330
414
100
AcDbEntity
  8
Default
  6
Continuous
 62
     7
 48
25.4
370
    20
100
AcDbPolyline
 90
        4
 70
     1
 43
0.00025
 10
128.0841905849
 20
194.2739549855
 10
124.0841903949
 20
194.9406216839
 10
128.0841905849
 20
195.6072883822
 10
128.0841905849
 20
194.2739549855
  0
LINE
  5
41A
330
414
100
AcDbEntity
  8
Default
  6
Continuous
 62
     7
 48
25.4
100
AcDbLine
 10
138.084190827
 20
243.8786203959
 30
0.0
 11
138.084190827
 21
192.9406215889
 31
0.0
  0
LINE
  5
41B
330
414
100
AcDbEntity
  8
Default
  6
Continuous
 62
     7
 48
25.4
100
AcDbLine
 10
124.084190827
 20
250.4284491714
 30
0.0
 11
124.084190827
 21
192.9406215889
 31
0.0
  0
LINE
  5
41C
330
414
100
AcDbEntity
  8
Default
  6
Continuous
 62
     7
 48
25.4
100
AcDbLine
 10
138.084190827
 20
194.9406216839
 30
0.0
 11
124.0841903949
 21
194.9406216839
 31
0.0
  0
TEXT
  5
41D
330
414
100
AcDbEntity
  8
Default
  6
Continuous
 62
     7
 48
25.4
100
AcDbText
 10
127.9537558284
 20
195.9406216839
 30
0.0
 40
4.0
  1
20
  7
SEACAD_arial_ttf
 11
127.9537558284
 21
199.9406216839
 31
0.0
100
AcDbText
 73
     3
  0
ENDBLK
  5
41F
330
414
100
AcDbEntity
  8
0
100
AcDbBlockEnd
  0
ENDSEC
  0
SECTION
  2
ENTITIES
  0
INSERT
  5
2C
330
1F
100
AcDbEntity
  8
Default
100
AcDbBlockReference
  2
SEANNOT_GROUP
 10
0.0
 20
0.0
 30
0.0
  0
INSERT
  5
37
330
1F
100
AcDbEntity
  8
Default
100
AcDbBlockReference
  2
SEANNOT_GROUP1
 10
0.0
 20
0.0
 30
0.0
  0
INSERT
  5
41
330
1F
100
AcDbEntity
  8
Default
100
AcDbBlockReference
  2
SEANNOT_GROUP2
 10
0.0
 20
0.0
 30
0.0
  0
INSERT
  5
4B
330
1F
100
AcDbEntity
  8
Default
100
AcDbBlockReference
  2
SEANNOT_GROUP3
 10
0.0
 20
0.0
 30
0.0
  0
INSERT
  5
54
330
1F
100
AcDbEntity
  8
Default
100
AcDbBlockReference
  2
SEANNOT_GROUP4
 10
0.0
 20
0.0
 30
0.0
  0
INSERT
  5
5D
330
1F
100
AcDbEntity
  8
Default
100
AcDbBlockReference
  2
SEANNOT_GROUP5
 10
0.0
 20
0.0
 30
0.0
  0
INSERT
  5
66
330
1F
100
AcDbEntity
  8
Default
100
AcDbBlockReference
  2
SE
 10
0.0
 20
0.0
 30
0.0
  0
INSERT
  5
146
330
1F
100
AcDbEntity
  8
Default
100
AcDbBlockReference
  2
SE1
 10
0.0
 20
0.0
 30
0.0
  0
INSERT
  5
218
330
1F
100
AcDbEntity
  8
Default
100
AcDbBlockReference
  2
GDimGGroup
 10
0.0
 20
0.0
 30
0.0
  0
INSERT
  5
224
330
1F
100
AcDbEntity
  8
Default
100
AcDbBlockReference
  2
GDimGGroup1
 10
0.0
 20
0.0
 30
0.0
  0
INSERT
  5
22F
330
1F
100
AcDbEntity
  8
Default
100
AcDbBlockReference
  2
GDimGGroup2
 10
0.0
 20
0.0
 30
0.0
  0
INSERT
  5
23C
330
1F
100
AcDbEntity
  8
Default
100
AcDbBlockReference
  2
GDimGGroup3
 10
0.0
 20
0.0
 30
0.0
  0
INSERT
  5
248
330
1F
100
AcDbEntity
  8
Default
100
AcDbBlockReference
  2
GDimGGroup4
 10
0.0
 20
0.0
 30
0.0
  0
INSERT
  5
255
330
1F
100
AcDbEntity
  8
Default
100
AcDbBlockReference
  2
GDimGGroup5
 10
0.0
 20
0.0
 30
0.0
  0
INSERT
  5
261
330
1F
100
AcDbEntity
  8
Default
100
AcDbBlockReference
  2
GDimGGroup6
 10
0.0
 20
0.0
 30
0.0
  0
INSERT
  5
26D
330
1F
100
AcDbEntity
  8
Default
100
AcDbBlockReference
  2
GDimGGroup7
 10
0.0
 20
0.0
 30
0.0
  0
INSERT
  5
279
330
1F
100
AcDbEntity
  8
Default
100
AcDbBlockReference
  2
GDimGGroup8
 10
0.0
 20
0.0
 30
0.0
  0
INSERT
  5
286
330
1F
100
AcDbEntity
  8
Default
100
AcDbBlockReference
  2
GDimGGroup9
 10
0.0
 20
0.0
 30
0.0
  0
INSERT
  5
294
330
1F
100
AcDbEntity
  8
Default
100
AcDbBlockReference
  2
GDimGGroup10
 10
0.0
 20
0.0
 30
0.0
  0
INSERT
  5
2A0
330
1F
100
AcDbEntity
  8
Default
100
AcDbBlockReference
  2
GDimGGroup11
 10
0.0
 20
0.0
 30
0.0
  0
INSERT
  5
2AC
330
1F
100
AcDbEntity
  8
Default
100
AcDbBlockReference
  2
GDimGGroup12
 10
0.0
 20
0.0
 30
0.0
  0
INSERT
  5
2B8
330
1F
100
AcDbEntity
  8
Default
100
AcDbBlockReference
  2
GDimGGroup13
 10
0.0
 20
0.0
 30
0.0
  0
INSERT
  5
2C6
330
1F
100
AcDbEntity
  8
Default
100
AcDbBlockReference
  2
GDimGGroup14
 10
0.0
 20
0.0
 30
0.0
  0
INSERT
  5
2D2
330
1F
100
AcDbEntity
  8
Default
100
AcDbBlockReference
  2
SE2
 10
0.0
 20
0.0
 30
0.0
  0
INSERT
  5
36B
330
1F
100
AcDbEntity
  8
Default
100
AcDbBlockReference
  2
GDimGGroup15
 10
0.0
 20
0.0
 30
0.0
  0
INSERT
  5
378
330
1F
100
AcDbEntity
  8
Default
100
AcDbBlockReference
  2
GDimGGroup16
 10
0.0
 20
0.0
 30
0.0
  0
INSERT
  5
384
330
1F
100
AcDbEntity
  8
Default
100
AcDbBlockReference
  2
GDimGGroup17
 10
0.0
 20
0.0
 30
0.0
  0
INSERT
  5
390
330
1F
100
AcDbEntity
  8
Default
100
AcDbBlockReference
  2
GDimGGroup18
 10
0.0
 20
0.0
 30
0.0
  0
INSERT
  5
39C
330
1F
100
AcDbEntity
  8
Default
100
AcDbBlockReference
  2
GDimGGroup19
 10
0.0
 20
0.0
 30
0.0
  0
INSERT
  5
3A9
330
1F
100
AcDbEntity
  8
Default
100
AcDbBlockReference
  2
GDimGGroup20
 10
0.0
 20
0.0
 30
0.0
  0
INSERT
  5
3B4
330
1F
100
AcDbEntity
  8
Default
100
AcDbBlockReference
  2
GDimGGroup21
 10
0.0
 20
0.0
 30
0.0
  0
INSERT
  5
3C2
330
1F
100
AcDbEntity
  8
Default
100
AcDbBlockReference
  2
GDimGGroup22
 10
0.0
 20
0.0
 30
0.0
  0
INSERT
  5
3D0
330
1F
100
AcDbEntity
  8
Default
100
AcDbBlockReference
  2
GDimGGroup23
 10
0.0
 20
0.0
 30
0.0
  0
INSERT
  5
3DC
330
1F
100
AcDbEntity
  8
Default
100
AcDbBlockReference
  2
GDimGGroup24
 10
0.0
 20
0.0
 30
0.0
  0
INSERT
  5
3E6
330
1F
100
AcDbEntity
  8
Default
100
AcDbBlockReference
  2
GDimGGroup25
 10
0.0
 20
0.0
 30
0.0
  0
INSERT
  5
3F1
330
1F
100
AcDbEntity
  8
Default
100
AcDbBlockReference
  2
GDimGGroup26
 10
0.0
 20
0.0
 30
0.0
  0
INSERT
  5
3FD
330
1F
100
AcDbEntity
  8
Default
100
AcDbBlockReference
  2
GDimGGroup27
 10
0.0
 20
0.0
 30
0.0
  0
INSERT
  5
409
330
1F
100
AcDbEntity
  8
Default
100
AcDbBlockReference
  2
GDimGGroup28
 10
0.0
 20
0.0
 30
0.0
  0
INSERT
  5
415
330
1F
100
AcDbEntity
  8
Default
100
AcDbBlockReference
  2
GDimGGroup29
 10
0.0
 20
0.0
 30
0.0
  0
LINE
  5
421
330
1F
100
AcDbEntity
  8
BORDER
  6
Continuous
 62
     7
 48
25.4
100
AcDbLine
 10
6.2292620399
 20
408.4651325162
 30
0.0
 11
586.2292620399
 21
408.4651325162
 31
0.0
  0
LINE
  5
422
330
1F
100
AcDbEntity
  8
BORDER
  6
Continuous
 62
     7
 48
25.4
100
AcDbLine
 10
6.2292620399
 20
408.4651325162
 30
0.0
 11
6.2292620399
 21
8.4651325162
 31
0.0
  0
LINE
  5
423
330
1F
100
AcDbEntity
  8
BORDER
  6
Continuous
 62
     7
 48
25.4
100
AcDbLine
 10
6.2292620399
 20
8.4651325162
 30
0.0
 11
586.2292620399
 21
8.4651325162
 31
0.0
  0
LINE
  5
424
330
1F
100
AcDbEntity
  8
BORDER
  6
Continuous
 62
     7
 48
25.4
100
AcDbLine
 10
586.2292620399
 20
8.4651325162
 30
0.0
 11
586.2292620399
 21
408.4651325162
 31
0.0
  0
LINE
  5
425
330
1F
100
AcDbEntity
  8
Default
  6
Continuous
 62
     7
 48
25.4
100
AcDbLine
 10
3.7292620399
 20
410.9651325162
 30
0.0
 11
588.7292620399
 21
410.9651325162
 31
0.0
  0
LINE
  5
426
330
1F
100
AcDbEntity
  8
Default
  6
Continuous
 62
     7
 48
25.4
100
AcDbLine
 10
588.7292620399
 20
410.9651325162
 30
0.0
 11
588.7292620399
 21
5.9651325162
 31
0.0
  0
LINE
  5
427
330
1F
100
AcDbEntity
  8
Default
  6
Continuous
 62
     7
 48
25.4
100
AcDbLine
 10
588.7292620399
 20
5.9651325162
 30
0.0
 11
3.7292620399
 21
5.9651325162
 31
0.0
  0
LINE
  5
428
330
1F
100
AcDbEntity
  8
Default
  6
Continuous
 62
     7
 48
25.4
100
AcDbLine
 10
3.7292620399
 20
5.9651325162
 30
0.0
 11
3.7292620399
 21
410.9651325162
 31
0.0
  0
TEXT
  5
429
330
1F
100
AcDbEntity
  8
Default
  6
Continuous
 62
     7
 48
25.4
100
AcDbText
 10
473.5242219525
 20
26.6212936876
 30
0.0
 40
5.0
  1
TITLE :
  7
SEACAD_arial_ttf
 11
473.5242219525
 21
31.6212936876
 31
0.0
100
AcDbText
 73
     3
  0
TEXT
  5
42A
330
1F
100
AcDbEntity
  8
Default
  6
Continuous
 62
     7
 48
25.4
100
AcDbText
 10
473.4498030642
 20
38.7361567855
 30
0.0
 40
5.0
  1
KITAGAWA EUROPE LIMITED
  7
SEACAD_arial_ttf
 11
473.4498030642
 21
43.7361567855
 31
0.0
100
AcDbText
 73
     3
  0
TEXT
  5
42B
330
1F
100
AcDbEntity
  8
Default
  6
Continuous
 62
     7
 48
25.4
100
AcDbText
 10
474.4044215056
 20
14.2263277309
 30
0.0
 40
5.0
  1
www.kitagawaeurope.com
  7
SEACAD_arial_ttf
 11
474.4044215056
 21
19.2263277309
 31
0.0
100
AcDbText
 73
     3
  0
TEXT
  5
42C
330
1F
100
AcDbEntity
  8
Default
  6
Continuous
 62
     7
 48
25.4
100
AcDbText
 10
497.8463064412
 20
26.3210535629
 30
0.0
 40
5.0
  1
BB208A6 POWER CHUCK
  7
SEACAD_arial_ttf
 11
497.8463064412
 21
31.3210535629
 31
0.0
100
AcDbText
 73
     3
  0
LINE
  5
42D
330
1F
100
AcDbEntity
  8
Default
  6
Continuous
 62
     7
 48
25.4
100
AcDbLine
 10
471.5030858285
 20
48.4651325162
 30
0.0
 11
586.2292620399
 21
48.4651325162
 31
0.0
  0
LINE
  5
42E
330
1F
100
AcDbEntity
  8
Default
  6
Continuous
 62
     7
 48
25.4
100
AcDbLine
 10
471.5030858285
 20
35.1651325162
 30
0.0
 11
586.2292620399
 21
35.1651325162
 31
0.0
  0
LINE
  5
42F
330
1F
100
AcDbEntity
  8
Default
  6
Continuous
 62
     7
 48
25.4
100
AcDbLine
 10
586.2292620399
 20
21.8651325162
 30
0.0
 11
471.5030858285
 21
21.8651325162
 31
0.0
  0
LINE
  5
430
330
1F
100
AcDbEntity
  8
Default
  6
Continuous
 62
     7
 48
25.4
100
AcDbLine
 10
471.5030858285
 20
48.4651325162
 30
0.0
 11
471.5030858285
 21
8.4651325162
 31
0.0
  0
ENDSEC
  0
SECTION
  2
OBJECTS
  0
DICTIONARY
  5
C
330
0
100
AcDbDictionary
281
     1
  3
ACAD_GROUP
350
D
  3
ACAD_LAYOUT
350
1A
  3
ACAD_MLINESTYLE
350
17
  3
ACAD_PLOTSETTINGS
350
19
  3
ACAD_PLOTSTYLENAME
350
E
  0
DICTIONARY
  5
D
102
{ACAD_REACTORS
330
C
102
}
330
C
100
AcDbDictionary
281
     1
  0
DICTIONARY
  5
1A
102
{ACAD_REACTORS
330
C
102
}
330
C
100
AcDbDictionary
281
     1
  3
Layout1
350
1E
  3
Model
350
22
  0
DICTIONARY
  5
17
102
{ACAD_REACTORS
330
C
102
}
330
C
100
AcDbDictionary
281
     1
  3
Standard
350
18
  0
DICTIONARY
  5
19
102
{ACAD_REACTORS
330
C
102
}
330
C
100
AcDbDictionary
281
     1
  0
ACDBDICTIONARYWDFLT
  5
E
102
{ACAD_REACTORS
330
C
102
}
330
C
100
AcDbDictionary
281
     1
  3
Normal
350
F
100
AcDbDictionaryWithDefault
340
F
  0
LAYOUT
  5
1E
102
{ACAD_REACTORS
330
1A
102
}
330
1A
100
AcDbPlotSettings
  1

  2

  4

  6

 40
0.0
 41
0.0
 42
0.0
 43
0.0
 44
0.0
 45
0.0
 46
0.0
 47
0.0
 48
0.0
 49
0.0
140
0.0
141
0.0
142
1.0
143
1.0
 70
   688
 72
     0
 73
     0
 74
     5
  7

 75
    16
147
1.0
148
0.0
149
0.0
100
AcDbLayout
  1
Layout1
 70
     1
 71
     1
 10
0.0
 20
0.0
 11
594.0
 21
420.0
 12
0.0
 22
0.0
 32
0.0
 14
0.0
 24
0.0
 34
0.0
 15
594.0
 25
420.0
 35
0.0
146
0.0
 13
0.0
 23
0.0
 33
0.0
 16
1.0
 26
0.0
 36
0.0
 17
0.0
 27
1.0
 37
0.0
 76
     0
330
1B
  0
LAYOUT
  5
22
102
{ACAD_REACTORS
330
1A
102
}
330
1A
100
AcDbPlotSettings
  1

  2

  4

  6

 40
0.0
 41
0.0
 42
0.0
 43
0.0
 44
0.0
 45
0.0
 46
0.0
 47
0.0
 48
0.0
 49
0.0
140
0.0
141
0.0
142
1.0
143
1.0
 70
  1712
 72
     0
 73
     0
 74
     0
  7

 75
     0
147
1.0
148
0.0
149
0.0
100
AcDbLayout
  1
Model
 70
     1
 71
     0
 10
0.0
 20
0.0
 11
594.0
 21
420.0
 12
0.0
 22
0.0
 32
0.0
 14
0.0
 24
0.0
 34
0.0
 15
594.0
 25
420.0
 35
0.0
146
0.0
 13
0.0
 23
0.0
 33
0.0
 16
1.0
 26
0.0
 36
0.0
 17
0.0
 27
1.0
 37
0.0
 76
     0
330
1F
  0
MLINESTYLE
  5
18
102
{ACAD_REACTORS
330
17
102
}
330
17
100
AcDbMlineStyle
  2
Standard
 70
     0
  3

 62
   256
 51
90.0
 52
90.0
 71
     2
 49
0.5
 62
   256
  6
BYLAYER
 49
-0.5
 62
   256
  6
BYLAYER
  0
ACDBPLACEHOLDER
  5
F
102
{ACAD_REACTORS
330
E
102
}
330
E
  0
ENDSEC
  0
EOF
