  0
SECTION
  2
HEADER
  9
$ACADVER
  1
AC1015
  9
$ACADMAINTVER
 70
     6
  9
$DWGCODEPAGE
  3
ANSI_1252
  9
$INSBASE
 10
0.0
 20
0.0
 30
0.0
  9
$EXTMIN
 10
0.0
 20
0.0
 30
0.0
  9
$EXTMAX
 10
594.0
 20
420.0
 30
0.0
  9
$LIMMIN
 10
0.0
 20
0.0
  9
$LIMMAX
 10
594.0
 20
420.0
  9
$ORTHOMODE
 70
     0
  9
$REGENMODE
 70
     1
  9
$FILLMODE
 70
     1
  9
$QTEXTMODE
 70
     0
  9
$MIRRTEXT
 70
     1
  9
$LTSCALE
 40
1.0
  9
$ATTMODE
 70
     1
  9
$TEXTSIZE
 40
0.2
  9
$TRACEWID
 40
0.05
  9
$TEXTSTYLE
  7
Standard
  9
$CLAYER
  8
0
  9
$CELTYPE
  6
ByLayer
  9
$CECOLOR
 62
   256
  9
$CELTSCALE
 40
25.4
  9
$DISPSILH
 70
     0
  9
$DIMSCALE
 40
1.0
  9
$DIMASZ
 40
0.18
  9
$DIMEXO
 40
0.0625
  9
$DIMDLI
 40
0.38
  9
$DIMRND
 40
0.0
  9
$DIMDLE
 40
0.0
  9
$DIMEXE
 40
0.18
  9
$DIMTP
 40
0.0
  9
$DIMTM
 40
0.0
  9
$DIMTXT
 40
0.18
  9
$DIMCEN
 40
0.09
  9
$DIMTSZ
 40
0.0
  9
$DIMTOL
 70
     0
  9
$DIMLIM
 70
     0
  9
$DIMTIH
 70
     1
  9
$DIMTOH
 70
     1
  9
$DIMSE1
 70
     0
  9
$DIMSE2
 70
     0
  9
$DIMTAD
 70
     0
  9
$DIMZIN
 70
     0
  9
$DIMBLK
  1

  9
$DIMASO
 70
     1
  9
$DIMSHO
 70
     1
  9
$DIMPOST
  1

  9
$DIMAPOST
  1

  9
$DIMALT
 70
     0
  9
$DIMALTD
 70
     2
  9
$DIMALTF
 40
25.4
  9
$DIMLFAC
 40
1.0
  9
$DIMTOFL
 70
     0
  9
$DIMTVP
 40
0.0
  9
$DIMTIX
 70
     0
  9
$DIMSOXD
 70
     0
  9
$DIMSAH
 70
     0
  9
$DIMBLK1
  1

  9
$DIMBLK2
  1

  9
$DIMSTYLE
  2
Standard
  9
$DIMCLRD
 70
     0
  9
$DIMCLRE
 70
     0
  9
$DIMCLRT
 70
     0
  9
$DIMTFAC
 40
1.0
  9
$DIMGAP
 40
0.09
  9
$DIMJUST
 70
     0
  9
$DIMSD1
 70
     0
  9
$DIMSD2
 70
     0
  9
$DIMTOLJ
 70
     1
  9
$DIMTZIN
 70
     0
  9
$DIMALTZ
 70
     0
  9
$DIMALTTZ
 70
     0
  9
$DIMUPT
 70
     0
  9
$DIMDEC
 70
     4
  9
$DIMTDEC
 70
     4
  9
$DIMALTU
 70
     2
  9
$DIMALTTD
 70
     2
  9
$DIMTXSTY
  7
Standard
  9
$DIMAUNIT
 70
     0
  9
$DIMADEC
 70
     0
  9
$DIMALTRND
 40
0.0
  9
$DIMAZIN
 70
     0
  9
$DIMDSEP
 70
    46
  9
$DIMATFIT
 70
     3
  9
$DIMFRAC
 70
     0
  9
$DIMLDRBLK
  1

  9
$DIMLUNIT
 70
     2
  9
$DIMLWD
 70
    -2
  9
$DIMLWE
 70
    -2
  9
$DIMTMOVE
 70
     0
  9
$LUNITS
 70
     2
  9
$LUPREC
 70
     4
  9
$SKETCHINC
 40
0.1
  9
$FILLETRAD
 40
0.5
  9
$AUNITS
 70
     0
  9
$AUPREC
 70
     0
  9
$MENU
  1
.
  9
$ELEVATION
 40
0.0
  9
$PELEVATION
 40
0.0
  9
$THICKNESS
 40
0.0
  9
$LIMCHECK
 70
     0
  9
$CHAMFERA
 40
0.5
  9
$CHAMFERB
 40
0.5
  9
$CHAMFERC
 40
1.0
  9
$CHAMFERD
 40
0.0
  9
$SKPOLY
 70
     0
  9
$TDCREATE
 40
2454910.375453055
  9
$TDUCREATE
 40
2454910.375453055
  9
$TDUPDATE
 40
2454910.375453067
  9
$TDUUPDATE
 40
2454910.375453067
  9
$TDINDWG
 40
0.0000000116
  9
$TDUSRTIMER
 40
0.0000000116
  9
$USRTIMER
 70
     1
  9
$ANGBASE
 50
0.0
  9
$ANGDIR
 70
     0
  9
$PDMODE
 70
     0
  9
$PDSIZE
 40
0.0
  9
$PLINEWID
 40
0.0
  9
$SPLFRAME
 70
     0
  9
$SPLINETYPE
 70
     6
  9
$SPLINESEGS
 70
     8
  9
$HANDSEED
  5
41F
  9
$SURFTAB1
 70
     6
  9
$SURFTAB2
 70
     6
  9
$SURFTYPE
 70
     6
  9
$SURFU
 70
     6
  9
$SURFV
 70
     6
  9
$UCSBASE
  2

  9
$UCSNAME
  2

  9
$UCSORG
 10
0.0
 20
0.0
 30
0.0
  9
$UCSXDIR
 10
1.0
 20
0.0
 30
0.0
  9
$UCSYDIR
 10
0.0
 20
1.0
 30
0.0
  9
$UCSORTHOREF
  2

  9
$UCSORTHOVIEW
 70
     0
  9
$UCSORGTOP
 10
0.0
 20
0.0
 30
0.0
  9
$UCSORGBOTTOM
 10
0.0
 20
0.0
 30
0.0
  9
$UCSORGLEFT
 10
0.0
 20
0.0
 30
0.0
  9
$UCSORGRIGHT
 10
0.0
 20
0.0
 30
0.0
  9
$UCSORGFRONT
 10
0.0
 20
0.0
 30
0.0
  9
$UCSORGBACK
 10
0.0
 20
0.0
 30
0.0
  9
$PUCSBASE
  2

  9
$PUCSNAME
  2

  9
$PUCSORG
 10
0.0
 20
0.0
 30
0.0
  9
$PUCSXDIR
 10
1.0
 20
0.0
 30
0.0
  9
$PUCSYDIR
 10
0.0
 20
1.0
 30
0.0
  9
$PUCSORTHOREF
  2

  9
$PUCSORTHOVIEW
 70
     0
  9
$PUCSORGTOP
 10
0.0
 20
0.0
 30
0.0
  9
$PUCSORGBOTTOM
 10
0.0
 20
0.0
 30
0.0
  9
$PUCSORGLEFT
 10
0.0
 20
0.0
 30
0.0
  9
$PUCSORGRIGHT
 10
0.0
 20
0.0
 30
0.0
  9
$PUCSORGFRONT
 10
0.0
 20
0.0
 30
0.0
  9
$PUCSORGBACK
 10
0.0
 20
0.0
 30
0.0
  9
$USERI1
 70
     0
  9
$USERI2
 70
     0
  9
$USERI3
 70
     0
  9
$USERI4
 70
     0
  9
$USERI5
 70
     0
  9
$USERR1
 40
0.0
  9
$USERR2
 40
0.0
  9
$USERR3
 40
0.0
  9
$USERR4
 40
0.0
  9
$USERR5
 40
0.0
  9
$WORLDVIEW
 70
     1
  9
$SHADEDGE
 70
     3
  9
$SHADEDIF
 70
    70
  9
$TILEMODE
 70
     1
  9
$MAXACTVP
 70
    64
  9
$PINSBASE
 10
0.0
 20
0.0
 30
0.0
  9
$PLIMCHECK
 70
     0
  9
$PEXTMIN
 10
0.0
 20
0.0
 30
0.0
  9
$PEXTMAX
 10
594.0
 20
420.0
 30
0.0
  9
$PLIMMIN
 10
0.0
 20
0.0
  9
$PLIMMAX
 10
594.0
 20
420.0
  9
$UNITMODE
 70
     0
  9
$VISRETAIN
 70
     1
  9
$PLINEGEN
 70
     0
  9
$PSLTSCALE
 70
     1
  9
$TREEDEPTH
 70
  3020
  9
$CMLSTYLE
  2
Standard
  9
$CMLJUST
 70
     0
  9
$CMLSCALE
 40
1.0
  9
$PROXYGRAPHICS
 70
     1
  9
$MEASUREMENT
 70
     1
  9
$CELWEIGHT
370
    -1
  9
$ENDCAPS
280
     0
  9
$JOINSTYLE
280
     0
  9
$LWDISPLAY
290
     0
  9
$INSUNITS
 70
     1
  9
$HYPERLINKBASE
  1

  9
$STYLESHEET
  1

  9
$XEDIT
290
     1
  9
$CEPSNTYPE
380
     0
  9
$PSTYLEMODE
290
     1
  9
$FINGERPRINTGUID
  2
{5F48AA0F-5BD1-4FC7-8D73-A38E9B3A9954}
  9
$VERSIONGUID
  2
{FAEB1C32-E019-11D5-929B-00C0DF256EC4}
  9
$EXTNAMES
290
     1
  9
$PSVPSCALE
 40
0.0
  9
$OLESTARTUP
290
     0
  0
ENDSEC
  0
SECTION
  2
CLASSES
  0
CLASS
  1
ACDBDICTIONARYWDFLT
  2
AcDbDictionaryWithDefault
  3
ObjectDBX Classes
 90
        0
280
     0
281
     0
  0
CLASS
  1
ACDBPLACEHOLDER
  2
AcDbPlaceHolder
  3
ObjectDBX Classes
 90
        0
280
     0
281
     0
  0
CLASS
  1
LAYOUT
  2
AcDbLayout
  3
ObjectDBX Classes
 90
        0
280
     0
281
     0
  0
ENDSEC
  0
SECTION
  2
TABLES
  0
TABLE
  2
VPORT
  5
8
330
0
100
AcDbSymbolTable
 70
     1
  0
VPORT
  5
29
330
8
100
AcDbSymbolTableRecord
100
AcDbViewportTableRecord
  2
*Active
 70
     0
 10
0.0
 20
0.0
 11
1.0
 21
1.0
 12
10.4299065421
 22
4.5
 13
0.0
 23
0.0
 14
0.5
 24
0.5
 15
0.5
 25
0.5
 16
0.0
 26
0.0
 36
1.0
 17
0.0
 27
0.0
 37
0.0
 40
9.0
 41
1.9729729729
 42
50.0
 43
0.0
 44
0.0
 50
0.0
 51
0.0
 71
     0
 72
   100
 73
     1
 74
     3
 75
     0
 76
     0
 77
     0
 78
     0
281
     0
 65
     1
110
0.0
120
0.0
130
0.0
111
1.0
121
0.0
131
0.0
112
0.0
122
1.0
132
0.0
 79
     0
146
0.0
  0
ENDTAB
  0
TABLE
  2
LTYPE
  5
5
330
0
100
AcDbSymbolTable
 70
     3
  0
LTYPE
  5
14
330
5
100
AcDbSymbolTableRecord
100
AcDbLinetypeTableRecord
  2
ByBlock
 70
     0
  3

 72
    65
 73
     0
 40
0.0
  0
LTYPE
  5
15
330
5
100
AcDbSymbolTableRecord
100
AcDbLinetypeTableRecord
  2
ByLayer
 70
     0
  3

 72
    65
 73
     0
 40
0.0
  0
LTYPE
  5
16
330
5
100
AcDbSymbolTableRecord
100
AcDbLinetypeTableRecord
  2
Continuous
 70
     0
  3
Solid line
 72
    65
 73
     0
 40
0.0
  0
LTYPE
  5
5F
330
5
100
AcDbSymbolTableRecord
100
AcDbLinetypeTableRecord
  2
CENTER2
 70
     0
  3
___ _ ___ _ ___ _ ___ _ ___ _ ___ _ ___ _ ___ _
 72
    65
 73
     4
 40
1.125
 49
0.75
 74
     4
 75
     0
340
0
 46
0.0
 50
0.0
 44
0.0
 45
0.0
 49
-0.125
 74
     4
 75
     0
340
0
 46
0.0
 50
0.0
 44
0.0
 45
0.0
 49
0.125
 74
     4
 75
     0
340
0
 46
0.0
 50
0.0
 44
0.0
 45
0.0
 49
-0.125
 74
     4
 75
     0
340
0
 46
0.0
 50
0.0
 44
0.0
 45
0.0
  0
LTYPE
  5
D1
330
5
100
AcDbSymbolTableRecord
100
AcDbLinetypeTableRecord
  2
HIDDEN2
 70
     0
  3
_ _ _ _ _ _ _ _ _ _ _ _ _ _ _ _ _ _ _ _ _ _ _ _
 72
    65
 73
     2
 40
0.1875
 49
0.125
 74
     4
 75
     0
340
0
 46
0.0
 50
0.0
 44
0.0
 45
0.0
 49
-0.0625
 74
     4
 75
     0
340
0
 46
0.0
 50
0.0
 44
0.0
 45
0.0
  0
ENDTAB
  0
TABLE
  2
LAYER
  5
2
330
0
100
AcDbSymbolTable
 70
     6
  0
LAYER
  5
10
330
2
100
AcDbSymbolTableRecord
100
AcDbLayerTableRecord
  2
0
 70
     0
 62
     7
  6
Continuous
370
    -3
390
F
  0
LAYER
  5
2A
330
2
100
AcDbSymbolTableRecord
100
AcDbLayerTableRecord
  2
Default
 70
     0
 62
     7
  6
Continuous
370
    -3
390
F
  0
LAYER
  5
5E
330
2
100
AcDbSymbolTableRecord
100
AcDbLayerTableRecord
  2
DV1_Default
 70
     0
 62
     7
  6
Continuous
370
    -3
390
F
  0
LAYER
  5
14F
330
2
100
AcDbSymbolTableRecord
100
AcDbLayerTableRecord
  2
DV2_Default
 70
     0
 62
     7
  6
Continuous
370
    -3
390
F
  0
LAYER
  5
20F
330
2
100
AcDbSymbolTableRecord
100
AcDbLayerTableRecord
  2
DV3_Default
 70
     0
 62
     7
  6
Continuous
370
    -3
390
F
  0
LAYER
  5
40E
330
2
100
AcDbSymbolTableRecord
100
AcDbLayerTableRecord
  2
BORDER
 70
     0
 62
     7
  6
Continuous
370
    -3
390
F
  0
ENDTAB
  0
TABLE
  2
STYLE
  5
3
330
0
100
AcDbSymbolTable
 70
     3
  0
STYLE
  5
11
330
3
100
AcDbSymbolTableRecord
100
AcDbTextStyleTableRecord
  2
Standard
 70
     0
 40
0.0
 41
1.0
 50
0.0
 71
     0
 42
0.2
  3
txt
  4

  0
STYLE
  5
31
330
3
100
AcDbSymbolTableRecord
100
AcDbTextStyleTableRecord
  2
SEACAD_arial_ttf
 70
     0
 40
0.2
 41
1.0
 50
0.0
 71
     0
 42
0.2
  3
arial.ttf
  4

  0
STYLE
  5
57
330
3
100
AcDbSymbolTableRecord
100
AcDbTextStyleTableRecord
  2
SEACAD_semeca1_ttf
 70
     0
 40
0.2
 41
1.0
 50
0.0
 71
     0
 42
0.2
  3
semeca1.ttf
  4

  0
ENDTAB
  0
TABLE
  2
VIEW
  5
6
330
0
100
AcDbSymbolTable
 70
     0
  0
ENDTAB
  0
TABLE
  2
UCS
  5
7
330
0
100
AcDbSymbolTable
 70
     0
  0
ENDTAB
  0
TABLE
  2
APPID
  5
9
330
0
100
AcDbSymbolTable
 70
     1
  0
APPID
  5
12
330
9
100
AcDbSymbolTableRecord
100
AcDbRegAppTableRecord
  2
ACAD
 70
     0
  0
ENDTAB
  0
TABLE
  2
DIMSTYLE
  5
A
330
0
100
AcDbSymbolTable
 70
     1
100
AcDbDimStyleTable
  0
DIMSTYLE
105
27
330
A
100
AcDbSymbolTableRecord
100
AcDbDimStyleTableRecord
  2
Standard
 70
     0
340
11
  0
ENDTAB
  0
TABLE
  2
BLOCK_RECORD
  5
1
330
0
100
AcDbSymbolTable
 70
    36
  0
BLOCK_RECORD
  5
1F
330
1
100
AcDbSymbolTableRecord
100
AcDbBlockTableRecord
  2
*Model_Space
340
22
  0
BLOCK_RECORD
  5
1B
330
1
100
AcDbSymbolTableRecord
100
AcDbBlockTableRecord
  2
*Paper_Space
340
1E
  0
BLOCK_RECORD
  5
2B
330
1
100
AcDbSymbolTableRecord
100
AcDbBlockTableRecord
  2
SEANNOT_GROUP
340
0
102
{BLKREFS
331
2C
102
}
  0
BLOCK_RECORD
  5
35
330
1
100
AcDbSymbolTableRecord
100
AcDbBlockTableRecord
  2
SEANNOT_GROUP1
340
0
102
{BLKREFS
331
36
102
}
  0
BLOCK_RECORD
  5
3F
330
1
100
AcDbSymbolTableRecord
100
AcDbBlockTableRecord
  2
SEANNOT_GROUP2
340
0
102
{BLKREFS
331
40
102
}
  0
BLOCK_RECORD
  5
48
330
1
100
AcDbSymbolTableRecord
100
AcDbBlockTableRecord
  2
SEANNOT_GROUP3
340
0
102
{BLKREFS
331
49
102
}
  0
BLOCK_RECORD
  5
51
330
1
100
AcDbSymbolTableRecord
100
AcDbBlockTableRecord
  2
SEANNOT_GROUP4
340
0
102
{BLKREFS
331
52
102
}
  0
BLOCK_RECORD
  5
5C
330
1
100
AcDbSymbolTableRecord
100
AcDbBlockTableRecord
  2
SE
340
0
102
{BLKREFS
331
5D
102
}
  0
BLOCK_RECORD
  5
14D
330
1
100
AcDbSymbolTableRecord
100
AcDbBlockTableRecord
  2
SE1
340
0
102
{BLKREFS
331
14E
102
}
  0
BLOCK_RECORD
  5
20D
330
1
100
AcDbSymbolTableRecord
100
AcDbBlockTableRecord
  2
SE2
340
0
102
{BLKREFS
331
20E
102
}
  0
BLOCK_RECORD
  5
2BF
330
1
100
AcDbSymbolTableRecord
100
AcDbBlockTableRecord
  2
GDimGGroup
340
0
102
{BLKREFS
331
2C0
102
}
  0
BLOCK_RECORD
  5
2CB
330
1
100
AcDbSymbolTableRecord
100
AcDbBlockTableRecord
  2
GDimGGroup1
340
0
102
{BLKREFS
331
2CC
102
}
  0
BLOCK_RECORD
  5
2D8
330
1
100
AcDbSymbolTableRecord
100
AcDbBlockTableRecord
  2
GDimGGroup2
340
0
102
{BLKREFS
331
2D9
102
}
  0
BLOCK_RECORD
  5
2E4
330
1
100
AcDbSymbolTableRecord
100
AcDbBlockTableRecord
  2
GDimGGroup3
340
0
102
{BLKREFS
331
2E5
102
}
  0
BLOCK_RECORD
  5
2F0
330
1
100
AcDbSymbolTableRecord
100
AcDbBlockTableRecord
  2
GDimGGroup4
340
0
102
{BLKREFS
331
2F1
102
}
  0
BLOCK_RECORD
  5
2FC
330
1
100
AcDbSymbolTableRecord
100
AcDbBlockTableRecord
  2
GDimGGroup5
340
0
102
{BLKREFS
331
2FD
102
}
  0
BLOCK_RECORD
  5
309
330
1
100
AcDbSymbolTableRecord
100
AcDbBlockTableRecord
  2
GDimGGroup6
340
0
102
{BLKREFS
331
30A
102
}
  0
BLOCK_RECORD
  5
317
330
1
100
AcDbSymbolTableRecord
100
AcDbBlockTableRecord
  2
GDimGGroup7
340
0
102
{BLKREFS
331
318
102
}
  0
BLOCK_RECORD
  5
322
330
1
100
AcDbSymbolTableRecord
100
AcDbBlockTableRecord
  2
GDimGGroup8
340
0
102
{BLKREFS
331
323
102
}
  0
BLOCK_RECORD
  5
32E
330
1
100
AcDbSymbolTableRecord
100
AcDbBlockTableRecord
  2
GDimGGroup9
340
0
102
{BLKREFS
331
32F
102
}
  0
BLOCK_RECORD
  5
33A
330
1
100
AcDbSymbolTableRecord
100
AcDbBlockTableRecord
  2
GDimGGroup10
340
0
102
{BLKREFS
331
33B
102
}
  0
BLOCK_RECORD
  5
346
330
1
100
AcDbSymbolTableRecord
100
AcDbBlockTableRecord
  2
GDimGGroup11
340
0
102
{BLKREFS
331
347
102
}
  0
BLOCK_RECORD
  5
352
330
1
100
AcDbSymbolTableRecord
100
AcDbBlockTableRecord
  2
GDimGGroup12
340
0
102
{BLKREFS
331
353
102
}
  0
BLOCK_RECORD
  5
360
330
1
100
AcDbSymbolTableRecord
100
AcDbBlockTableRecord
  2
GDimGGroup13
340
0
102
{BLKREFS
331
361
102
}
  0
BLOCK_RECORD
  5
36E
330
1
100
AcDbSymbolTableRecord
100
AcDbBlockTableRecord
  2
GDimGGroup14
340
0
102
{BLKREFS
331
36F
102
}
  0
BLOCK_RECORD
  5
37A
330
1
100
AcDbSymbolTableRecord
100
AcDbBlockTableRecord
  2
GDimGGroup15
340
0
102
{BLKREFS
331
37B
102
}
  0
BLOCK_RECORD
  5
387
330
1
100
AcDbSymbolTableRecord
100
AcDbBlockTableRecord
  2
GDimGGroup16
340
0
102
{BLKREFS
331
388
102
}
  0
BLOCK_RECORD
  5
393
330
1
100
AcDbSymbolTableRecord
100
AcDbBlockTableRecord
  2
GDimGGroup17
340
0
102
{BLKREFS
331
394
102
}
  0
BLOCK_RECORD
  5
3A0
330
1
100
AcDbSymbolTableRecord
100
AcDbBlockTableRecord
  2
GDimGGroup18
340
0
102
{BLKREFS
331
3A1
102
}
  0
BLOCK_RECORD
  5
3AD
330
1
100
AcDbSymbolTableRecord
100
AcDbBlockTableRecord
  2
GDimGGroup19
340
0
102
{BLKREFS
331
3AE
102
}
  0
BLOCK_RECORD
  5
3B8
330
1
100
AcDbSymbolTableRecord
100
AcDbBlockTableRecord
  2
GDimGGroup20
340
0
102
{BLKREFS
331
3B9
102
}
  0
BLOCK_RECORD
  5
3C4
330
1
100
AcDbSymbolTableRecord
100
AcDbBlockTableRecord
  2
GDimGGroup21
340
0
102
{BLKREFS
331
3C5
102
}
  0
BLOCK_RECORD
  5
3D0
330
1
100
AcDbSymbolTableRecord
100
AcDbBlockTableRecord
  2
GDimGGroup22
340
0
102
{BLKREFS
331
3D1
102
}
  0
BLOCK_RECORD
  5
3DC
330
1
100
AcDbSymbolTableRecord
100
AcDbBlockTableRecord
  2
GDimGGroup23
340
0
102
{BLKREFS
331
3DD
102
}
  0
BLOCK_RECORD
  5
3E8
330
1
100
AcDbSymbolTableRecord
100
AcDbBlockTableRecord
  2
GDimGGroup24
340
0
102
{BLKREFS
331
3E9
102
}
  0
BLOCK_RECORD
  5
3F4
330
1
100
AcDbSymbolTableRecord
100
AcDbBlockTableRecord
  2
GDimGGroup25
340
0
102
{BLKREFS
331
3F5
102
}
  0
BLOCK_RECORD
  5
400
330
1
100
AcDbSymbolTableRecord
100
AcDbBlockTableRecord
  2
GDimGGroup26
340
0
102
{BLKREFS
331
401
102
}
  0
ENDTAB
  0
ENDSEC
  0
SECTION
  2
BLOCKS
  0
BLOCK
  5
20
330
1F
100
AcDbEntity
  8
0
100
AcDbBlockBegin
  2
*Model_Space
 70
     0
 71
     0
 10
0.0
 20
0.0
 30
0.0
  3
*Model_Space
  1

  0
ENDBLK
  5
21
330
1F
100
AcDbEntity
  8
0
100
AcDbBlockEnd
  0
BLOCK
  5
1C
330
1B
100
AcDbEntity
 67
     1
  8
0
100
AcDbBlockBegin
  2
*Paper_Space
 70
     0
 71
     0
 10
0.0
 20
0.0
 30
0.0
  3
*Paper_Space
  1

  0
ENDBLK
  5
1D
330
1B
100
AcDbEntity
 67
     1
  8
0
100
AcDbBlockEnd
  0
BLOCK
  5
33
330
2B
100
AcDbEntity
  8
0
100
AcDbBlockBegin
  2
SEANNOT_GROUP
 70
     0
 71
     0
 10
0.0
 20
0.0
 30
0.0
  3
SEANNOT_GROUP
  1

  0
LWPOLYLINE
  5
2D
330
2B
100
AcDbEntity
  8
Default
  6
Continuous
 62
     7
 48
25.4
100
AcDbPolyline
 90
        2
 70
     0
 43
0.0
 10
106.000222745
 20
218.2353095871
 10
125.8918864363
 20
237.1591831535
  0
HATCH
  5
2E
330
2B
100
AcDbEntity
  8
Default
  6
Continuous
 62
     7
 48
25.4
100
AcDbHatch
 10
0.0
 20
0.0
 30
0.0
210
0.0
220
0.0
230
1.0
  2
SOLID
 70
     1
 71
     0
 91
        1
 92
        1
 93
        3
 72
     1
 10
123.4533466661085
 20
233.919126086761
 11
125.8918864363122
 21
237.1591831534988
 72
     1
 10
125.8918864363122
 20
237.1591831534988
 11
122.5343303077181
 21
234.8851420698939
 72
     1
 10
122.534330307718
 20
234.8851420698939
 11
123.4533466661085
 21
233.919126086761
 97
        0
 75
     0
 76
     1
 98
        0
  0
LWPOLYLINE
  5
2F
330
2B
100
AcDbEntity
  8
Default
  6
Continuous
 62
     7
 48
25.4
370
     9
100
AcDbPolyline
 90
        4
 70
     1
 43
0.0001
 10
123.4533466661
 20
233.9191260868
 10
125.8918864363
 20
237.1591831535
 10
122.5343303077
 20
234.8851420699
 10
123.4533466661
 20
233.9191260868
  0
LINE
  5
30
330
2B
100
AcDbEntity
  8
Default
  6
Continuous
 62
     7
 48
25.4
100
AcDbLine
 10
106.000222745
 20
218.2353095871
 30
0.0
 11
87.9770435035
 21
218.2353095871
 31
0.0
  0
TEXT
  5
32
330
2B
100
AcDbEntity
  8
Default
  6
Continuous
 62
     7
 48
25.4
100
AcDbText
 10
87.9770435035
 20
219.2353095871
 30
0.0
 40
4.0
  1
6-M16
  7
SEACAD_arial_ttf
 11
87.9770435035
 21
223.2353095871
 31
0.0
100
AcDbText
 73
     3
  0
ENDBLK
  5
34
330
2B
100
AcDbEntity
  8
0
100
AcDbBlockEnd
  0
BLOCK
  5
3D
330
35
100
AcDbEntity
  8
0
100
AcDbBlockBegin
  2
SEANNOT_GROUP1
 70
     0
 71
     0
 10
0.0
 20
0.0
 30
0.0
  3
SEANNOT_GROUP1
  1

  0
LWPOLYLINE
  5
37
330
35
100
AcDbEntity
  8
Default
  6
Continuous
 62
     7
 48
25.4
100
AcDbPolyline
 90
        2
 70
     0
 43
0.0
 10
255.7001959713
 20
398.4474863394
 10
219.4512933375
 20
376.6186323279
  0
HATCH
  5
38
330
35
100
AcDbEntity
  8
Default
  6
Continuous
 62
     7
 48
25.4
100
AcDbHatch
 10
0.0
 20
0.0
 30
0.0
210
0.0
220
0.0
230
1.0
  2
SOLID
 70
     1
 71
     0
 91
        1
 92
        1
 93
        3
 72
     1
 10
222.5340268210494
 20
379.2532481018317
 11
219.4512933375494
 21
376.6186323278922
 72
     1
 10
219.4512933375494
 20
376.6186323278922
 11
223.2218625594352
 21
378.1110309842674
 72
     1
 10
223.2218625594352
 20
378.1110309842674
 11
222.5340268210494
 21
379.2532481018317
 97
        0
 75
     0
 76
     1
 98
        0
  0
LWPOLYLINE
  5
39
330
35
100
AcDbEntity
  8
Default
  6
Continuous
 62
     7
 48
25.4
370
     9
100
AcDbPolyline
 90
        4
 70
     1
 43
0.0001
 10
222.534026821
 20
379.2532481018
 10
219.4512933375
 20
376.6186323279
 10
223.2218625594
 20
378.1110309843
 10
222.534026821
 20
379.2532481018
  0
LINE
  5
3A
330
35
100
AcDbEntity
  8
Default
  6
Continuous
 62
     7
 48
25.4
100
AcDbLine
 10
255.7001959713
 20
398.4474863394
 30
0.0
 11
327.5407756815
 21
398.4474863394
 31
0.0
  0
TEXT
  5
3B
330
35
100
AcDbEntity
  8
Default
  6
Continuous
 62
     7
 48
25.4
100
AcDbText
 10
255.7001959713
 20
399.4474863394
 30
0.0
 40
4.0
  1
SERRATION PITCH 1.5X60
  7
SEACAD_arial_ttf
 11
255.7001959713
 21
403.4474863394
 31
0.0
100
AcDbText
 73
     3
  0
TEXT
  5
3C
330
35
100
AcDbEntity
  8
Default
  6
Continuous
 62
     7
 48
25.4
100
AcDbText
 10
325.8741090148
 20
399.4474863394
 30
0.0
 40
4.0
  1
°
  7
SEACAD_arial_ttf
 11
325.8741090148
 21
403.4474863394
 31
0.0
100
AcDbText
 73
     3
  0
ENDBLK
  5
3E
330
35
100
AcDbEntity
  8
0
100
AcDbBlockEnd
  0
BLOCK
  5
46
330
3F
100
AcDbEntity
  8
0
100
AcDbBlockBegin
  2
SEANNOT_GROUP2
 70
     0
 71
     0
 10
0.0
 20
0.0
 30
0.0
  3
SEANNOT_GROUP2
  1

  0
LWPOLYLINE
  5
41
330
3F
100
AcDbEntity
  8
Default
  6
Continuous
 62
     7
 48
25.4
100
AcDbPolyline
 90
        2
 70
     0
 43
0.0
 10
173.3684403677
 20
370.053735939
 10
163.6996408912
 20
327.9996218575
  0
HATCH
  5
42
330
3F
100
AcDbEntity
  8
Default
  6
Continuous
 62
     7
 48
25.4
100
AcDbHatch
 10
0.0
 20
0.0
 30
0.0
210
0.0
220
0.0
230
1.0
  2
SOLID
 70
     1
 71
     0
 91
        1
 92
        1
 93
        3
 72
     1
 10
163.9461948484655
 20
332.0472949115556
 11
163.6996408911719
 21
327.9996218574756
 72
     1
 10
163.6996408911719
 20
327.9996218574756
 11
165.245626435881
 21
331.7485383278886
 72
     1
 10
165.245626435881
 20
331.7485383278886
 11
163.9461948484655
 21
332.0472949115556
 97
        0
 75
     0
 76
     1
 98
        0
  0
LWPOLYLINE
  5
43
330
3F
100
AcDbEntity
  8
Default
  6
Continuous
 62
     7
 48
25.4
370
     9
100
AcDbPolyline
 90
        4
 70
     1
 43
0.0001
 10
163.9461948485
 20
332.0472949116
 10
163.6996408912
 20
327.9996218575
 10
165.2456264359
 20
331.7485383279
 10
163.9461948485
 20
332.0472949116
  0
LINE
  5
44
330
3F
100
AcDbEntity
  8
Default
  6
Continuous
 62
     7
 48
25.4
100
AcDbLine
 10
173.3684403677
 20
370.053735939
 30
0.0
 11
212.2380055851
 21
370.053735939
 31
0.0
  0
TEXT
  5
45
330
3F
100
AcDbEntity
  8
Default
  6
Continuous
 62
     7
 48
25.4
100
AcDbText
 10
173.3684403677
 20
371.053735939
 30
0.0
 40
4.0
  1
MAX M115X2.0
  7
SEACAD_arial_ttf
 11
173.3684403677
 21
375.053735939
 31
0.0
100
AcDbText
 73
     3
  0
ENDBLK
  5
47
330
3F
100
AcDbEntity
  8
0
100
AcDbBlockEnd
  0
BLOCK
  5
4F
330
48
100
AcDbEntity
  8
0
100
AcDbBlockBegin
  2
SEANNOT_GROUP3
 70
     0
 71
     0
 10
0.0
 20
0.0
 30
0.0
  3
SEANNOT_GROUP3
  1

  0
LWPOLYLINE
  5
4A
330
48
100
AcDbEntity
  8
Default
  6
Continuous
 62
     7
 48
25.4
100
AcDbPolyline
 90
        2
 70
     0
 43
0.0
 10
109.1695295306
 20
179.7114116337
 10
143.0645233115
 20
216.8791831535
  0
HATCH
  5
4B
330
48
100
AcDbEntity
  8
Default
  6
Continuous
 62
     7
 48
25.4
100
AcDbHatch
 10
0.0
 20
0.0
 30
0.0
210
0.0
220
0.0
230
1.0
  2
SOLID
 70
     1
 71
     0
 91
        1
 92
        1
 93
        3
 72
     1
 10
140.8618083030208
 20
213.4744081832858
 11
143.0645233115484
 21
216.8791831534989
 72
     1
 10
143.0645233115484
 20
216.8791831534989
 11
139.8766226374666
 21
214.3728441303873
 72
     1
 10
139.8766226374667
 20
214.3728441303873
 11
140.8618083030208
 21
213.4744081832857
 97
        0
 75
     0
 76
     1
 98
        0
  0
LWPOLYLINE
  5
4C
330
48
100
AcDbEntity
  8
Default
  6
Continuous
 62
     7
 48
25.4
370
     9
100
AcDbPolyline
 90
        4
 70
     1
 43
0.0001
 10
140.861808303
 20
213.4744081833
 10
143.0645233115
 20
216.8791831535
 10
139.8766226375
 20
214.3728441304
 10
140.861808303
 20
213.4744081833
  0
LINE
  5
4D
330
48
100
AcDbEntity
  8
Default
  6
Continuous
 62
     7
 48
25.4
100
AcDbLine
 10
109.1695295306
 20
179.7114116337
 30
0.0
 11
93.3434425741
 21
179.7114116337
 31
0.0
  0
TEXT
  5
4E
330
48
100
AcDbEntity
  8
Default
  6
Continuous
 62
     7
 48
25.4
100
AcDbText
 10
93.3434425741
 20
180.7114116337
 30
0.0
 40
4.0
  1
3-M20
  7
SEACAD_arial_ttf
 11
93.3434425741
 21
184.7114116337
 31
0.0
100
AcDbText
 73
     3
  0
ENDBLK
  5
50
330
48
100
AcDbEntity
  8
0
100
AcDbBlockEnd
  0
BLOCK
  5
5A
330
51
100
AcDbEntity
  8
0
100
AcDbBlockBegin
  2
SEANNOT_GROUP4
 70
     0
 71
     0
 10
0.0
 20
0.0
 30
0.0
  3
SEANNOT_GROUP4
  1

  0
LWPOLYLINE
  5
53
330
51
100
AcDbEntity
  8
Default
  6
Continuous
 62
     7
 48
25.4
100
AcDbPolyline
 90
        2
 70
     0
 43
0.0
 10
246.7560100738
 20
250.3830805843
 10
246.7560100738
 20
222.8791831535
  0
HATCH
  5
54
330
51
100
AcDbEntity
  8
Default
  6
Continuous
 62
     7
 48
25.4
100
AcDbHatch
 10
0.0
 20
0.0
 30
0.0
210
0.0
220
0.0
230
1.0
  2
SOLID
 70
     1
 71
     0
 91
        1
 92
        1
 93
        3
 72
     1
 10
246.0893433754523
 20
226.8791833434887
 11
246.7560100737839
 21
222.8791831534989
 72
     1
 10
246.7560100737839
 20
222.8791831534989
 11
247.4226767721155
 21
226.8791833434887
 72
     1
 10
247.4226767721155
 20
226.8791833434887
 11
246.0893433754523
 21
226.8791833434887
 97
        0
 75
     0
 76
     1
 98
        0
  0
LWPOLYLINE
  5
55
330
51
100
AcDbEntity
  8
Default
  6
Continuous
 62
     7
 48
25.4
370
     9
100
AcDbPolyline
 90
        4
 70
     1
 43
0.0001
 10
246.0893433755
 20
226.8791833435
 10
246.7560100738
 20
222.8791831535
 10
247.4226767721
 20
226.8791833435
 10
246.0893433755
 20
226.8791833435
  0
LINE
  5
56
330
51
100
AcDbEntity
  8
Default
  6
Continuous
 62
     7
 48
25.4
100
AcDbLine
 10
234.1101876346
 20
222.8791831535
 30
0.0
 11
248.7560100738
 21
222.8791831535
 31
0.0
  0
TEXT
  5
58
330
51
100
AcDbEntity
  8
Default
  6
Continuous
 62
     7
 48
25.4
100
AcDbText
 10
248.1560100738
 20
248.3830805843
 30
0.0
 40
4.0
  1
O
  7
SEACAD_semeca1_ttf
 11
248.1560100738
 21
252.3830805843
 31
0.0
100
AcDbText
 73
     3
  0
TEXT
  5
59
330
51
100
AcDbEntity
  8
Default
  6
Continuous
 62
     7
 48
25.4
100
AcDbText
 10
252.7174135826
 20
248.3830805843
 30
0.0
 40
4.0
  1
235
  7
SEACAD_arial_ttf
 11
252.7174135826
 21
252.3830805843
 31
0.0
100
AcDbText
 73
     3
  0
ENDBLK
  5
5B
330
51
100
AcDbEntity
  8
0
100
AcDbBlockEnd
  0
BLOCK
  5
14B
330
5C
100
AcDbEntity
  8
0
100
AcDbBlockBegin
  2
SE
 70
     0
 71
     0
 10
0.0
 20
0.0
 30
0.0
  3
SE
  1

  0
LINE
  5
60
330
5C
100
AcDbEntity
  8
DV1_Default
  6
CENTER2
 62
     7
 48
25.4
100
AcDbLine
 10
104.2945631543
 20
293.3791831535
 30
0.0
 11
251.0531231218
 21
293.3791831535
 31
0.0
  0
LINE
  5
61
330
5C
100
AcDbEntity
  8
DV1_Default
  6
Continuous
 62
     7
 48
25.4
100
AcDbLine
 10
215.1154886114
 20
260.162359804
 30
0.0
 11
215.1154886114
 21
258.2697863573
 31
0.0
  0
ARC
  5
62
330
5C
100
AcDbEntity
  8
DV1_Default
  6
Continuous
 62
     7
 48
25.4
100
AcDbCircle
 10
214.646666073
 20
256.1768803384
 30
0.0
 40
3.691860620593668
100
AcDbArc
 50
291.2172578431
 51
68.7827421569
  0
LINE
  5
63
330
5C
100
AcDbEntity
  8
DV1_Default
  6
Continuous
 62
     7
 48
25.4
100
AcDbLine
 10
219.8827702767
 20
387.8791831535
 30
0.0
 11
249.4027702767
 21
387.8791831535
 31
0.0
  0
LINE
  5
64
330
5C
100
AcDbEntity
  8
DV1_Default
  6
Continuous
 62
     7
 48
25.4
100
AcDbLine
 10
219.4027702767
 20
354.8791831535
 30
0.0
 11
219.4027702767
 21
387.3991831535
 31
0.0
  0
LINE
  5
65
330
5C
100
AcDbEntity
  8
DV1_Default
  6
Continuous
 62
     7
 48
25.4
100
AcDbLine
 10
249.4027702767
 20
382.7791831535
 30
0.0
 11
229.6027702767
 21
382.7791831535
 31
0.0
  0
LINE
  5
66
330
5C
100
AcDbEntity
  8
DV1_Default
  6
Continuous
 62
     7
 48
25.4
100
AcDbLine
 10
229.6027702767
 20
367.7791831535
 30
0.0
 11
249.4027702767
 21
367.7791831535
 31
0.0
  0
LINE
  5
67
330
5C
100
AcDbEntity
  8
DV1_Default
  6
Continuous
 62
     7
 48
25.4
100
AcDbLine
 10
221.8027702767
 20
362.7151806882
 30
0.0
 11
221.8027702767
 21
369.8769303283
 31
0.0
  0
LINE
  5
68
330
5C
100
AcDbEntity
  8
DV1_Default
  6
Continuous
 62
     7
 48
25.4
100
AcDbLine
 10
219.8827702767
 20
383.9791831535
 30
0.0
 11
221.2327702767
 21
383.9791831535
 31
0.0
  0
LINE
  5
69
330
5C
100
AcDbEntity
  8
DV1_Default
  6
Continuous
 62
     7
 48
25.4
100
AcDbLine
 10
229.0027702767
 20
380.3769303283
 30
0.0
 11
229.0027702767
 21
370.1769303283
 31
0.0
  0
LINE
  5
6A
330
5C
100
AcDbEntity
  8
DV1_Default
  6
Continuous
 62
     7
 48
25.4
100
AcDbLine
 10
229.6027702767
 20
380.6769303283
 30
0.0
 11
221.8027702767
 21
380.6769303283
 31
0.0
  0
LINE
  5
6B
330
5C
100
AcDbEntity
  8
DV1_Default
  6
Continuous
 62
     7
 48
25.4
100
AcDbLine
 10
221.8027702767
 20
380.6769303283
 30
0.0
 11
221.8027702767
 21
387.8791831535
 31
0.0
  0
LINE
  5
6C
330
5C
100
AcDbEntity
  8
DV1_Default
  6
Continuous
 62
     7
 48
25.4
100
AcDbLine
 10
229.6027702767
 20
382.7791831535
 30
0.0
 11
229.6027702767
 21
367.7791831535
 31
0.0
  0
LINE
  5
6D
330
5C
100
AcDbEntity
  8
DV1_Default
  6
Continuous
 62
     7
 48
25.4
100
AcDbLine
 10
229.6027702767
 20
380.3769303283
 30
0.0
 11
221.5027702767
 21
380.3769303283
 31
0.0
  0
LINE
  5
6E
330
5C
100
AcDbEntity
  8
DV1_Default
  6
Continuous
 62
     7
 48
25.4
100
AcDbLine
 10
221.5027702767
 20
380.0769303283
 30
0.0
 11
229.0027702767
 21
380.0769303283
 31
0.0
  0
LINE
  5
6F
330
5C
100
AcDbEntity
  8
DV1_Default
  6
Continuous
 62
     7
 48
25.4
100
AcDbLine
 10
229.6027702767
 20
370.1769303283
 30
0.0
 11
229.6027702767
 21
369.8769303283
 31
0.0
  0
LINE
  5
70
330
5C
100
AcDbEntity
  8
DV1_Default
  6
Continuous
 62
     7
 48
25.4
100
AcDbLine
 10
229.6027702767
 20
369.8769303283
 30
0.0
 11
221.8027702767
 21
369.8769303283
 31
0.0
  0
LINE
  5
71
330
5C
100
AcDbEntity
  8
DV1_Default
  6
Continuous
 62
     7
 48
25.4
100
AcDbLine
 10
221.5027702767
 20
370.1769303283
 30
0.0
 11
229.6027702767
 21
370.1769303283
 31
0.0
  0
LINE
  5
72
330
5C
100
AcDbEntity
  8
DV1_Default
  6
Continuous
 62
     7
 48
25.4
100
AcDbLine
 10
221.5027702767
 20
370.4769303283
 30
0.0
 11
229.0027702767
 21
370.4769303283
 31
0.0
  0
LINE
  5
73
330
5C
100
AcDbEntity
  8
DV1_Default
  6
Continuous
 62
     7
 48
25.4
100
AcDbLine
 10
229.6027702767
 20
382.7791831535
 30
0.0
 11
229.6027702767
 21
382.4791831535
 31
0.0
  0
LINE
  5
74
330
5C
100
AcDbEntity
  8
DV1_Default
  6
Continuous
 62
     7
 48
25.4
100
AcDbLine
 10
229.6027702767
 20
382.4791831535
 30
0.0
 11
238.0027702767
 21
382.4791831535
 31
0.0
  0
LINE
  5
75
330
5C
100
AcDbEntity
  8
DV1_Default
  6
Continuous
 62
     7
 48
25.4
100
AcDbLine
 10
238.6027702767
 20
381.8791831535
 30
0.0
 11
238.6027702767
 21
368.6791831535
 31
0.0
  0
LINE
  5
76
330
5C
100
AcDbEntity
  8
DV1_Default
  6
Continuous
 62
     7
 48
25.4
100
AcDbLine
 10
238.0027702767
 20
368.0791831535
 30
0.0
 11
229.6027702767
 21
368.0791831535
 31
0.0
  0
LINE
  5
77
330
5C
100
AcDbEntity
  8
DV1_Default
  6
Continuous
 62
     7
 48
25.4
100
AcDbLine
 10
238.0027702767
 20
382.4791831535
 30
0.0
 11
238.6027702767
 21
381.8791831535
 31
0.0
  0
LINE
  5
78
330
5C
100
AcDbEntity
  8
DV1_Default
  6
Continuous
 62
     7
 48
25.4
100
AcDbLine
 10
238.0027702767
 20
368.0791831535
 30
0.0
 11
238.6027702767
 21
368.6791831535
 31
0.0
  0
LINE
  5
79
330
5C
100
AcDbEntity
  8
DV1_Default
  6
Continuous
 62
     7
 48
25.4
100
AcDbLine
 10
238.0027702767
 20
382.4791831535
 30
0.0
 11
238.0027702767
 21
368.0791831535
 31
0.0
  0
LINE
  5
7A
330
5C
100
AcDbEntity
  8
DV1_Default
  6
Continuous
 62
     7
 48
25.4
100
AcDbLine
 10
249.4027702767
 20
349.8129278631
 30
0.0
 11
229.6027702767
 21
349.8129278631
 31
0.0
  0
LINE
  5
7B
330
5C
100
AcDbEntity
  8
DV1_Default
  6
Continuous
 62
     7
 48
25.4
100
AcDbLine
 10
229.6027702767
 20
364.8129278631
 30
0.0
 11
249.4027702767
 21
364.8129278631
 31
0.0
  0
LINE
  5
7C
330
5C
100
AcDbEntity
  8
DV1_Default
  6
Continuous
 62
     7
 48
25.4
100
AcDbLine
 10
219.8827702767
 20
348.6129278631
 30
0.0
 11
221.2327702767
 21
348.6129278631
 31
0.0
  0
LINE
  5
7D
330
5C
100
AcDbEntity
  8
DV1_Default
  6
Continuous
 62
     7
 48
25.4
100
AcDbLine
 10
229.0027702767
 20
352.2151806882
 30
0.0
 11
229.0027702767
 21
362.4151806882
 31
0.0
  0
LINE
  5
7E
330
5C
100
AcDbEntity
  8
DV1_Default
  6
Continuous
 62
     7
 48
25.4
100
AcDbLine
 10
229.6027702767
 20
351.9151806882
 30
0.0
 11
221.8027702767
 21
351.9151806882
 31
0.0
  0
LINE
  5
7F
330
5C
100
AcDbEntity
  8
DV1_Default
  6
Continuous
 62
     7
 48
25.4
100
AcDbLine
 10
229.6027702767
 20
349.8129278631
 30
0.0
 11
229.6027702767
 21
364.8129278631
 31
0.0
  0
LINE
  5
80
330
5C
100
AcDbEntity
  8
DV1_Default
  6
Continuous
 62
     7
 48
25.4
100
AcDbLine
 10
229.6027702767
 20
352.2151806882
 30
0.0
 11
221.5027702767
 21
352.2151806882
 31
0.0
  0
LINE
  5
81
330
5C
100
AcDbEntity
  8
DV1_Default
  6
Continuous
 62
     7
 48
25.4
100
AcDbLine
 10
221.5027702767
 20
352.5151806882
 30
0.0
 11
229.0027702767
 21
352.5151806882
 31
0.0
  0
LINE
  5
82
330
5C
100
AcDbEntity
  8
DV1_Default
  6
Continuous
 62
     7
 48
25.4
100
AcDbLine
 10
229.6027702767
 20
362.4151806882
 30
0.0
 11
229.6027702767
 21
362.7151806882
 31
0.0
  0
LINE
  5
83
330
5C
100
AcDbEntity
  8
DV1_Default
  6
Continuous
 62
     7
 48
25.4
100
AcDbLine
 10
229.6027702767
 20
362.7151806882
 30
0.0
 11
221.8027702767
 21
362.7151806882
 31
0.0
  0
LINE
  5
84
330
5C
100
AcDbEntity
  8
DV1_Default
  6
Continuous
 62
     7
 48
25.4
100
AcDbLine
 10
221.5027702767
 20
362.4151806882
 30
0.0
 11
229.6027702767
 21
362.4151806882
 31
0.0
  0
LINE
  5
85
330
5C
100
AcDbEntity
  8
DV1_Default
  6
Continuous
 62
     7
 48
25.4
100
AcDbLine
 10
221.5027702767
 20
362.1151806882
 30
0.0
 11
229.0027702767
 21
362.1151806882
 31
0.0
  0
LINE
  5
86
330
5C
100
AcDbEntity
  8
DV1_Default
  6
Continuous
 62
     7
 48
25.4
100
AcDbLine
 10
229.6027702767
 20
349.8129278631
 30
0.0
 11
229.6027702767
 21
350.1129278631
 31
0.0
  0
LINE
  5
87
330
5C
100
AcDbEntity
  8
DV1_Default
  6
Continuous
 62
     7
 48
25.4
100
AcDbLine
 10
229.6027702767
 20
350.1129278631
 30
0.0
 11
238.0027702767
 21
350.1129278631
 31
0.0
  0
LINE
  5
88
330
5C
100
AcDbEntity
  8
DV1_Default
  6
Continuous
 62
     7
 48
25.4
100
AcDbLine
 10
238.6027702767
 20
350.7129278631
 30
0.0
 11
238.6027702767
 21
363.9129278631
 31
0.0
  0
LINE
  5
89
330
5C
100
AcDbEntity
  8
DV1_Default
  6
Continuous
 62
     7
 48
25.4
100
AcDbLine
 10
238.0027702767
 20
364.5129278631
 30
0.0
 11
229.6027702767
 21
364.5129278631
 31
0.0
  0
LINE
  5
8A
330
5C
100
AcDbEntity
  8
DV1_Default
  6
Continuous
 62
     7
 48
25.4
100
AcDbLine
 10
238.0027702767
 20
350.1129278631
 30
0.0
 11
238.6027702767
 21
350.7129278631
 31
0.0
  0
LINE
  5
8B
330
5C
100
AcDbEntity
  8
DV1_Default
  6
Continuous
 62
     7
 48
25.4
100
AcDbLine
 10
238.0027702767
 20
364.5129278631
 30
0.0
 11
238.6027702767
 21
363.9129278631
 31
0.0
  0
LINE
  5
8C
330
5C
100
AcDbEntity
  8
DV1_Default
  6
Continuous
 62
     7
 48
25.4
100
AcDbLine
 10
238.0027702767
 20
350.1129278631
 30
0.0
 11
238.0027702767
 21
364.5129278631
 31
0.0
  0
LINE
  5
8D
330
5C
100
AcDbEntity
  8
DV1_Default
  6
Continuous
 62
     7
 48
25.4
100
AcDbLine
 10
221.8027702767
 20
351.9151806882
 30
0.0
 11
221.8027702767
 21
321.8791831535
 31
0.0
  0
LINE
  5
8E
330
5C
100
AcDbEntity
  8
DV1_Default
  6
Continuous
 62
     7
 48
25.4
100
AcDbLine
 10
218.3827702767
 20
252.0991806966
 30
0.0
 11
215.1154886114
 21
252.0991806966
 31
0.0
  0
LINE
  5
8F
330
5C
100
AcDbEntity
  8
DV1_Default
  6
Continuous
 62
     7
 48
25.4
100
AcDbLine
 10
215.1154886114
 20
252.0991806966
 30
0.0
 11
215.1154886114
 21
254.0697863573
 31
0.0
  0
LINE
  5
90
330
5C
100
AcDbEntity
  8
DV1_Default
  6
Continuous
 62
     7
 48
25.4
100
AcDbLine
 10
215.9827702767
 20
198.8791831535
 30
0.0
 11
155.9827702767
 21
198.8791831535
 31
0.0
  0
LINE
  5
91
330
5C
100
AcDbEntity
  8
DV1_Default
  6
Continuous
 62
     7
 48
25.4
100
AcDbLine
 10
153.5827702767
 20
201.2791831535
 30
0.0
 11
153.5827702767
 21
203.3791831535
 31
0.0
  0
LINE
  5
92
330
5C
100
AcDbEntity
  8
DV1_Default
  6
Continuous
 62
     7
 48
25.4
100
AcDbLine
 10
215.9827702767
 20
252.5697863573
 30
0.0
 11
218.3827702767
 21
252.5697863573
 31
0.0
  0
LINE
  5
93
330
5C
100
AcDbEntity
  8
DV1_Default
  6
Continuous
 62
     7
 48
25.4
100
AcDbLine
 10
218.3827702767
 20
260.0791831535
 30
0.0
 11
216.8827702767
 21
261.5791831535
 31
0.0
  0
LINE
  5
94
330
5C
100
AcDbEntity
  8
DV1_Default
  6
Continuous
 62
     7
 48
25.4
100
AcDbLine
 10
218.3827702767
 20
201.2791831535
 30
0.0
 11
218.3827702767
 21
293.3791831535
 31
0.0
  0
LINE
  5
95
330
5C
100
AcDbEntity
  8
DV1_Default
  6
Continuous
 62
     7
 48
25.4
100
AcDbLine
 10
215.9827702767
 20
259.7697863573
 30
0.0
 11
218.3827702767
 21
259.7697863573
 31
0.0
  0
LINE
  5
96
330
5C
100
AcDbEntity
  8
DV1_Default
  6
Continuous
 62
     7
 48
25.4
100
AcDbLine
 10
215.6827702767
 20
257.9697863573
 30
0.0
 11
209.6827702767
 21
257.9697863573
 31
0.0
  0
LINE
  5
97
330
5C
100
AcDbEntity
  8
DV1_Default
  6
Continuous
 62
     7
 48
25.4
100
AcDbLine
 10
209.6827702767
 20
257.9697863573
 30
0.0
 11
209.6827702767
 21
254.3697863573
 31
0.0
  0
LINE
  5
98
330
5C
100
AcDbEntity
  8
DV1_Default
  6
Continuous
 62
     7
 48
25.4
100
AcDbLine
 10
209.6827702767
 20
254.3697863573
 30
0.0
 11
215.6827702767
 21
254.3697863573
 31
0.0
  0
LINE
  5
99
330
5C
100
AcDbEntity
  8
DV1_Default
  6
Continuous
 62
     7
 48
25.4
100
AcDbLine
 10
215.6827702767
 20
257.6697863573
 30
0.0
 11
209.6827702767
 21
257.6697863573
 31
0.0
  0
LINE
  5
9A
330
5C
100
AcDbEntity
  8
DV1_Default
  6
Continuous
 62
     7
 48
25.4
100
AcDbLine
 10
209.6827702767
 20
254.6697863573
 30
0.0
 11
215.6827702767
 21
254.6697863573
 31
0.0
  0
LINE
  5
9B
330
5C
100
AcDbEntity
  8
DV1_Default
  6
Continuous
 62
     7
 48
25.4
100
AcDbLine
 10
215.1154886114
 20
254.0697863573
 30
0.0
 11
215.6827702767
 21
254.0697863573
 31
0.0
  0
LINE
  5
9C
330
5C
100
AcDbEntity
  8
DV1_Default
  6
Continuous
 62
     7
 48
25.4
100
AcDbLine
 10
215.6827702767
 20
258.2697863573
 30
0.0
 11
215.1154886114
 21
258.2697863573
 31
0.0
  0
LINE
  5
9D
330
5C
100
AcDbEntity
  8
DV1_Default
  6
Continuous
 62
     7
 48
25.4
100
AcDbLine
 10
155.9827702767
 20
203.3791831535
 30
0.0
 11
138.5827702767
 21
203.3791831535
 31
0.0
  0
LINE
  5
9E
330
5C
100
AcDbEntity
  8
DV1_Default
  6
Continuous
 62
     7
 48
25.4
100
AcDbLine
 10
157.1827702767
 20
229.1791831535
 30
0.0
 11
157.1827702767
 21
293.3791831535
 31
0.0
  0
LINE
  5
9F
330
5C
100
AcDbEntity
  8
DV1_Default
  6
Continuous
 62
     7
 48
25.4
100
AcDbLine
 10
153.5827702767
 20
201.2791831535
 30
0.0
 11
155.9827702767
 21
198.8791831535
 31
0.0
  0
LINE
  5
A0
330
5C
100
AcDbEntity
  8
DV1_Default
  6
Continuous
 62
     7
 48
25.4
100
AcDbLine
 10
215.9827702767
 20
198.8791831535
 30
0.0
 11
218.3827702767
 21
201.2791831535
 31
0.0
  0
LINE
  5
A1
330
5C
100
AcDbEntity
  8
DV1_Default
  6
CENTER2
 62
     7
 48
25.4
100
AcDbLine
 10
234.1101876346
 20
222.8791831535
 30
0.0
 11
114.1115778425
 21
222.8791831535
 31
0.0
  0
LINE
  5
A2
330
5C
100
AcDbEntity
  8
DV1_Default
  6
Continuous
 62
     7
 48
25.4
100
AcDbLine
 10
218.3827702767
 20
232.4791831535
 30
0.0
 11
205.7827702767
 21
232.4791831535
 31
0.0
  0
LINE
  5
A3
330
5C
100
AcDbEntity
  8
DV1_Default
  6
Continuous
 62
     7
 48
25.4
100
AcDbLine
 10
205.7827702767
 20
232.4791831535
 30
0.0
 11
205.7827702767
 21
222.8791831535
 31
0.0
  0
LINE
  5
A4
330
5C
100
AcDbEntity
  8
DV1_Default
  6
Continuous
 62
     7
 48
25.4
100
AcDbLine
 10
205.7827702767
 20
229.1791831535
 30
0.0
 11
157.1827702767
 21
229.1791831535
 31
0.0
  0
LINE
  5
A5
330
5C
100
AcDbEntity
  8
DV1_Default
  6
Continuous
 62
     7
 48
25.4
100
AcDbLine
 10
205.7827702767
 20
228.8791831535
 30
0.0
 11
139.7827702767
 21
228.8791831535
 31
0.0
  0
LINE
  5
A6
330
5C
100
AcDbEntity
  8
DV1_Default
  6
Continuous
 62
     7
 48
25.4
100
AcDbLine
 10
175.1827702767
 20
228.8791831535
 30
0.0
 11
175.1827702767
 21
222.8791831535
 31
0.0
  0
LINE
  5
A7
330
5C
100
AcDbEntity
  8
DV1_Default
  6
Continuous
 62
     7
 48
25.4
100
AcDbLine
 10
175.1827702767
 20
228.2791831535
 30
0.0
 11
139.7827702767
 21
228.2791831535
 31
0.0
  0
LINE
  5
A8
330
5C
100
AcDbEntity
  8
DV1_Default
  6
Continuous
 62
     7
 48
25.4
100
AcDbLine
 10
205.7827702767
 20
231.8791831535
 30
0.0
 11
216.8827702767
 21
231.8791831535
 31
0.0
  0
LINE
  5
A9
330
5C
100
AcDbEntity
  8
DV1_Default
  6
Continuous
 62
     7
 48
25.4
100
AcDbLine
 10
217.7827702767
 20
230.9791831535
 30
0.0
 11
217.7827702767
 21
222.8791831535
 31
0.0
  0
LINE
  5
AA
330
5C
100
AcDbEntity
  8
DV1_Default
  6
Continuous
 62
     7
 48
25.4
100
AcDbLine
 10
217.7827702767
 20
230.9791831535
 30
0.0
 11
216.8827702767
 21
231.8791831535
 31
0.0
  0
LINE
  5
AB
330
5C
100
AcDbEntity
  8
DV1_Default
  6
Continuous
 62
     7
 48
25.4
100
AcDbLine
 10
216.8827702767
 20
231.8791831535
 30
0.0
 11
216.8827702767
 21
222.8791831535
 31
0.0
  0
LINE
  5
AC
330
5C
100
AcDbEntity
  8
DV1_Default
  6
Continuous
 62
     7
 48
25.4
100
AcDbLine
 10
218.3827702767
 20
213.2791831535
 30
0.0
 11
205.7827702767
 21
213.2791831535
 31
0.0
  0
LINE
  5
AD
330
5C
100
AcDbEntity
  8
DV1_Default
  6
Continuous
 62
     7
 48
25.4
100
AcDbLine
 10
205.7827702767
 20
213.2791831535
 30
0.0
 11
205.7827702767
 21
222.8791831535
 31
0.0
  0
LINE
  5
AE
330
5C
100
AcDbEntity
  8
DV1_Default
  6
Continuous
 62
     7
 48
25.4
100
AcDbLine
 10
205.7827702767
 20
216.5791831535
 30
0.0
 11
157.1827702767
 21
216.5791831535
 31
0.0
  0
LINE
  5
AF
330
5C
100
AcDbEntity
  8
DV1_Default
  6
Continuous
 62
     7
 48
25.4
100
AcDbLine
 10
205.7827702767
 20
216.8791831535
 30
0.0
 11
139.7827702767
 21
216.8791831535
 31
0.0
  0
LINE
  5
B0
330
5C
100
AcDbEntity
  8
DV1_Default
  6
Continuous
 62
     7
 48
25.4
100
AcDbLine
 10
175.1827702767
 20
216.8791831535
 30
0.0
 11
175.1827702767
 21
222.8791831535
 31
0.0
  0
LINE
  5
B1
330
5C
100
AcDbEntity
  8
DV1_Default
  6
Continuous
 62
     7
 48
25.4
100
AcDbLine
 10
175.1827702767
 20
217.4791831535
 30
0.0
 11
139.7827702767
 21
217.4791831535
 31
0.0
  0
LINE
  5
B2
330
5C
100
AcDbEntity
  8
DV1_Default
  6
Continuous
 62
     7
 48
25.4
100
AcDbLine
 10
205.7827702767
 20
213.8791831535
 30
0.0
 11
216.8827702767
 21
213.8791831535
 31
0.0
  0
LINE
  5
B3
330
5C
100
AcDbEntity
  8
DV1_Default
  6
Continuous
 62
     7
 48
25.4
100
AcDbLine
 10
217.7827702767
 20
214.7791831535
 30
0.0
 11
217.7827702767
 21
222.8791831535
 31
0.0
  0
LINE
  5
B4
330
5C
100
AcDbEntity
  8
DV1_Default
  6
Continuous
 62
     7
 48
25.4
100
AcDbLine
 10
217.7827702767
 20
214.7791831535
 30
0.0
 11
216.8827702767
 21
213.8791831535
 31
0.0
  0
LINE
  5
B5
330
5C
100
AcDbEntity
  8
DV1_Default
  6
Continuous
 62
     7
 48
25.4
100
AcDbLine
 10
216.8827702767
 20
213.8791831535
 30
0.0
 11
216.8827702767
 21
222.8791831535
 31
0.0
  0
LINE
  5
B6
330
5C
100
AcDbEntity
  8
DV1_Default
  6
Continuous
 62
     7
 48
25.4
100
AcDbLine
 10
155.9827702767
 20
203.3791831535
 30
0.0
 11
157.1827702767
 21
204.5791831535
 31
0.0
  0
LINE
  5
B7
330
5C
100
AcDbEntity
  8
DV1_Default
  6
Continuous
 62
     7
 48
25.4
100
AcDbLine
 10
216.8827702767
 20
261.5791831535
 30
0.0
 11
216.8827702767
 21
293.3791831535
 31
0.0
  0
LINE
  5
B8
330
5C
100
AcDbEntity
  8
DV1_Default
  6
Continuous
 62
     7
 48
25.4
100
AcDbLine
 10
139.7827702767
 20
228.8791831535
 30
0.0
 11
139.7827702767
 21
216.8791831535
 31
0.0
  0
LINE
  5
B9
330
5C
100
AcDbEntity
  8
DV1_Default
  6
Continuous
 62
     7
 48
25.4
100
AcDbLine
 10
161.9827702767
 20
293.3791831535
 30
0.0
 11
161.9827702767
 21
256.7791831535
 31
0.0
  0
LINE
  5
BA
330
5C
100
AcDbEntity
  8
DV1_Default
  6
Continuous
 62
     7
 48
25.4
100
AcDbLine
 10
171.5827702767
 20
239.0791831535
 30
0.0
 11
201.3843178477
 21
239.0791831535
 31
0.0
  0
LINE
  5
BB
330
5C
100
AcDbEntity
  8
DV1_Default
  6
Continuous
 62
     7
 48
25.4
100
AcDbLine
 10
201.9843178477
 20
239.6791831535
 30
0.0
 11
201.9843178477
 21
260.162359804
 31
0.0
  0
LINE
  5
BC
330
5C
100
AcDbEntity
  8
DV1_Default
  6
Continuous
 62
     7
 48
25.4
100
AcDbLine
 10
180.4886669689
 20
256.1791831535
 30
0.0
 11
180.4886669689
 21
254.3791831535
 31
0.0
  0
LINE
  5
BD
330
5C
100
AcDbEntity
  8
DV1_Default
  6
Continuous
 62
     7
 48
25.4
100
AcDbLine
 10
180.4886669689
 20
254.3791831535
 30
0.0
 11
185.1251109351
 21
255.62151457
 31
0.0
  0
LINE
  5
BE
330
5C
100
AcDbEntity
  8
DV1_Default
  6
Continuous
 62
     7
 48
25.4
100
AcDbLine
 10
175.7827702767
 20
278.3791831535
 30
0.0
 11
161.9827702767
 21
278.3791831535
 31
0.0
  0
LINE
  5
BF
330
5C
100
AcDbEntity
  8
DV1_Default
  6
Continuous
 62
     7
 48
25.4
100
AcDbLine
 10
175.7827702767
 20
293.3791831535
 30
0.0
 11
175.7827702767
 21
258.2791831535
 31
0.0
  0
LINE
  5
C0
330
5C
100
AcDbEntity
  8
DV1_Default
  6
Continuous
 62
     7
 48
25.4
100
AcDbLine
 10
175.7827702767
 20
258.2791831535
 30
0.0
 11
178.7827702767
 21
258.2791831535
 31
0.0
  0
LINE
  5
C1
330
5C
100
AcDbEntity
  8
DV1_Default
  6
Continuous
 62
     7
 48
25.4
100
AcDbLine
 10
178.7827702767
 20
258.2791831535
 30
0.0
 11
178.7827702767
 21
293.3791831535
 31
0.0
  0
LINE
  5
C2
330
5C
100
AcDbEntity
  8
DV1_Default
  6
Continuous
 62
     7
 48
25.4
100
AcDbLine
 10
175.7827702767
 20
258.8791831535
 30
0.0
 11
161.9827702767
 21
258.8791831535
 31
0.0
  0
LINE
  5
C3
330
5C
100
AcDbEntity
  8
DV1_Default
  6
Continuous
 62
     7
 48
25.4
100
AcDbLine
 10
161.9827702767
 20
259.4791831535
 30
0.0
 11
175.7827702767
 21
259.4791831535
 31
0.0
  0
LINE
  5
C4
330
5C
100
AcDbEntity
  8
DV1_Default
  6
Continuous
 62
     7
 48
25.4
100
AcDbLine
 10
161.9827702767
 20
256.7791831535
 30
0.0
 11
162.5827702767
 21
256.1791831535
 31
0.0
  0
LINE
  5
C5
330
5C
100
AcDbEntity
  8
DV1_Default
  6
Continuous
 62
     7
 48
25.4
100
AcDbLine
 10
181.3509641073
 20
254.6102349754
 30
0.0
 11
181.3509641073
 21
261.2520253131
 31
0.0
  0
LINE
  5
C6
330
5C
100
AcDbEntity
  8
DV1_Default
  6
Continuous
 62
     7
 48
25.4
100
AcDbLine
 10
187.5337940605
 20
261.5791831535
 30
0.0
 11
187.5337940605
 21
293.3791831535
 31
0.0
  0
LINE
  5
C7
330
5C
100
AcDbEntity
  8
DV1_Default
  6
Continuous
 62
     7
 48
25.4
100
AcDbLine
 10
186.3337940605
 20
260.162359804
 30
0.0
 11
186.3337940605
 21
260.3769351082
 31
0.0
  0
LINE
  5
C8
330
5C
100
AcDbEntity
  8
DV1_Default
  6
Continuous
 62
     7
 48
25.4
100
AcDbLine
 10
187.5360421058
 20
261.5791831535
 30
0.0
 11
186.3337940605
 21
260.3769351082
 31
0.0
  0
LINE
  5
C9
330
5C
100
AcDbEntity
  8
DV1_Default
  6
Continuous
 62
     7
 48
25.4
100
AcDbLine
 10
186.3337940605
 20
260.3769351082
 30
0.0
 11
186.3337940605
 21
293.3791831535
 31
0.0
  0
LINE
  5
CA
330
5C
100
AcDbEntity
  8
DV1_Default
  6
Continuous
 62
     7
 48
25.4
100
AcDbLine
 10
199.8342421393
 20
387.8791831535
 30
0.0
 11
155.9827702767
 21
387.8791831535
 31
0.0
  0
LINE
  5
CB
330
5C
100
AcDbEntity
  8
DV1_Default
  6
Continuous
 62
     7
 48
25.4
100
AcDbLine
 10
153.5827702767
 20
385.4791831535
 30
0.0
 11
153.5827702767
 21
383.3791831535
 31
0.0
  0
LINE
  5
CC
330
5C
100
AcDbEntity
  8
DV1_Default
  6
Continuous
 62
     7
 48
25.4
100
AcDbLine
 10
218.3827702767
 20
326.6791831535
 30
0.0
 11
216.8827702767
 21
325.1791831535
 31
0.0
  0
LINE
  5
CD
330
5C
100
AcDbEntity
  8
DV1_Default
  6
Continuous
 62
     7
 48
25.4
100
AcDbLine
 10
218.3827702767
 20
334.6591856104
 30
0.0
 11
218.3827702767
 21
293.3791831535
 31
0.0
  0
LINE
  5
CE
330
5C
100
AcDbEntity
  8
DV1_Default
  6
Continuous
 62
     7
 48
25.4
100
AcDbLine
 10
155.9827702767
 20
383.3791831535
 30
0.0
 11
138.5827702767
 21
383.3791831535
 31
0.0
  0
LINE
  5
CF
330
5C
100
AcDbEntity
  8
DV1_Default
  6
Continuous
 62
     7
 48
25.4
100
AcDbLine
 10
157.1827702767
 20
382.1791831535
 30
0.0
 11
157.1827702767
 21
293.3791831535
 31
0.0
  0
LINE
  5
D0
330
5C
100
AcDbEntity
  8
DV1_Default
  6
Continuous
 62
     7
 48
25.4
100
AcDbLine
 10
153.5827702767
 20
385.4791831535
 30
0.0
 11
155.9827702767
 21
387.8791831535
 31
0.0
  0
LINE
  5
D2
330
5C
100
AcDbEntity
  8
DV1_Default
  6
HIDDEN2
 62
     7
 48
25.4
100
AcDbLine
 10
215.9827702767
 20
387.8791831535
 30
0.0
 11
218.3827702767
 21
385.4791831535
 31
0.0
  0
LINE
  5
D3
330
5C
100
AcDbEntity
  8
DV1_Default
  6
Continuous
 62
     7
 48
25.4
100
AcDbLine
 10
155.9827702767
 20
383.3791831535
 30
0.0
 11
157.1827702767
 21
382.1791831535
 31
0.0
  0
LINE
  5
D4
330
5C
100
AcDbEntity
  8
DV1_Default
  6
Continuous
 62
     7
 48
25.4
100
AcDbLine
 10
216.8827702767
 20
325.1791831535
 30
0.0
 11
216.8827702767
 21
293.3791831535
 31
0.0
  0
LINE
  5
D5
330
5C
100
AcDbEntity
  8
DV1_Default
  6
Continuous
 62
     7
 48
25.4
100
AcDbLine
 10
161.9827702767
 20
293.3791831535
 30
0.0
 11
161.9827702767
 21
329.9791831535
 31
0.0
  0
LINE
  5
D6
330
5C
100
AcDbEntity
  8
DV1_Default
  6
Continuous
 62
     7
 48
25.4
100
AcDbLine
 10
176.3827702767
 20
347.6791831535
 30
0.0
 11
187.2042565432
 21
347.6791831535
 31
0.0
  0
LINE
  5
D7
330
5C
100
AcDbEntity
  8
DV1_Default
  6
Continuous
 62
     7
 48
25.4
100
AcDbLine
 10
175.7827702767
 20
330.5791831535
 30
0.0
 11
175.7827702767
 21
347.0791831535
 31
0.0
  0
LINE
  5
D8
330
5C
100
AcDbEntity
  8
DV1_Default
  6
Continuous
 62
     7
 48
25.4
100
AcDbLine
 10
175.7827702767
 20
308.3791831535
 30
0.0
 11
161.9827702767
 21
308.3791831535
 31
0.0
  0
LINE
  5
D9
330
5C
100
AcDbEntity
  8
DV1_Default
  6
Continuous
 62
     7
 48
25.4
100
AcDbLine
 10
175.7827702767
 20
293.3791831535
 30
0.0
 11
175.7827702767
 21
328.4791831535
 31
0.0
  0
LINE
  5
DA
330
5C
100
AcDbEntity
  8
DV1_Default
  6
Continuous
 62
     7
 48
25.4
100
AcDbLine
 10
175.7827702767
 20
328.4791831535
 30
0.0
 11
178.7827702767
 21
328.4791831535
 31
0.0
  0
LINE
  5
DB
330
5C
100
AcDbEntity
  8
DV1_Default
  6
Continuous
 62
     7
 48
25.4
100
AcDbLine
 10
178.7827702767
 20
328.4791831535
 30
0.0
 11
178.7827702767
 21
293.3791831535
 31
0.0
  0
LINE
  5
DC
330
5C
100
AcDbEntity
  8
DV1_Default
  6
Continuous
 62
     7
 48
25.4
100
AcDbLine
 10
175.7827702767
 20
327.8791831535
 30
0.0
 11
161.9827702767
 21
327.8791831535
 31
0.0
  0
LINE
  5
DD
330
5C
100
AcDbEntity
  8
DV1_Default
  6
Continuous
 62
     7
 48
25.4
100
AcDbLine
 10
161.9827702767
 20
327.2791831535
 30
0.0
 11
175.7827702767
 21
327.2791831535
 31
0.0
  0
LINE
  5
DE
330
5C
100
AcDbEntity
  8
DV1_Default
  6
Continuous
 62
     7
 48
25.4
100
AcDbLine
 10
161.9827702767
 20
329.9791831535
 30
0.0
 11
162.5827702767
 21
330.5791831535
 31
0.0
  0
LINE
  5
DF
330
5C
100
AcDbEntity
  8
DV1_Default
  6
Continuous
 62
     7
 48
25.4
100
AcDbLine
 10
187.5337940605
 20
325.1791831535
 30
0.0
 11
187.5337940605
 21
293.3791831535
 31
0.0
  0
LINE
  5
E0
330
5C
100
AcDbEntity
  8
DV1_Default
  6
Continuous
 62
     7
 48
25.4
100
AcDbLine
 10
186.3337940605
 20
326.3814311988
 30
0.0
 11
186.3337940605
 21
293.3791831535
 31
0.0
  0
LINE
  5
E1
330
5C
100
AcDbEntity
  8
DV1_Default
  6
Continuous
 62
     7
 48
25.4
100
AcDbLine
 10
162.5827702767
 20
256.1791831535
 30
0.0
 11
180.4886669689
 21
256.1791831535
 31
0.0
  0
LINE
  5
E2
330
5C
100
AcDbEntity
  8
DV1_Default
  6
Continuous
 62
     7
 48
25.4
100
AcDbLine
 10
180.4886669689
 20
254.3791831535
 30
0.0
 11
180.4886669689
 21
242.9791831535
 31
0.0
  0
LINE
  5
E3
330
5C
100
AcDbEntity
  8
DV1_Default
  6
Continuous
 62
     7
 48
25.4
100
AcDbLine
 10
186.3337940605
 20
326.596006503
 30
0.0
 11
186.3337940605
 21
326.3814311988
 31
0.0
  0
LINE
  5
E4
330
5C
100
AcDbEntity
  8
DV1_Default
  6
Continuous
 62
     7
 48
25.4
100
AcDbLine
 10
187.5360421058
 20
325.1791831535
 30
0.0
 11
186.3337940605
 21
326.3814311988
 31
0.0
  0
LINE
  5
E5
330
5C
100
AcDbEntity
  8
DV1_Default
  6
Continuous
 62
     7
 48
25.4
100
AcDbLine
 10
162.5827702767
 20
330.5791831535
 30
0.0
 11
180.4886669689
 21
330.5791831535
 31
0.0
  0
LINE
  5
E6
330
5C
100
AcDbEntity
  8
DV1_Default
  6
Continuous
 62
     7
 48
25.4
100
AcDbLine
 10
185.1251109351
 20
255.62151457
 30
0.0
 11
185.1251109351
 21
293.3791831535
 31
0.0
  0
LINE
  5
E7
330
5C
100
AcDbEntity
  8
DV1_Default
  6
Continuous
 62
     7
 48
25.4
100
AcDbLine
 10
178.7827702767
 20
261.2526297943
 30
0.0
 11
185.1251109351
 21
261.2526297943
 31
0.0
  0
LINE
  5
E8
330
5C
100
AcDbEntity
  8
DV1_Default
  6
Continuous
 62
     7
 48
25.4
100
AcDbLine
 10
180.4886669689
 20
330.5791831535
 30
0.0
 11
180.4886669689
 21
332.3791831535
 31
0.0
  0
LINE
  5
E9
330
5C
100
AcDbEntity
  8
DV1_Default
  6
Continuous
 62
     7
 48
25.4
100
AcDbLine
 10
180.4886669689
 20
332.3791831535
 30
0.0
 11
185.1251109351
 21
331.136851737
 31
0.0
  0
LINE
  5
EA
330
5C
100
AcDbEntity
  8
DV1_Default
  6
Continuous
 62
     7
 48
25.4
100
AcDbLine
 10
175.7827702767
 20
328.4791831535
 30
0.0
 11
178.7827702767
 21
328.4791831535
 31
0.0
  0
LINE
  5
EB
330
5C
100
AcDbEntity
  8
DV1_Default
  6
Continuous
 62
     7
 48
25.4
100
AcDbLine
 10
181.3509641073
 20
332.1481313316
 30
0.0
 11
181.3509641073
 21
325.5063409939
 31
0.0
  0
LINE
  5
EC
330
5C
100
AcDbEntity
  8
DV1_Default
  6
Continuous
 62
     7
 48
25.4
100
AcDbLine
 10
186.3337940605
 20
326.596006503
 30
0.0
 11
186.3337940605
 21
326.3814311988
 31
0.0
  0
LINE
  5
ED
330
5C
100
AcDbEntity
  8
DV1_Default
  6
Continuous
 62
     7
 48
25.4
100
AcDbLine
 10
187.5360421058
 20
325.1791831535
 30
0.0
 11
186.3337940605
 21
326.3814311988
 31
0.0
  0
LINE
  5
EE
330
5C
100
AcDbEntity
  8
DV1_Default
  6
Continuous
 62
     7
 48
25.4
100
AcDbLine
 10
178.7827702767
 20
325.5057365127
 30
0.0
 11
185.1251109351
 21
325.5057365127
 31
0.0
  0
LINE
  5
EF
330
5C
100
AcDbEntity
  8
DV1_Default
  6
Continuous
 62
     7
 48
25.4
100
AcDbLine
 10
185.1251109351
 20
331.136851737
 30
0.0
 11
185.1251109351
 21
293.3791831535
 31
0.0
  0
SPLINE
  5
F0
330
5C
100
AcDbEntity
  8
DV1_Default
  6
Continuous
 62
     7
 48
25.4
100
AcDbSpline
210
0.0
220
0.0
230
1.0
 70
     8
 71
     3
 72
    11
 73
     7
 74
     0
 42
0.0000000001
 43
0.0000000001
 40
0.0
 40
0.0
 40
0.0
 40
0.0
 40
0.1220190420956404
 40
0.5425998022683636
 40
0.8501696321318858
 40
1.0
 40
1.0
 40
1.0
 40
1.0
 10
157.1827702730391
 20
372.4490637520361
 30
0.0
 10
159.1899793126047
 20
371.2655348908102
 30
0.0
 10
168.4237266355096
 20
364.7698289444154
 30
0.0
 10
185.3538517238921
 20
369.0605280060147
 30
0.0
 10
185.720904792329
 20
343.4486292407219
 30
0.0
 10
198.4944138691366
 20
329.2759423919159
 30
0.0
 10
199.9844428114386
 20
326.5826356835825
 30
0.0
  0
LINE
  5
F1
330
5C
100
AcDbEntity
  8
DV1_Default
  6
Continuous
 62
     7
 48
25.4
100
AcDbLine
 10
215.1154886114
 20
326.596006503
 30
0.0
 11
215.1154886114
 21
334.0591831535
 31
0.0
  0
LINE
  5
F2
330
5C
100
AcDbEntity
  8
DV1_Default
  6
Continuous
 62
     7
 48
25.4
100
AcDbLine
 10
215.1154886114
 20
330.6275960567
 30
0.0
 11
215.7154886114
 21
330.6275960567
 31
0.0
  0
LINE
  5
F3
330
5C
100
AcDbEntity
  8
DV1_Default
  6
Continuous
 62
     7
 48
25.4
100
AcDbLine
 10
215.7154886114
 20
330.6275960567
 30
0.0
 11
218.3827702767
 21
329.0876402692
 31
0.0
  0
LINE
  5
F4
330
5C
100
AcDbEntity
  8
DV1_Default
  6
CENTER2
 62
     7
 48
25.4
100
AcDbLine
 10
211.8941476106
 20
375.2791831535
 30
0.0
 11
253.5427125541
 21
375.2791831535
 31
0.0
  0
LINE
  5
F5
330
5C
100
AcDbEntity
  8
DV1_Default
  6
CENTER2
 62
     7
 48
25.4
100
AcDbLine
 10
254.0975476981
 20
357.3129278631
 30
0.0
 11
211.6663450594
 21
357.3129278631
 31
0.0
  0
LINE
  5
F6
330
5C
100
AcDbEntity
  8
DV1_Default
  6
Continuous
 62
     7
 48
25.4
100
AcDbLine
 10
199.8342421393
 20
388.7277112909
 30
0.0
 11
199.8342421393
 21
378.8996091798
 31
0.0
  0
LINE
  5
F7
330
5C
100
AcDbEntity
  8
DV1_Default
  6
HIDDEN2
 62
     7
 48
25.4
100
AcDbLine
 10
179.4342421393
 20
387.8791831535
 30
0.0
 11
215.9827702767
 21
387.8791831535
 31
0.0
  0
LINE
  5
F8
330
5C
100
AcDbEntity
  8
DV1_Default
  6
Continuous
 62
     7
 48
25.4
100
AcDbLine
 10
249.4027702767
 20
387.8791831535
 30
0.0
 11
249.4027702767
 21
321.2791831535
 31
0.0
  0
LINE
  5
F9
330
5C
100
AcDbEntity
  8
DV1_Default
  6
Continuous
 62
     7
 48
25.4
100
AcDbLine
 10
219.4027702767
 20
354.8791831535
 30
0.0
 11
219.4027702767
 21
354.5791831535
 31
0.0
  0
LINE
  5
FA
330
5C
100
AcDbEntity
  8
DV1_Default
  6
Continuous
 62
     7
 48
25.4
100
AcDbLine
 10
219.4027702767
 20
354.2791831535
 30
0.0
 11
219.4027702767
 21
321.7591831535
 31
0.0
  0
LINE
  5
FB
330
5C
100
AcDbEntity
  8
DV1_Default
  6
Continuous
 62
     7
 48
25.4
100
AcDbLine
 10
219.4027702767
 20
354.2791831535
 30
0.0
 11
219.4027702767
 21
354.5791831535
 31
0.0
  0
LINE
  5
FC
330
5C
100
AcDbEntity
  8
DV1_Default
  6
Continuous
 62
     7
 48
25.4
100
AcDbLine
 10
219.8827702767
 20
321.2791831535
 30
0.0
 11
249.4027702767
 21
321.2791831535
 31
0.0
  0
LINE
  5
FD
330
5C
100
AcDbEntity
  8
DV1_Default
  6
Continuous
 62
     7
 48
25.4
100
AcDbLine
 10
221.8027702767
 20
321.8791831535
 30
0.0
 11
221.8027702767
 21
321.2791831535
 31
0.0
  0
LINE
  5
FE
330
5C
100
AcDbEntity
  8
DV1_Default
  6
Continuous
 62
     7
 48
25.4
100
AcDbLine
 10
215.9827702767
 20
259.7697863573
 30
0.0
 11
215.9827702767
 21
252.5697863573
 31
0.0
  0
LINE
  5
FF
330
5C
100
AcDbEntity
  8
DV1_Default
  6
Continuous
 62
     7
 48
25.4
100
AcDbLine
 10
215.6827702767
 20
258.2697863573
 30
0.0
 11
215.9827702767
 21
258.2697863573
 31
0.0
  0
LINE
  5
100
330
5C
100
AcDbEntity
  8
DV1_Default
  6
Continuous
 62
     7
 48
25.4
100
AcDbLine
 10
215.6827702767
 20
257.9697863573
 30
0.0
 11
215.9827702767
 21
257.9697863573
 31
0.0
  0
LINE
  5
101
330
5C
100
AcDbEntity
  8
DV1_Default
  6
Continuous
 62
     7
 48
25.4
100
AcDbLine
 10
215.6827702767
 20
257.6697863573
 30
0.0
 11
215.9827702767
 21
257.6697863573
 31
0.0
  0
LINE
  5
102
330
5C
100
AcDbEntity
  8
DV1_Default
  6
Continuous
 62
     7
 48
25.4
100
AcDbLine
 10
215.6827702767
 20
254.6697863573
 30
0.0
 11
215.9827702767
 21
254.6697863573
 31
0.0
  0
LINE
  5
103
330
5C
100
AcDbEntity
  8
DV1_Default
  6
Continuous
 62
     7
 48
25.4
100
AcDbLine
 10
215.6827702767
 20
254.3697863573
 30
0.0
 11
215.9827702767
 21
254.3697863573
 31
0.0
  0
LINE
  5
104
330
5C
100
AcDbEntity
  8
DV1_Default
  6
Continuous
 62
     7
 48
25.4
100
AcDbLine
 10
215.6827702767
 20
254.0697863573
 30
0.0
 11
215.9827702767
 21
254.0697863573
 31
0.0
  0
LINE
  5
105
330
5C
100
AcDbEntity
  8
DV1_Default
  6
CENTER2
 62
     7
 48
25.4
100
AcDbLine
 10
206.7487345348
 20
256.1697863573
 30
0.0
 11
221.9260687689
 21
256.1697863573
 31
0.0
  0
LINE
  5
106
330
5C
100
AcDbEntity
  8
DV1_Default
  6
HIDDEN2
 62
     7
 48
25.4
100
AcDbLine
 10
218.3827702767
 20
334.6591856104
 30
0.0
 11
218.3827702767
 21
385.4791831535
 31
0.0
  0
LINE
  5
107
330
5C
100
AcDbEntity
  8
DV1_Default
  6
Continuous
 62
     7
 48
25.4
100
AcDbLine
 10
218.3827702767
 20
334.0591831535
 30
0.0
 11
219.4027702767
 21
334.0591831535
 31
0.0
  0
LINE
  5
108
330
5C
100
AcDbEntity
  8
DV1_Default
  6
Continuous
 62
     7
 48
25.4
100
AcDbLine
 10
218.3827702767
 20
334.0591831535
 30
0.0
 11
215.1154886114
 21
334.0591831535
 31
0.0
  0
LINE
  5
109
330
5C
100
AcDbEntity
  8
DV1_Default
  6
Continuous
 62
     7
 48
25.4
100
AcDbLine
 10
219.4027702767
 20
387.3991831535
 30
0.0
 11
219.8827702767
 21
387.8791831535
 31
0.0
  0
LINE
  5
10A
330
5C
100
AcDbEntity
  8
DV1_Default
  6
Continuous
 62
     7
 48
25.4
100
AcDbLine
 10
219.8827702767
 20
387.8791831535
 30
0.0
 11
219.0342421393
 21
388.7277112909
 31
0.0
  0
LINE
  5
10B
330
5C
100
AcDbEntity
  8
DV1_Default
  6
Continuous
 62
     7
 48
25.4
100
AcDbLine
 10
219.8827702767
 20
387.8791831535
 30
0.0
 11
219.8827702767
 21
321.2791831535
 31
0.0
  0
LINE
  5
10C
330
5C
100
AcDbEntity
  8
DV1_Default
  6
Continuous
 62
     7
 48
25.4
100
AcDbLine
 10
219.4027702767
 20
321.7591831535
 30
0.0
 11
219.8827702767
 21
321.2791831535
 31
0.0
  0
LINE
  5
10D
330
5C
100
AcDbEntity
  8
DV1_Default
  6
Continuous
 62
     7
 48
25.4
100
AcDbLine
 10
219.4027702767
 20
334.0591831535
 30
0.0
 11
219.8827702767
 21
334.5391831535
 31
0.0
  0
LINE
  5
10E
330
5C
100
AcDbEntity
  8
DV1_Default
  6
Continuous
 62
     7
 48
25.4
100
AcDbLine
 10
221.2327702767
 20
383.9791831535
 30
0.0
 11
221.2327702767
 21
348.6129278631
 31
0.0
  0
LINE
  5
10F
330
5C
100
AcDbEntity
  8
DV1_Default
  6
Continuous
 62
     7
 48
25.4
100
AcDbLine
 10
199.8342421393
 20
388.7277112909
 30
0.0
 11
219.0342421393
 21
388.7277112909
 31
0.0
  0
LINE
  5
110
330
5C
100
AcDbEntity
  8
DV1_Default
  6
Continuous
 62
     7
 48
25.4
100
AcDbLine
 10
221.5027702767
 20
380.3769303283
 30
0.0
 11
221.2327702767
 21
380.3769303283
 31
0.0
  0
LINE
  5
111
330
5C
100
AcDbEntity
  8
DV1_Default
  6
Continuous
 62
     7
 48
25.4
100
AcDbLine
 10
221.5027702767
 20
380.0769303283
 30
0.0
 11
221.2327702767
 21
380.0769303283
 31
0.0
  0
LINE
  5
112
330
5C
100
AcDbEntity
  8
DV1_Default
  6
Continuous
 62
     7
 48
25.4
100
AcDbLine
 10
221.5027702767
 20
370.1769303283
 30
0.0
 11
221.2327702767
 21
370.1769303283
 31
0.0
  0
LINE
  5
113
330
5C
100
AcDbEntity
  8
DV1_Default
  6
Continuous
 62
     7
 48
25.4
100
AcDbLine
 10
221.5027702767
 20
370.4769303283
 30
0.0
 11
221.2327702767
 21
370.4769303283
 31
0.0
  0
LINE
  5
114
330
5C
100
AcDbEntity
  8
DV1_Default
  6
Continuous
 62
     7
 48
25.4
100
AcDbLine
 10
221.5027702767
 20
362.4151806882
 30
0.0
 11
221.2327702767
 21
362.4151806882
 31
0.0
  0
LINE
  5
115
330
5C
100
AcDbEntity
  8
DV1_Default
  6
Continuous
 62
     7
 48
25.4
100
AcDbLine
 10
221.5027702767
 20
362.1151806882
 30
0.0
 11
221.2327702767
 21
362.1151806882
 31
0.0
  0
LINE
  5
116
330
5C
100
AcDbEntity
  8
DV1_Default
  6
Continuous
 62
     7
 48
25.4
100
AcDbLine
 10
221.5027702767
 20
352.5151806882
 30
0.0
 11
221.2327702767
 21
352.5151806882
 31
0.0
  0
LINE
  5
117
330
5C
100
AcDbEntity
  8
DV1_Default
  6
Continuous
 62
     7
 48
25.4
100
AcDbLine
 10
221.5027702767
 20
352.2151806882
 30
0.0
 11
221.2327702767
 21
352.2151806882
 31
0.0
  0
LINE
  5
118
330
5C
100
AcDbEntity
  8
DV1_Default
  6
Continuous
 62
     7
 48
25.4
100
AcDbLine
 10
170.9827702767
 20
242.9791831535
 30
0.0
 11
180.4886669689
 21
242.9791831535
 31
0.0
  0
LINE
  5
119
330
5C
100
AcDbEntity
  8
DV1_Default
  6
Continuous
 62
     7
 48
25.4
100
AcDbLine
 10
170.9827702767
 20
256.1791831535
 30
0.0
 11
170.9827702767
 21
239.6791831535
 31
0.0
  0
LINE
  5
11A
330
5C
100
AcDbEntity
  8
DV1_Default
  6
Continuous
 62
     7
 48
25.4
100
AcDbLine
 10
186.3337940605
 20
326.596006503
 30
0.0
 11
185.1251109351
 21
326.596006503
 31
0.0
  0
LINE
  5
11B
330
5C
100
AcDbEntity
  8
DV1_Default
  6
Continuous
 62
     7
 48
25.4
100
AcDbLine
 10
185.1251109351
 20
326.596006503
 30
0.0
 11
215.1154886114
 21
326.596006503
 31
0.0
  0
LINE
  5
11C
330
5C
100
AcDbEntity
  8
DV1_Default
  6
Continuous
 62
     7
 48
25.4
100
AcDbLine
 10
216.8827702767
 20
325.1791831535
 30
0.0
 11
187.5337940605
 21
325.1791831535
 31
0.0
  0
LINE
  5
11D
330
5C
100
AcDbEntity
  8
DV1_Default
  6
Continuous
 62
     7
 48
25.4
100
AcDbLine
 10
186.3337940605
 20
260.162359804
 30
0.0
 11
185.1251109351
 21
260.162359804
 31
0.0
  0
LINE
  5
11E
330
5C
100
AcDbEntity
  8
DV1_Default
  6
Continuous
 62
     7
 48
25.4
100
AcDbLine
 10
185.1251109351
 20
260.162359804
 30
0.0
 11
215.1154886114
 21
260.162359804
 31
0.0
  0
LINE
  5
11F
330
5C
100
AcDbEntity
  8
DV1_Default
  6
Continuous
 62
     7
 48
25.4
100
AcDbLine
 10
216.8827702767
 20
261.5791831535
 30
0.0
 11
187.5337940605
 21
261.5791831535
 31
0.0
  0
ARC
  5
120
330
5C
100
AcDbEntity
  8
DV1_Default
  6
Continuous
 62
     7
 48
25.4
100
AcDbCircle
 10
171.5827702767
 20
239.6791831535
 30
0.0
 40
0.6
100
AcDbArc
 50
180.0
 51
270.0
  0
LINE
  5
121
330
5C
100
AcDbEntity
  8
DV1_Default
  6
Continuous
 62
     7
 48
25.4
100
AcDbLine
 10
171.5827702767
 20
239.0791831535
 30
0.0
 11
157.1827702767
 21
239.0791831535
 31
0.0
  0
ARC
  5
122
330
5C
100
AcDbEntity
  8
DV1_Default
  6
Continuous
 62
     7
 48
25.4
100
AcDbCircle
 10
176.3827702767
 20
347.0791831535
 30
0.0
 40
0.6
100
AcDbArc
 50
90.0
 51
180.0
  0
LINE
  5
123
330
5C
100
AcDbEntity
  8
DV1_Default
  6
Continuous
 62
     7
 48
25.4
100
AcDbLine
 10
176.3827702767
 20
347.6791831535
 30
0.0
 11
157.1827702767
 21
347.6791831535
 31
0.0
  0
ARC
  5
124
330
5C
100
AcDbEntity
  8
DV1_Default
  6
Continuous
 62
     7
 48
25.4
100
AcDbCircle
 10
201.3843178477
 20
239.6791831535
 30
0.0
 40
0.6
100
AcDbArc
 50
270.0
 51
360.0
  0
LINE
  5
125
330
5C
100
AcDbEntity
  8
DV1_Default
  6
Continuous
 62
     7
 48
25.4
100
AcDbLine
 10
137.3827702767
 20
247.3591831535
 30
0.0
 11
137.3827702767
 21
382.1791831535
 31
0.0
  0
LINE
  5
126
330
5C
100
AcDbEntity
  8
DV1_Default
  6
Continuous
 62
     7
 48
25.4
100
AcDbLine
 10
138.5827702767
 20
383.3791831535
 30
0.0
 11
137.3827702767
 21
382.1791831535
 31
0.0
  0
LINE
  5
127
330
5C
100
AcDbEntity
  8
DV1_Default
  6
Continuous
 62
     7
 48
25.4
100
AcDbLine
 10
138.5827702767
 20
203.3791831535
 30
0.0
 11
137.3827702767
 21
204.5791831535
 31
0.0
  0
LINE
  5
128
330
5C
100
AcDbEntity
  8
DV1_Default
  6
CENTER2
 62
     7
 48
25.4
100
AcDbLine
 10
119.4827395517
 20
241.9591831535
 30
0.0
 11
158.4390938783
 21
241.9591831535
 31
0.0
  0
LINE
  5
129
330
5C
100
AcDbEntity
  8
DV1_Default
  6
Continuous
 62
     7
 48
25.4
100
AcDbLine
 10
157.1827702767
 20
249.1591831535
 30
0.0
 11
146.3827702767
 21
249.1591831535
 31
0.0
  0
LINE
  5
12A
330
5C
100
AcDbEntity
  8
DV1_Default
  6
Continuous
 62
     7
 48
25.4
100
AcDbLine
 10
146.3827702767
 20
249.1591831535
 30
0.0
 11
146.3827702767
 21
241.9591831535
 31
0.0
  0
LINE
  5
12B
330
5C
100
AcDbEntity
  8
DV1_Default
  6
Continuous
 62
     7
 48
25.4
100
AcDbLine
 10
146.3827702767
 20
248.5591831535
 30
0.0
 11
155.3827702767
 21
248.5591831535
 31
0.0
  0
LINE
  5
12C
330
5C
100
AcDbEntity
  8
DV1_Default
  6
Continuous
 62
     7
 48
25.4
100
AcDbLine
 10
155.9827702767
 20
247.9591831535
 30
0.0
 11
155.9827702767
 21
241.9591831535
 31
0.0
  0
LINE
  5
12D
330
5C
100
AcDbEntity
  8
DV1_Default
  6
Continuous
 62
     7
 48
25.4
100
AcDbLine
 10
155.9827702767
 20
247.9591831535
 30
0.0
 11
155.3827702767
 21
248.5591831535
 31
0.0
  0
LINE
  5
12E
330
5C
100
AcDbEntity
  8
DV1_Default
  6
Continuous
 62
     7
 48
25.4
100
AcDbLine
 10
155.3827702767
 20
248.5591831535
 30
0.0
 11
155.3827702767
 21
241.9591831535
 31
0.0
  0
LINE
  5
12F
330
5C
100
AcDbEntity
  8
DV1_Default
  6
Continuous
 62
     7
 48
25.4
100
AcDbLine
 10
146.3827702767
 20
241.9591831535
 30
0.0
 11
146.3827702767
 21
246.7591831535
 31
0.0
  0
LINE
  5
130
330
5C
100
AcDbEntity
  8
DV1_Default
  6
Continuous
 62
     7
 48
25.4
100
AcDbLine
 10
146.3827702767
 20
246.7591831535
 30
0.0
 11
137.3827702767
 21
246.7591831535
 31
0.0
  0
LINE
  5
131
330
5C
100
AcDbEntity
  8
DV1_Default
  6
Continuous
 62
     7
 48
25.4
100
AcDbLine
 10
137.3827702767
 20
246.7591831535
 30
0.0
 11
122.9827702767
 21
246.7591831535
 31
0.0
  0
LINE
  5
132
330
5C
100
AcDbEntity
  8
DV1_Default
  6
Continuous
 62
     7
 48
25.4
100
AcDbLine
 10
122.9827702767
 20
246.7591831535
 30
0.0
 11
122.9827702767
 21
241.9591831535
 31
0.0
  0
LINE
  5
133
330
5C
100
AcDbEntity
  8
DV1_Default
  6
Continuous
 62
     7
 48
25.4
100
AcDbLine
 10
146.3827702767
 20
246.7591831535
 30
0.0
 11
146.3827702767
 21
247.3591831535
 31
0.0
  0
LINE
  5
134
330
5C
100
AcDbEntity
  8
DV1_Default
  6
Continuous
 62
     7
 48
25.4
100
AcDbLine
 10
146.3827702767
 20
247.3591831535
 30
0.0
 11
137.3827702767
 21
247.3591831535
 31
0.0
  0
LINE
  5
135
330
5C
100
AcDbEntity
  8
DV1_Default
  6
Continuous
 62
     7
 48
25.4
100
AcDbLine
 10
146.3827702767
 20
246.7591831535
 30
0.0
 11
146.3827702767
 21
246.1591831535
 31
0.0
  0
LINE
  5
136
330
5C
100
AcDbEntity
  8
DV1_Default
  6
Continuous
 62
     7
 48
25.4
100
AcDbLine
 10
146.3827702767
 20
246.1591831535
 30
0.0
 11
122.9827702767
 21
246.1591831535
 31
0.0
  0
LINE
  5
137
330
5C
100
AcDbEntity
  8
DV1_Default
  6
Continuous
 62
     7
 48
25.4
100
AcDbLine
 10
157.1827702767
 20
234.7591831535
 30
0.0
 11
146.3827702767
 21
234.7591831535
 31
0.0
  0
LINE
  5
138
330
5C
100
AcDbEntity
  8
DV1_Default
  6
Continuous
 62
     7
 48
25.4
100
AcDbLine
 10
146.3827702767
 20
234.7591831535
 30
0.0
 11
146.3827702767
 21
241.9591831535
 31
0.0
  0
LINE
  5
139
330
5C
100
AcDbEntity
  8
DV1_Default
  6
Continuous
 62
     7
 48
25.4
100
AcDbLine
 10
146.3827702767
 20
235.3591831535
 30
0.0
 11
155.3827702767
 21
235.3591831535
 31
0.0
  0
LINE
  5
13A
330
5C
100
AcDbEntity
  8
DV1_Default
  6
Continuous
 62
     7
 48
25.4
100
AcDbLine
 10
155.9827702767
 20
235.9591831535
 30
0.0
 11
155.9827702767
 21
241.9591831535
 31
0.0
  0
LINE
  5
13B
330
5C
100
AcDbEntity
  8
DV1_Default
  6
Continuous
 62
     7
 48
25.4
100
AcDbLine
 10
155.9827702767
 20
235.9591831535
 30
0.0
 11
155.3827702767
 21
235.3591831535
 31
0.0
  0
LINE
  5
13C
330
5C
100
AcDbEntity
  8
DV1_Default
  6
Continuous
 62
     7
 48
25.4
100
AcDbLine
 10
155.3827702767
 20
235.3591831535
 30
0.0
 11
155.3827702767
 21
241.9591831535
 31
0.0
  0
LINE
  5
13D
330
5C
100
AcDbEntity
  8
DV1_Default
  6
Continuous
 62
     7
 48
25.4
100
AcDbLine
 10
146.3827702767
 20
241.9591831535
 30
0.0
 11
146.3827702767
 21
237.1591831535
 31
0.0
  0
LINE
  5
13E
330
5C
100
AcDbEntity
  8
DV1_Default
  6
Continuous
 62
     7
 48
25.4
100
AcDbLine
 10
146.3827702767
 20
237.1591831535
 30
0.0
 11
137.3827702767
 21
237.1591831535
 31
0.0
  0
LINE
  5
13F
330
5C
100
AcDbEntity
  8
DV1_Default
  6
Continuous
 62
     7
 48
25.4
100
AcDbLine
 10
137.3827702767
 20
237.1591831535
 30
0.0
 11
122.9827702767
 21
237.1591831535
 31
0.0
  0
LINE
  5
140
330
5C
100
AcDbEntity
  8
DV1_Default
  6
Continuous
 62
     7
 48
25.4
100
AcDbLine
 10
122.9827702767
 20
237.1591831535
 30
0.0
 11
122.9827702767
 21
241.9591831535
 31
0.0
  0
LINE
  5
141
330
5C
100
AcDbEntity
  8
DV1_Default
  6
Continuous
 62
     7
 48
25.4
100
AcDbLine
 10
146.3827702767
 20
237.1591831535
 30
0.0
 11
146.3827702767
 21
236.5591831535
 31
0.0
  0
LINE
  5
142
330
5C
100
AcDbEntity
  8
DV1_Default
  6
Continuous
 62
     7
 48
25.4
100
AcDbLine
 10
146.3827702767
 20
236.5591831535
 30
0.0
 11
137.3827702767
 21
236.5591831535
 31
0.0
  0
LINE
  5
143
330
5C
100
AcDbEntity
  8
DV1_Default
  6
Continuous
 62
     7
 48
25.4
100
AcDbLine
 10
146.3827702767
 20
237.1591831535
 30
0.0
 11
146.3827702767
 21
237.7591831535
 31
0.0
  0
LINE
  5
144
330
5C
100
AcDbEntity
  8
DV1_Default
  6
Continuous
 62
     7
 48
25.4
100
AcDbLine
 10
146.3827702767
 20
237.7591831535
 30
0.0
 11
122.9827702767
 21
237.7591831535
 31
0.0
  0
LINE
  5
145
330
5C
100
AcDbEntity
  8
DV1_Default
  6
Continuous
 62
     7
 48
25.4
100
AcDbLine
 10
157.1827702767
 20
253.4526853732
 30
0.0
 11
153.5827702767
 21
253.4526853732
 31
0.0
  0
LINE
  5
146
330
5C
100
AcDbEntity
  8
DV1_Default
  6
Continuous
 62
     7
 48
25.4
100
AcDbLine
 10
137.3827702767
 20
251.4634831535
 30
0.0
 11
153.5827702767
 21
253.4526853732
 31
0.0
  0
LINE
  5
147
330
5C
100
AcDbEntity
  8
DV1_Default
  6
Continuous
 62
     7
 48
25.4
100
AcDbLine
 10
157.1827702767
 20
333.3056809338
 30
0.0
 11
153.5827702767
 21
333.3056809338
 31
0.0
  0
LINE
  5
148
330
5C
100
AcDbEntity
  8
DV1_Default
  6
Continuous
 62
     7
 48
25.4
100
AcDbLine
 10
137.3827702767
 20
335.2948831535
 30
0.0
 11
153.5827702767
 21
333.3056809338
 31
0.0
  0
LINE
  5
149
330
5C
100
AcDbEntity
  8
DV1_Default
  6
Continuous
 62
     7
 48
25.4
100
AcDbLine
 10
137.3827702767
 20
204.5791831535
 30
0.0
 11
137.3827702767
 21
236.5591831535
 31
0.0
  0
LINE
  5
14A
330
5C
100
AcDbEntity
  8
DV1_Default
  6
Continuous
 62
     7
 48
25.4
100
AcDbLine
 10
157.1827702767
 20
204.5791831535
 30
0.0
 11
157.1827702767
 21
216.5791831535
 31
0.0
  0
ENDBLK
  5
14C
330
5C
100
AcDbEntity
  8
0
100
AcDbBlockEnd
  0
BLOCK
  5
20B
330
14D
100
AcDbEntity
  8
0
100
AcDbBlockBegin
  2
SE1
 70
     0
 71
     0
 10
0.0
 20
0.0
 30
0.0
  3
SE1
  1

  0
LINE
  5
150
330
14D
100
AcDbEntity
  8
DV2_Default
  6
CENTER2
 62
     7
 48
25.4
100
AcDbLine
 10
433.7513267327
 20
387.5873295266
 30
0.0
 11
433.7513267327
 21
186.748948753
 31
0.0
  0
CIRCLE
  5
151
330
14D
100
AcDbEntity
  8
DV2_Default
  6
Continuous
 62
     7
 48
25.4
100
AcDbCircle
 10
433.7513267327
 20
287.9782742187
 30
0.0
 40
15.0
  0
LINE
  5
152
330
14D
100
AcDbEntity
  8
DV2_Default
  6
Continuous
 62
     7
 48
25.4
100
AcDbLine
 10
418.7513267327
 20
382.7782742187
 30
0.0
 11
418.7513267327
 21
316.1782742187
 31
0.0
  0
LINE
  5
153
330
14D
100
AcDbEntity
  8
DV2_Default
  6
Continuous
 62
     7
 48
25.4
100
AcDbLine
 10
448.7513267327
 20
382.7782742187
 30
0.0
 11
448.7513267327
 21
316.1782742187
 31
0.0
  0
LINE
  5
154
330
14D
100
AcDbEntity
  8
DV2_Default
  6
Continuous
 62
     7
 48
25.4
100
AcDbLine
 10
448.7513267327
 20
316.1782742187
 30
0.0
 11
418.7513267327
 21
316.1782742187
 31
0.0
  0
LINE
  5
155
330
14D
100
AcDbEntity
  8
DV2_Default
  6
Continuous
 62
     7
 48
25.4
100
AcDbLine
 10
418.7513267327
 20
382.7782742187
 30
0.0
 11
448.7513267327
 21
382.7782742187
 31
0.0
  0
CIRCLE
  5
156
330
14D
100
AcDbEntity
  8
DV2_Default
  6
Continuous
 62
     7
 48
25.4
100
AcDbCircle
 10
433.7515865985
 20
370.1782742187
 30
0.0
 40
7.499999999999999
  0
CIRCLE
  5
157
330
14D
100
AcDbEntity
  8
DV2_Default
  6
Continuous
 62
     7
 48
25.4
100
AcDbCircle
 10
433.7515865985
 20
370.1782742187
 30
0.0
 40
7.2
  0
LINE
  5
158
330
14D
100
AcDbEntity
  8
DV2_Default
  6
CENTER2
 62
     7
 48
25.4
100
AcDbLine
 10
424.1515865985
 20
370.1782742187
 30
0.0
 11
443.0515865985
 21
370.1782742187
 31
0.0
  0
LINE
  5
159
330
14D
100
AcDbEntity
  8
DV2_Default
  6
Continuous
 62
     7
 48
25.4
100
AcDbLine
 10
433.7515865985
 20
374.9782742187
 30
0.0
 11
429.5946646603
 21
372.5782742187
 31
0.0
  0
LINE
  5
15A
330
14D
100
AcDbEntity
  8
DV2_Default
  6
Continuous
 62
     7
 48
25.4
100
AcDbLine
 10
429.5946646603
 20
372.5782742187
 30
0.0
 11
429.5946646603
 21
367.7782742187
 31
0.0
  0
LINE
  5
15B
330
14D
100
AcDbEntity
  8
DV2_Default
  6
Continuous
 62
     7
 48
25.4
100
AcDbLine
 10
429.5946646603
 20
367.7782742187
 30
0.0
 11
433.7515865985
 21
365.3782742187
 31
0.0
  0
LINE
  5
15C
330
14D
100
AcDbEntity
  8
DV2_Default
  6
Continuous
 62
     7
 48
25.4
100
AcDbLine
 10
433.7515865985
 20
365.3782742187
 30
0.0
 11
437.9085085367
 21
367.7782742187
 31
0.0
  0
LINE
  5
15D
330
14D
100
AcDbEntity
  8
DV2_Default
  6
Continuous
 62
     7
 48
25.4
100
AcDbLine
 10
437.9085085367
 20
367.7782742187
 30
0.0
 11
437.9085085367
 21
372.5782742187
 31
0.0
  0
LINE
  5
15E
330
14D
100
AcDbEntity
  8
DV2_Default
  6
Continuous
 62
     7
 48
25.4
100
AcDbLine
 10
437.9085085367
 20
372.5782742187
 30
0.0
 11
433.7515865985
 21
374.9782742187
 31
0.0
  0
CIRCLE
  5
15F
330
14D
100
AcDbEntity
  8
DV2_Default
  6
Continuous
 62
     7
 48
25.4
100
AcDbCircle
 10
433.7515865985
 20
352.1782742187
 30
0.0
 40
7.499999999999999
  0
CIRCLE
  5
160
330
14D
100
AcDbEntity
  8
DV2_Default
  6
Continuous
 62
     7
 48
25.4
100
AcDbCircle
 10
433.7515865985
 20
352.1782742187
 30
0.0
 40
7.2
  0
LINE
  5
161
330
14D
100
AcDbEntity
  8
DV2_Default
  6
CENTER2
 62
     7
 48
25.4
100
AcDbLine
 10
424.1515865985
 20
352.1782742187
 30
0.0
 11
443.0515865985
 21
352.1782742187
 31
0.0
  0
LINE
  5
162
330
14D
100
AcDbEntity
  8
DV2_Default
  6
Continuous
 62
     7
 48
25.4
100
AcDbLine
 10
433.7515865985
 20
347.3782742187
 30
0.0
 11
429.5946646603
 21
349.7782742187
 31
0.0
  0
LINE
  5
163
330
14D
100
AcDbEntity
  8
DV2_Default
  6
Continuous
 62
     7
 48
25.4
100
AcDbLine
 10
429.5946646603
 20
349.7782742187
 30
0.0
 11
429.5946646603
 21
354.5782742187
 31
0.0
  0
LINE
  5
164
330
14D
100
AcDbEntity
  8
DV2_Default
  6
Continuous
 62
     7
 48
25.4
100
AcDbLine
 10
429.5946646603
 20
354.5782742187
 30
0.0
 11
433.7515865985
 21
356.9782742187
 31
0.0
  0
LINE
  5
165
330
14D
100
AcDbEntity
  8
DV2_Default
  6
Continuous
 62
     7
 48
25.4
100
AcDbLine
 10
433.7515865985
 20
356.9782742187
 30
0.0
 11
437.9085085367
 21
354.5782742187
 31
0.0
  0
LINE
  5
166
330
14D
100
AcDbEntity
  8
DV2_Default
  6
Continuous
 62
     7
 48
25.4
100
AcDbLine
 10
437.9085085367
 20
354.5782742187
 30
0.0
 11
437.9085085367
 21
349.7782742187
 31
0.0
  0
LINE
  5
167
330
14D
100
AcDbEntity
  8
DV2_Default
  6
Continuous
 62
     7
 48
25.4
100
AcDbLine
 10
437.9085085367
 20
349.7782742187
 30
0.0
 11
433.7515865985
 21
347.3782742187
 31
0.0
  0
LINE
  5
168
330
14D
100
AcDbEntity
  8
DV2_Default
  6
Continuous
 62
     7
 48
25.4
100
AcDbLine
 10
433.7513267327
 20
382.7782742187
 30
0.0
 11
433.7513267327
 21
383.3782742187
 31
0.0
  0
LINE
  5
169
330
14D
100
AcDbEntity
  8
DV2_Default
  6
Continuous
 62
     7
 48
25.4
100
AcDbLine
 10
433.7513267327
 20
383.3782742187
 30
0.0
 11
418.7513267327
 21
383.3782742187
 31
0.0
  0
LINE
  5
16A
330
14D
100
AcDbEntity
  8
DV2_Default
  6
Continuous
 62
     7
 48
25.4
100
AcDbLine
 10
418.7513267327
 20
383.3782742187
 30
0.0
 11
418.1513267327
 21
383.3782742187
 31
0.0
  0
LINE
  5
16B
330
14D
100
AcDbEntity
  8
DV2_Default
  6
Continuous
 62
     7
 48
25.4
100
AcDbLine
 10
418.1513267327
 20
383.3782742187
 30
0.0
 11
409.0211841762
 21
380.4117110727
 31
0.0
  0
LINE
  5
16C
330
14D
100
AcDbEntity
  8
DV2_Default
  6
Continuous
 62
     7
 48
25.4
100
AcDbLine
 10
409.0211841762
 20
380.4117110727
 30
0.0
 11
409.0211841762
 21
379.1850176598
 31
0.0
  0
LINE
  5
16D
330
14D
100
AcDbEntity
  8
DV2_Default
  6
Continuous
 62
     7
 48
25.4
100
AcDbLine
 10
418.7513267327
 20
382.7782742187
 30
0.0
 11
418.7513267327
 21
383.3782742187
 31
0.0
  0
LINE
  5
16E
330
14D
100
AcDbEntity
  8
DV2_Default
  6
Continuous
 62
     7
 48
25.4
100
AcDbLine
 10
433.7518464643
 20
382.7782742187
 30
0.0
 11
433.7518464643
 21
383.3782742187
 31
0.0
  0
LINE
  5
16F
330
14D
100
AcDbEntity
  8
DV2_Default
  6
Continuous
 62
     7
 48
25.4
100
AcDbLine
 10
433.7518464643
 20
383.3782742187
 30
0.0
 11
448.7518464643
 21
383.3782742187
 31
0.0
  0
LINE
  5
170
330
14D
100
AcDbEntity
  8
DV2_Default
  6
Continuous
 62
     7
 48
25.4
100
AcDbLine
 10
448.7518464643
 20
383.3782742187
 30
0.0
 11
449.3518464643
 21
383.3782742187
 31
0.0
  0
LINE
  5
171
330
14D
100
AcDbEntity
  8
DV2_Default
  6
Continuous
 62
     7
 48
25.4
100
AcDbLine
 10
449.3518464643
 20
383.3782742187
 30
0.0
 11
458.4819890208
 21
380.4117110727
 31
0.0
  0
LINE
  5
172
330
14D
100
AcDbEntity
  8
DV2_Default
  6
Continuous
 62
     7
 48
25.4
100
AcDbLine
 10
458.4819890208
 20
380.4117110727
 30
0.0
 11
458.4819890208
 21
379.1850176598
 31
0.0
  0
LINE
  5
173
330
14D
100
AcDbEntity
  8
DV2_Default
  6
Continuous
 62
     7
 48
25.4
100
AcDbLine
 10
448.7518464643
 20
382.7782742187
 30
0.0
 11
448.7518464643
 21
383.3782742187
 31
0.0
  0
ARC
  5
174
330
14D
100
AcDbEntity
  8
DV2_Default
  6
Continuous
 62
     7
 48
25.4
100
AcDbCircle
 10
433.7513267327
 20
287.9782742187
 30
0.0
 40
94.5
100
AcDbArc
 50
219.1331977837
 51
320.8668022163
  0
ARC
  5
175
330
14D
100
AcDbEntity
  8
DV2_Default
  6
Continuous
 62
     7
 48
25.4
100
AcDbCircle
 10
433.7513267327
 20
287.9782742187
 30
0.0
 40
32.4
100
AcDbArc
 50
117.5784679781
 51
62.4215320219
  0
LINE
  5
176
330
14D
100
AcDbEntity
  8
DV2_Default
  6
Continuous
 62
     7
 48
25.4
100
AcDbLine
 10
465.05512929
 20
305.3600367502
 30
0.0
 11
466.25512929
 21
305.3600367502
 31
0.0
  0
LINE
  5
177
330
14D
100
AcDbEntity
  8
DV2_Default
  6
Continuous
 62
     7
 48
25.4
100
AcDbLine
 10
466.25512929
 20
305.3600367502
 30
0.0
 11
466.85512929
 21
306.3992672347
 31
0.0
  0
LINE
  5
178
330
14D
100
AcDbEntity
  8
DV2_Default
  6
Continuous
 62
     7
 48
25.4
100
AcDbLine
 10
466.85512929
 20
306.3992672347
 30
0.0
 11
466.25512929
 21
307.4384977192
 31
0.0
  0
LINE
  5
179
330
14D
100
AcDbEntity
  8
DV2_Default
  6
Continuous
 62
     7
 48
25.4
100
AcDbLine
 10
466.25512929
 20
307.4384977192
 30
0.0
 11
465.05512929
 21
307.4384977192
 31
0.0
  0
LINE
  5
17A
330
14D
100
AcDbEntity
  8
DV2_Default
  6
Continuous
 62
     7
 48
25.4
100
AcDbLine
 10
465.05512929
 20
307.4384977192
 30
0.0
 11
464.45512929
 21
306.3992672347
 31
0.0
  0
LINE
  5
17B
330
14D
100
AcDbEntity
  8
DV2_Default
  6
Continuous
 62
     7
 48
25.4
100
AcDbLine
 10
465.05512929
 20
305.3600367502
 30
0.0
 11
464.45512929
 21
306.3992672347
 31
0.0
  0
CIRCLE
  5
17C
330
14D
100
AcDbEntity
  8
DV2_Default
  6
Continuous
 62
     7
 48
25.4
100
AcDbCircle
 10
465.6557026081
 20
306.3982742187
 30
0.0
 40
3.6
  0
CIRCLE
  5
17D
330
14D
100
AcDbEntity
  8
DV2_Default
  6
Continuous
 62
     7
 48
25.4
100
AcDbCircle
 10
494.8061176995
 20
323.2282742187
 30
0.0
 40
9.6
  0
CIRCLE
  5
17E
330
14D
100
AcDbEntity
  8
DV2_Default
  6
Continuous
 62
     7
 48
25.4
100
AcDbCircle
 10
494.8061176995
 20
323.2282742187
 30
0.0
 40
9.0
  0
LINE
  5
17F
330
14D
100
AcDbEntity
  8
DV2_Default
  6
Continuous
 62
     7
 48
25.4
100
AcDbLine
 10
489.6099652768
 20
320.2282742187
 30
0.0
 11
494.8061176995
 21
317.2282742187
 31
0.0
  0
LINE
  5
180
330
14D
100
AcDbEntity
  8
DV2_Default
  6
Continuous
 62
     7
 48
25.4
100
AcDbLine
 10
494.8061176995
 20
317.2282742187
 30
0.0
 11
500.0022701222
 21
320.2282742187
 31
0.0
  0
LINE
  5
181
330
14D
100
AcDbEntity
  8
DV2_Default
  6
Continuous
 62
     7
 48
25.4
100
AcDbLine
 10
500.0022701222
 20
320.2282742187
 30
0.0
 11
500.0022701222
 21
326.2282742187
 31
0.0
  0
LINE
  5
182
330
14D
100
AcDbEntity
  8
DV2_Default
  6
Continuous
 62
     7
 48
25.4
100
AcDbLine
 10
500.0022701222
 20
326.2282742187
 30
0.0
 11
494.8061176995
 21
329.2282742187
 31
0.0
  0
LINE
  5
183
330
14D
100
AcDbEntity
  8
DV2_Default
  6
Continuous
 62
     7
 48
25.4
100
AcDbLine
 10
494.8061176995
 20
329.2282742187
 30
0.0
 11
489.6099652768
 21
326.2282742187
 31
0.0
  0
LINE
  5
184
330
14D
100
AcDbEntity
  8
DV2_Default
  6
Continuous
 62
     7
 48
25.4
100
AcDbLine
 10
489.6099652768
 20
326.2282742187
 30
0.0
 11
489.6099652768
 21
320.2282742187
 31
0.0
  0
ARC
  5
185
330
14D
100
AcDbEntity
  8
DV2_Default
  6
CENTER2
 62
     7
 48
25.4
100
AcDbCircle
 10
433.7513267327
 20
287.9782742187
 30
0.0
 40
70.5
100
AcDbArc
 50
22.1919811195
 51
37.8080188805
  0
LINE
  5
186
330
14D
100
AcDbEntity
  8
DV2_Default
  6
CENTER2
 62
     7
 48
25.4
100
AcDbLine
 10
462.5381719666
 20
304.5979957127
 30
0.0
 11
468.9113860847
 21
308.2775725994
 31
0.0
  0
ARC
  5
187
330
14D
100
AcDbEntity
  8
DV2_Default
  6
CENTER2
 62
     7
 48
25.4
100
AcDbCircle
 10
433.7513267327
 20
287.9782742187
 30
0.0
 40
36.84
100
AcDbArc
 50
24.3988337776
 51
35.6011662224
  0
LINE
  5
188
330
14D
100
AcDbEntity
  8
DV2_Default
  6
Continuous
 62
     7
 48
25.4
100
AcDbLine
 10
347.9825032116
 20
245.7342342625
 30
0.0
 11
381.1079749064
 21
264.8592342625
 31
0.0
  0
LINE
  5
189
330
14D
100
AcDbEntity
  8
DV2_Default
  6
Continuous
 62
     7
 48
25.4
100
AcDbLine
 10
354.2825032116
 20
234.8223141749
 30
0.0
 11
387.4079749064
 21
253.9473141749
 31
0.0
  0
ARC
  5
18A
330
14D
100
AcDbEntity
  8
DV2_Default
  6
Continuous
 62
     7
 48
25.4
100
AcDbCircle
 10
390.3941418715
 20
262.9459918678
 30
0.0
 40
6.313266812213385
100
AcDbArc
 50
296.2849049344
 51
123.7150950656
  0
ARC
  5
18B
330
14D
100
AcDbEntity
  8
DV2_Default
  6
Continuous
 62
     7
 48
25.4
100
AcDbCircle
 10
392.754647971
 20
264.3088306998
 30
0.0
 40
6.281823304212476
100
AcDbArc
 50
297.7290057246
 51
122.2709942754
  0
LINE
  5
18C
330
14D
100
AcDbEntity
  8
DV2_Default
  6
Continuous
 62
     7
 48
25.4
100
AcDbLine
 10
359.1521184539
 20
227.5878931619
 30
0.0
 11
409.2130629695
 21
256.4905929539
 31
0.0
  0
LINE
  5
18D
330
14D
100
AcDbEntity
  8
DV2_Default
  6
Continuous
 62
     7
 48
25.4
100
AcDbLine
 10
344.1521184539
 20
253.5686552755
 30
0.0
 11
394.2130629695
 21
282.4713550674
 31
0.0
  0
LINE
  5
18E
330
14D
100
AcDbEntity
  8
DV2_Default
  6
Continuous
 62
     7
 48
25.4
100
AcDbLine
 10
351.1325032116
 20
240.2782742187
 30
0.0
 11
358.6325032116
 21
227.2878931619
 31
0.0
  0
LINE
  5
18F
330
14D
100
AcDbEntity
  8
DV2_Default
  6
Continuous
 62
     7
 48
25.4
100
AcDbLine
 10
358.6325032116
 20
227.2878931619
 30
0.0
 11
358.9325032116
 21
226.7682779197
 31
0.0
  0
LINE
  5
190
330
14D
100
AcDbEntity
  8
DV2_Default
  6
Continuous
 62
     7
 48
25.4
100
AcDbLine
 10
358.9325032116
 20
226.7682779197
 30
0.0
 11
366.0666935362
 21
220.3446240986
 31
0.0
  0
LINE
  5
191
330
14D
100
AcDbEntity
  8
DV2_Default
  6
Continuous
 62
     7
 48
25.4
100
AcDbLine
 10
366.0666935362
 20
220.3446240986
 30
0.0
 11
367.1290411944
 21
220.9579708051
 31
0.0
  0
LINE
  5
192
330
14D
100
AcDbEntity
  8
DV2_Default
  6
Continuous
 62
     7
 48
25.4
100
AcDbLine
 10
359.1521184539
 20
227.5878931619
 30
0.0
 11
358.6325032116
 21
227.2878931619
 31
0.0
  0
LINE
  5
193
330
14D
100
AcDbEntity
  8
DV2_Default
  6
Continuous
 62
     7
 48
25.4
100
AcDbLine
 10
351.1322433458
 20
240.2787243195
 30
0.0
 11
343.6322433458
 21
253.2691053763
 31
0.0
  0
LINE
  5
194
330
14D
100
AcDbEntity
  8
DV2_Default
  6
Continuous
 62
     7
 48
25.4
100
AcDbLine
 10
343.6322433458
 20
253.2691053763
 30
0.0
 11
343.3322433458
 21
253.7887206186
 31
0.0
  0
LINE
  5
195
330
14D
100
AcDbEntity
  8
DV2_Default
  6
Continuous
 62
     7
 48
25.4
100
AcDbLine
 10
343.3322433458
 20
253.7887206186
 30
0.0
 11
341.3362911139
 21
263.1789375856
 31
0.0
  0
LINE
  5
196
330
14D
100
AcDbEntity
  8
DV2_Default
  6
Continuous
 62
     7
 48
25.4
100
AcDbLine
 10
341.3362911139
 20
263.1789375856
 30
0.0
 11
342.3986387721
 21
263.792284292
 31
0.0
  0
LINE
  5
197
330
14D
100
AcDbEntity
  8
DV2_Default
  6
Continuous
 62
     7
 48
25.4
100
AcDbLine
 10
344.1518585881
 20
253.5691053763
 30
0.0
 11
343.6322433458
 21
253.2691053763
 31
0.0
  0
LINE
  5
198
330
14D
100
AcDbEntity
  8
DV2_Default
  6
Continuous
 62
     7
 48
25.4
100
AcDbLine
 10
390.6830636126
 20
280.4333089885
 30
0.0
 11
395.0330636126
 21
272.8988879756
 31
0.0
  0
LINE
  5
199
330
14D
100
AcDbEntity
  8
DV2_Default
  6
Continuous
 62
     7
 48
25.4
100
AcDbLine
 10
401.3330636126
 20
261.9869678879
 30
0.0
 11
405.6830636126
 21
254.4525468749
 31
0.0
  0
LINE
  5
19A
330
14D
100
AcDbEntity
  8
DV2_Default
  6
Continuous
 62
     7
 48
25.4
100
AcDbLine
 10
347.9825032116
 20
245.7342342625
 30
0.0
 11
353.1786556343
 21
248.7342342625
 31
0.0
  0
LINE
  5
19B
330
14D
100
AcDbEntity
  8
DV2_Default
  6
CENTER2
 62
     7
 48
25.4
100
AcDbLine
 10
370.0227040949
 20
240.5594865237
 30
0.0
 11
360.0999592775
 21
257.746184698
 31
0.0
  0
LINE
  5
19C
330
14D
100
AcDbEntity
  8
DV2_Default
  6
Continuous
 62
     7
 48
25.4
100
AcDbLine
 10
359.4786556343
 20
237.8223141749
 30
0.0
 11
353.1786556343
 21
248.7342342625
 31
0.0
  0
LINE
  5
19D
330
14D
100
AcDbEntity
  8
DV2_Default
  6
CENTER2
 62
     7
 48
25.4
100
AcDbLine
 10
375.6884165456
 20
266.746184698
 30
0.0
 11
385.6546561932
 21
249.484151268
 31
0.0
  0
LINE
  5
19E
330
14D
100
AcDbEntity
  8
DV2_Default
  6
Continuous
 62
     7
 48
25.4
100
AcDbLine
 10
388.5060511177
 20
258.0453903862
 30
0.0
 11
385.2060511177
 21
263.7611580512
 31
0.0
  0
LINE
  5
19F
330
14D
100
AcDbEntity
  8
DV2_Default
  6
Continuous
 62
     7
 48
25.4
100
AcDbLine
 10
381.1079749064
 20
264.8592342625
 30
0.0
 11
385.2060511177
 21
263.7611580512
 31
0.0
  0
LINE
  5
1A0
330
14D
100
AcDbEntity
  8
DV2_Default
  6
Continuous
 62
     7
 48
25.4
100
AcDbLine
 10
387.4079749064
 20
253.9473141749
 30
0.0
 11
388.5060511177
 21
258.0453903862
 31
0.0
  0
LINE
  5
1A1
330
14D
100
AcDbEntity
  8
DV2_Default
  6
Continuous
 62
     7
 48
25.4
100
AcDbLine
 10
381.1079749064
 20
264.8592342625
 30
0.0
 11
395.0330636126
 21
272.8988879756
 31
0.0
  0
LINE
  5
1A2
330
14D
100
AcDbEntity
  8
DV2_Default
  6
Continuous
 62
     7
 48
25.4
100
AcDbLine
 10
387.4079749064
 20
253.9473141749
 30
0.0
 11
401.3330636126
 21
261.9869678879
 31
0.0
  0
CIRCLE
  5
1A3
330
14D
100
AcDbEntity
  8
DV2_Default
  6
Continuous
 62
     7
 48
25.4
100
AcDbCircle
 10
365.4219223741
 20
248.5282742187
 30
0.0
 40
4.8
  0
CIRCLE
  5
1A4
330
14D
100
AcDbEntity
  8
DV2_Default
  6
Continuous
 62
     7
 48
25.4
100
AcDbCircle
 10
365.4219223741
 20
248.5282742187
 30
0.0
 40
4.2
  0
CIRCLE
  5
1A5
330
14D
100
AcDbEntity
  8
DV2_Default
  6
Continuous
 62
     7
 48
25.4
100
AcDbCircle
 10
381.0103796422
 20
257.5282742187
 30
0.0
 40
4.2
  0
CIRCLE
  5
1A6
330
14D
100
AcDbEntity
  8
DV2_Default
  6
Continuous
 62
     7
 48
25.4
100
AcDbCircle
 10
381.0103796422
 20
257.5282742187
 30
0.0
 40
4.8
  0
LINE
  5
1A7
330
14D
100
AcDbEntity
  8
DV2_Default
  6
Continuous
 62
     7
 48
25.4
100
AcDbLine
 10
513.2201502537
 20
234.8223141749
 30
0.0
 11
480.0946785589
 21
253.9473141749
 31
0.0
  0
LINE
  5
1A8
330
14D
100
AcDbEntity
  8
DV2_Default
  6
Continuous
 62
     7
 48
25.4
100
AcDbLine
 10
519.5201502537
 20
245.7342342625
 30
0.0
 11
486.3946785589
 21
264.8592342625
 31
0.0
  0
ARC
  5
1A9
330
14D
100
AcDbEntity
  8
DV2_Default
  6
Continuous
 62
     7
 48
25.4
100
AcDbCircle
 10
477.1085115939
 20
262.9459918678
 30
0.0
 40
6.313266812213385
100
AcDbArc
 50
56.2849049344
 51
243.7150950656
  0
ARC
  5
1AA
330
14D
100
AcDbEntity
  8
DV2_Default
  6
Continuous
 62
     7
 48
25.4
100
AcDbCircle
 10
474.7480054943
 20
264.3088306998
 30
0.0
 40
6.281823304212476
100
AcDbArc
 50
57.7290057246
 51
242.2709942754
  0
LINE
  5
1AB
330
14D
100
AcDbEntity
  8
DV2_Default
  6
Continuous
 62
     7
 48
25.4
100
AcDbLine
 10
523.3505350114
 20
253.5686552755
 30
0.0
 11
473.2895904959
 21
282.4713550674
 31
0.0
  0
LINE
  5
1AC
330
14D
100
AcDbEntity
  8
DV2_Default
  6
Continuous
 62
     7
 48
25.4
100
AcDbLine
 10
508.3505350114
 20
227.5878931619
 30
0.0
 11
458.2895904959
 21
256.4905929539
 31
0.0
  0
LINE
  5
1AD
330
14D
100
AcDbEntity
  8
DV2_Default
  6
Continuous
 62
     7
 48
25.4
100
AcDbLine
 10
516.3701502537
 20
240.2782742187
 30
0.0
 11
523.8701502537
 21
253.2686552755
 31
0.0
  0
LINE
  5
1AE
330
14D
100
AcDbEntity
  8
DV2_Default
  6
Continuous
 62
     7
 48
25.4
100
AcDbLine
 10
523.8701502537
 20
253.2686552755
 30
0.0
 11
524.1701502537
 21
253.7882705177
 31
0.0
  0
LINE
  5
1AF
330
14D
100
AcDbEntity
  8
DV2_Default
  6
Continuous
 62
     7
 48
25.4
100
AcDbLine
 10
524.1701502537
 20
253.7882705177
 30
0.0
 11
526.1661024856
 21
263.1784874848
 31
0.0
  0
LINE
  5
1B0
330
14D
100
AcDbEntity
  8
DV2_Default
  6
Continuous
 62
     7
 48
25.4
100
AcDbLine
 10
526.1661024856
 20
263.1784874848
 30
0.0
 11
525.1037548274
 21
263.7918341912
 31
0.0
  0
LINE
  5
1B1
330
14D
100
AcDbEntity
  8
DV2_Default
  6
Continuous
 62
     7
 48
25.4
100
AcDbLine
 10
523.3505350114
 20
253.5686552755
 30
0.0
 11
523.8701502537
 21
253.2686552755
 31
0.0
  0
LINE
  5
1B2
330
14D
100
AcDbEntity
  8
DV2_Default
  6
Continuous
 62
     7
 48
25.4
100
AcDbLine
 10
516.3698903879
 20
240.2778241179
 30
0.0
 11
508.8698903879
 21
227.2874430611
 31
0.0
  0
LINE
  5
1B3
330
14D
100
AcDbEntity
  8
DV2_Default
  6
Continuous
 62
     7
 48
25.4
100
AcDbLine
 10
508.8698903879
 20
227.2874430611
 30
0.0
 11
508.5698903879
 21
226.7678278188
 31
0.0
  0
LINE
  5
1B4
330
14D
100
AcDbEntity
  8
DV2_Default
  6
Continuous
 62
     7
 48
25.4
100
AcDbLine
 10
508.5698903879
 20
226.7678278188
 30
0.0
 11
501.4357000633
 21
220.3441739978
 31
0.0
  0
LINE
  5
1B5
330
14D
100
AcDbEntity
  8
DV2_Default
  6
Continuous
 62
     7
 48
25.4
100
AcDbLine
 10
501.4357000633
 20
220.3441739978
 30
0.0
 11
500.3733524051
 21
220.9575207042
 31
0.0
  0
LINE
  5
1B6
330
14D
100
AcDbEntity
  8
DV2_Default
  6
Continuous
 62
     7
 48
25.4
100
AcDbLine
 10
508.3502751456
 20
227.5874430611
 30
0.0
 11
508.8698903879
 21
227.2874430611
 31
0.0
  0
LINE
  5
1B7
330
14D
100
AcDbEntity
  8
DV2_Default
  6
Continuous
 62
     7
 48
25.4
100
AcDbLine
 10
461.8195898528
 20
254.4525468749
 30
0.0
 11
466.1695898528
 21
261.9869678879
 31
0.0
  0
LINE
  5
1B8
330
14D
100
AcDbEntity
  8
DV2_Default
  6
Continuous
 62
     7
 48
25.4
100
AcDbLine
 10
472.4695898528
 20
272.8988879756
 30
0.0
 11
476.8195898528
 21
280.4333089885
 31
0.0
  0
LINE
  5
1B9
330
14D
100
AcDbEntity
  8
DV2_Default
  6
Continuous
 62
     7
 48
25.4
100
AcDbLine
 10
513.2201502537
 20
234.8223141749
 30
0.0
 11
508.023997831
 21
237.8223141749
 31
0.0
  0
LINE
  5
1BA
330
14D
100
AcDbEntity
  8
DV2_Default
  6
CENTER2
 62
     7
 48
25.4
100
AcDbLine
 10
506.6815128121
 20
256.4970619138
 30
0.0
 11
496.7587679947
 21
239.3103637394
 31
0.0
  0
LINE
  5
1BB
330
14D
100
AcDbEntity
  8
DV2_Default
  6
Continuous
 62
     7
 48
25.4
100
AcDbLine
 10
514.323997831
 20
248.7342342625
 30
0.0
 11
508.023997831
 21
237.8223141749
 31
0.0
  0
LINE
  5
1BC
330
14D
100
AcDbEntity
  8
DV2_Default
  6
CENTER2
 62
     7
 48
25.4
100
AcDbLine
 10
481.1703107265
 20
248.3103637394
 30
0.0
 11
491.1365503741
 21
265.5723971694
 31
0.0
  0
LINE
  5
1BD
330
14D
100
AcDbEntity
  8
DV2_Default
  6
Continuous
 62
     7
 48
25.4
100
AcDbLine
 10
482.2966023476
 20
263.7611580512
 30
0.0
 11
478.9966023476
 21
258.0453903862
 31
0.0
  0
LINE
  5
1BE
330
14D
100
AcDbEntity
  8
DV2_Default
  6
Continuous
 62
     7
 48
25.4
100
AcDbLine
 10
480.0946785589
 20
253.9473141749
 30
0.0
 11
478.9966023476
 21
258.0453903862
 31
0.0
  0
LINE
  5
1BF
330
14D
100
AcDbEntity
  8
DV2_Default
  6
Continuous
 62
     7
 48
25.4
100
AcDbLine
 10
486.3946785589
 20
264.8592342625
 30
0.0
 11
482.2966023476
 21
263.7611580512
 31
0.0
  0
LINE
  5
1C0
330
14D
100
AcDbEntity
  8
DV2_Default
  6
Continuous
 62
     7
 48
25.4
100
AcDbLine
 10
480.0946785589
 20
253.9473141749
 30
0.0
 11
466.1695898528
 21
261.9869678879
 31
0.0
  0
LINE
  5
1C1
330
14D
100
AcDbEntity
  8
DV2_Default
  6
Continuous
 62
     7
 48
25.4
100
AcDbLine
 10
486.3946785589
 20
264.8592342625
 30
0.0
 11
472.4695898528
 21
272.8988879756
 31
0.0
  0
CIRCLE
  5
1C2
330
14D
100
AcDbEntity
  8
DV2_Default
  6
Continuous
 62
     7
 48
25.4
100
AcDbCircle
 10
502.0807310913
 20
248.5282742187
 30
0.0
 40
4.8
  0
CIRCLE
  5
1C3
330
14D
100
AcDbEntity
  8
DV2_Default
  6
Continuous
 62
     7
 48
25.4
100
AcDbCircle
 10
502.0807310913
 20
248.5282742187
 30
0.0
 40
4.2
  0
CIRCLE
  5
1C4
330
14D
100
AcDbEntity
  8
DV2_Default
  6
Continuous
 62
     7
 48
25.4
100
AcDbCircle
 10
486.4922738231
 20
257.5282742187
 30
0.0
 40
4.2
  0
CIRCLE
  5
1C5
330
14D
100
AcDbEntity
  8
DV2_Default
  6
Continuous
 62
     7
 48
25.4
100
AcDbCircle
 10
486.4922738231
 20
257.5282742187
 30
0.0
 40
4.8
  0
LINE
  5
1C6
330
14D
100
AcDbEntity
  8
DV2_Default
  6
CENTER2
 62
     7
 48
25.4
100
AcDbLine
 10
433.7513267327
 20
287.9782742187
 30
0.0
 11
331.7513267327
 21
287.9782742187
 31
0.0
  0
LINE
  5
1C7
330
14D
100
AcDbEntity
  8
DV2_Default
  6
CENTER2
 62
     7
 48
25.4
100
AcDbLine
 10
433.7513267327
 20
287.9782742187
 30
0.0
 11
535.7513267327
 21
287.9782742187
 31
0.0
  0
ARC
  5
1C8
330
14D
100
AcDbEntity
  8
DV2_Default
  6
Continuous
 62
     7
 48
25.4
100
AcDbCircle
 10
433.7513267327
 20
287.9782742187
 30
0.0
 40
94.5
100
AcDbArc
 50
339.1331977837
 51
80.8668022163
  0
ARC
  5
1C9
330
14D
100
AcDbEntity
  8
DV2_Default
  6
Continuous
 62
     7
 48
25.4
100
AcDbCircle
 10
433.7513267327
 20
287.9782742187
 30
0.0
 40
94.5
100
AcDbArc
 50
99.1331977837
 51
200.8668022163
  0
LINE
  5
1CA
330
14D
100
AcDbEntity
  8
DV2_Default
  6
CENTER2
 62
     7
 48
25.4
100
AcDbLine
 10
433.7513267327
 20
287.9782742187
 30
0.0
 11
348.014811758
 21
238.4782742187
 31
0.0
  0
LINE
  5
1CB
330
14D
100
AcDbEntity
  8
DV2_Default
  6
CENTER2
 62
     7
 48
25.4
100
AcDbLine
 10
433.7513267327
 20
287.9782742187
 30
0.0
 11
519.4878417073
 21
238.4782742187
 31
0.0
  0
LINE
  5
1CC
330
14D
100
AcDbEntity
  8
DV2_Default
  6
Continuous
 62
     7
 48
25.4
100
AcDbLine
 10
433.1514483767
 20
252.1775131606
 30
0.0
 11
432.5514337128
 21
251.1382911424
 31
0.0
  0
LINE
  5
1CD
330
14D
100
AcDbEntity
  8
DV2_Default
  6
Continuous
 62
     7
 48
25.4
100
AcDbLine
 10
432.5514337128
 20
251.1382911424
 30
0.0
 11
433.1514190487
 21
250.0990521917
 31
0.0
  0
LINE
  5
1CE
330
14D
100
AcDbEntity
  8
DV2_Default
  6
Continuous
 62
     7
 48
25.4
100
AcDbLine
 10
433.1514190487
 20
250.0990521917
 30
0.0
 11
434.3514190486
 21
250.0990352592
 31
0.0
  0
LINE
  5
1CF
330
14D
100
AcDbEntity
  8
DV2_Default
  6
Continuous
 62
     7
 48
25.4
100
AcDbLine
 10
434.3514190486
 20
250.0990352592
 30
0.0
 11
434.9514337125
 21
251.1382572774
 31
0.0
  0
LINE
  5
1D0
330
14D
100
AcDbEntity
  8
DV2_Default
  6
Continuous
 62
     7
 48
25.4
100
AcDbLine
 10
434.9514337125
 20
251.1382572774
 30
0.0
 11
434.3514483766
 21
252.177496228
 31
0.0
  0
LINE
  5
1D1
330
14D
100
AcDbEntity
  8
DV2_Default
  6
Continuous
 62
     7
 48
25.4
100
AcDbLine
 10
433.1514483767
 20
252.1775131606
 30
0.0
 11
434.3514483766
 21
252.177496228
 31
0.0
  0
CIRCLE
  5
1D2
330
14D
100
AcDbEntity
  8
DV2_Default
  6
Continuous
 62
     7
 48
25.4
100
AcDbCircle
 10
433.7502870765
 20
251.138274226
 30
0.0
 40
3.6
  0
CIRCLE
  5
1D3
330
14D
100
AcDbEntity
  8
DV2_Default
  6
Continuous
 62
     7
 48
25.4
100
AcDbCircle
 10
433.7503319477
 20
217.4782742257
 30
0.0
 40
9.6
  0
CIRCLE
  5
1D4
330
14D
100
AcDbEntity
  8
DV2_Default
  6
Continuous
 62
     7
 48
25.4
100
AcDbCircle
 10
433.7503319477
 20
217.4782742257
 30
0.0
 40
9.0
  0
LINE
  5
1D5
330
14D
100
AcDbEntity
  8
DV2_Default
  6
Continuous
 62
     7
 48
25.4
100
AcDbLine
 10
433.7504166102
 20
223.4782742251
 30
0.0
 11
428.5542218568
 21
220.4783475453
 31
0.0
  0
LINE
  5
1D6
330
14D
100
AcDbEntity
  8
DV2_Default
  6
Continuous
 62
     7
 48
25.4
100
AcDbLine
 10
428.5542218568
 20
220.4783475453
 30
0.0
 11
428.5541371942
 21
214.4783475459
 31
0.0
  0
LINE
  5
1D7
330
14D
100
AcDbEntity
  8
DV2_Default
  6
Continuous
 62
     7
 48
25.4
100
AcDbLine
 10
428.5541371942
 20
214.4783475459
 30
0.0
 11
433.7502472851
 21
211.4782742263
 31
0.0
  0
LINE
  5
1D8
330
14D
100
AcDbEntity
  8
DV2_Default
  6
Continuous
 62
     7
 48
25.4
100
AcDbLine
 10
433.7502472851
 20
211.4782742263
 30
0.0
 11
438.9464420386
 21
214.4782009061
 31
0.0
  0
LINE
  5
1D9
330
14D
100
AcDbEntity
  8
DV2_Default
  6
Continuous
 62
     7
 48
25.4
100
AcDbLine
 10
438.9464420386
 20
214.4782009061
 30
0.0
 11
438.9465267012
 21
220.4782009055
 31
0.0
  0
LINE
  5
1DA
330
14D
100
AcDbEntity
  8
DV2_Default
  6
Continuous
 62
     7
 48
25.4
100
AcDbLine
 10
438.9465267012
 20
220.4782009055
 30
0.0
 11
433.7504166102
 21
223.4782742251
 31
0.0
  0
ARC
  5
1DB
330
14D
100
AcDbEntity
  8
DV2_Default
  6
CENTER2
 62
     7
 48
25.4
100
AcDbCircle
 10
433.7513267327
 20
287.9782742187
 30
0.0
 40
70.5
100
AcDbArc
 50
262.1911726517
 51
277.8072104127
  0
ARC
  5
1DC
330
14D
100
AcDbEntity
  8
DV2_Default
  6
CENTER2
 62
     7
 48
25.4
100
AcDbCircle
 10
433.7508069046
 20
287.9782742224
 30
0.0
 40
36.84
100
AcDbArc
 50
264.3980253098
 51
275.6003577546
  0
LINE
  5
1DD
330
14D
100
AcDbEntity
  8
DV2_Default
  6
Continuous
 62
     7
 48
25.4
100
AcDbLine
 10
403.0466374423
 20
306.3977144608
 30
0.0
 11
402.4466521063
 21
307.4369534115
 31
0.0
  0
LINE
  5
1DE
330
14D
100
AcDbEntity
  8
DV2_Default
  6
Continuous
 62
     7
 48
25.4
100
AcDbLine
 10
402.4466521063
 20
307.4369534115
 30
0.0
 11
401.2466521064
 21
307.436970344
 31
0.0
  0
LINE
  5
1DF
330
14D
100
AcDbEntity
  8
DV2_Default
  6
Continuous
 62
     7
 48
25.4
100
AcDbLine
 10
401.2466521064
 20
307.436970344
 30
0.0
 11
400.6466374425
 21
306.3977483258
 31
0.0
  0
LINE
  5
1E0
330
14D
100
AcDbEntity
  8
DV2_Default
  6
Continuous
 62
     7
 48
25.4
100
AcDbLine
 10
400.6466374425
 20
306.3977483258
 30
0.0
 11
401.2466227785
 21
305.3585093751
 31
0.0
  0
LINE
  5
1E1
330
14D
100
AcDbEntity
  8
DV2_Default
  6
Continuous
 62
     7
 48
25.4
100
AcDbLine
 10
401.2466227785
 20
305.3585093751
 30
0.0
 11
402.4466227783
 21
305.3584924426
 31
0.0
  0
LINE
  5
1E2
330
14D
100
AcDbEntity
  8
DV2_Default
  6
Continuous
 62
     7
 48
25.4
100
AcDbLine
 10
403.0466374423
 20
306.3977144608
 30
0.0
 11
402.4466227783
 21
305.3584924426
 31
0.0
  0
CIRCLE
  5
1E3
330
14D
100
AcDbEntity
  8
DV2_Default
  6
Continuous
 62
     7
 48
25.4
100
AcDbCircle
 10
401.8472107745
 20
306.3987244012
 30
0.0
 40
3.6
  0
CIRCLE
  5
1E4
330
14D
100
AcDbEntity
  8
DV2_Default
  6
Continuous
 62
     7
 48
25.4
100
AcDbCircle
 10
372.6970331644
 20
323.2291357243
 30
0.0
 40
9.6
  0
CIRCLE
  5
1E5
330
14D
100
AcDbEntity
  8
DV2_Default
  6
Continuous
 62
     7
 48
25.4
100
AcDbCircle
 10
372.6970331644
 20
323.2291357243
 30
0.0
 40
9.0
  0
LINE
  5
1E6
330
14D
100
AcDbEntity
  8
DV2_Default
  6
Continuous
 62
     7
 48
25.4
100
AcDbLine
 10
377.8931432553
 20
320.2290624046
 30
0.0
 11
377.8932279179
 21
326.229062404
 31
0.0
  0
LINE
  5
1E7
330
14D
100
AcDbEntity
  8
DV2_Default
  6
Continuous
 62
     7
 48
25.4
100
AcDbLine
 10
377.8932279179
 20
326.229062404
 30
0.0
 11
372.697117827
 21
329.2291357237
 31
0.0
  0
LINE
  5
1E8
330
14D
100
AcDbEntity
  8
DV2_Default
  6
Continuous
 62
     7
 48
25.4
100
AcDbLine
 10
372.697117827
 20
329.2291357237
 30
0.0
 11
367.5009230735
 21
326.2292090439
 31
0.0
  0
LINE
  5
1E9
330
14D
100
AcDbEntity
  8
DV2_Default
  6
Continuous
 62
     7
 48
25.4
100
AcDbLine
 10
367.5009230735
 20
326.2292090439
 30
0.0
 11
367.500838411
 21
320.2292090445
 31
0.0
  0
LINE
  5
1EA
330
14D
100
AcDbEntity
  8
DV2_Default
  6
Continuous
 62
     7
 48
25.4
100
AcDbLine
 10
367.500838411
 20
320.2292090445
 30
0.0
 11
372.6969485019
 21
317.2291357249
 31
0.0
  0
LINE
  5
1EB
330
14D
100
AcDbEntity
  8
DV2_Default
  6
Continuous
 62
     7
 48
25.4
100
AcDbLine
 10
372.6969485019
 20
317.2291357249
 30
0.0
 11
377.8931432553
 21
320.2290624046
 31
0.0
  0
ARC
  5
1EC
330
14D
100
AcDbEntity
  8
DV2_Default
  6
CENTER2
 62
     7
 48
25.4
100
AcDbCircle
 10
433.7513267327
 20
287.9782742187
 30
0.0
 40
70.5
100
AcDbArc
 50
142.1911726517
 51
157.8072104127
  0
ARC
  5
1ED
330
14D
100
AcDbEntity
  8
DV2_Default
  6
CENTER2
 62
     7
 48
25.4
100
AcDbCircle
 10
433.7513267327
 20
287.9782742187
 30
0.0
 40
36.84
100
AcDbArc
 50
144.3980253098
 51
155.6003577546
  0
ARC
  5
1EE
330
14D
100
AcDbEntity
  8
DV2_Default
  6
Continuous
 62
     7
 48
25.4
100
AcDbCircle
 10
433.7513267327
 20
287.9782742187
 30
0.0
 40
40.68
100
AcDbArc
 50
111.6374107675
 51
188.3625892325
  0
ARC
  5
1EF
330
14D
100
AcDbEntity
  8
DV2_Default
  6
Continuous
 62
     7
 48
25.4
100
AcDbCircle
 10
433.7513267327
 20
287.9782742187
 30
0.0
 40
40.68
100
AcDbArc
 50
231.6374107675
 51
308.3625892325
  0
ARC
  5
1F0
330
14D
100
AcDbEntity
  8
DV2_Default
  6
Continuous
 62
     7
 48
25.4
100
AcDbCircle
 10
433.7513267327
 20
287.9782742187
 30
0.0
 40
40.68
100
AcDbArc
 50
351.6374107675
 51
68.3625892325
  0
LINE
  5
1F1
330
14D
100
AcDbEntity
  8
DV2_Default
  6
CENTER2
 62
     7
 48
25.4
100
AcDbLine
 10
486.4922738231
 20
318.4282742187
 30
0.0
 11
503.1199615758
 21
328.0282742187
 31
0.0
  0
LINE
  5
1F2
330
14D
100
AcDbEntity
  8
DV2_Default
  6
CENTER2
 62
     7
 48
25.4
100
AcDbLine
 10
381.0103796036
 20
318.428274241
 30
0.0
 11
364.3826919402
 21
328.0282741894
 31
0.0
  0
ARC
  5
1F3
330
14D
100
AcDbEntity
  8
DV2_Default
  6
Continuous
 62
     7
 48
25.4
100
AcDbCircle
 10
433.7513267327
 20
287.9782742187
 30
0.0
 40
40.68
100
AcDbArc
 50
231.6374107675
 51
308.3625892325
  0
LINE
  5
1F4
330
14D
100
AcDbEntity
  8
DV2_Default
  6
CENTER2
 62
     7
 48
25.4
100
AcDbLine
 10
433.7513267327
 20
255.306008133
 30
0.0
 11
433.7513267327
 21
244.3582742187
 31
0.0
  0
ARC
  5
1F5
330
14D
100
AcDbEntity
  8
DV2_Default
  6
Continuous
 62
     7
 48
25.4
100
AcDbCircle
 10
433.7513267327
 20
287.9782742187
 30
0.0
 40
40.68
100
AcDbArc
 50
111.6374107675
 51
188.3625892325
  0
LINE
  5
1F6
330
14D
100
AcDbEntity
  8
DV2_Default
  6
CENTER2
 62
     7
 48
25.4
100
AcDbLine
 10
404.9651248606
 20
304.5991100871
 30
0.0
 11
398.5841206328
 21
308.2831845957
 31
0.0
  0
LINE
  5
1F7
330
14D
100
AcDbEntity
  8
DV2_Default
  6
Continuous
 62
     7
 48
25.4
100
AcDbLine
 10
418.7513267327
 20
324.0728746348
 30
0.0
 11
414.9885385389
 21
324.0728746348
 31
0.0
  0
LINE
  5
1F8
330
14D
100
AcDbEntity
  8
DV2_Default
  6
Continuous
 62
     7
 48
25.4
100
AcDbLine
 10
418.7513267327
 20
321.9846541907
 30
0.0
 11
411.4258139458
 21
321.9846541907
 31
0.0
  0
LINE
  5
1F9
330
14D
100
AcDbEntity
  8
DV2_Default
  6
Continuous
 62
     7
 48
25.4
100
AcDbLine
 10
448.7513267327
 20
324.0728746348
 30
0.0
 11
452.5141149264
 21
324.0728746348
 31
0.0
  0
LINE
  5
1FA
330
14D
100
AcDbEntity
  8
DV2_Default
  6
Continuous
 62
     7
 48
25.4
100
AcDbLine
 10
448.7513267327
 20
321.9846541907
 30
0.0
 11
456.0768395196
 21
321.9846541907
 31
0.0
  0
LINE
  5
1FB
330
14D
100
AcDbEntity
  8
DV2_Default
  6
Continuous
 62
     7
 48
25.4
100
AcDbLine
 10
409.9924858329
 20
256.9405929539
 30
0.0
 11
411.8738799297
 21
253.6819227891
 31
0.0
  0
LINE
  5
1FC
330
14D
100
AcDbEntity
  8
DV2_Default
  6
Continuous
 62
     7
 48
25.4
100
AcDbLine
 10
411.8009377861
 20
257.9847031759
 30
0.0
 11
415.4636941796
 21
251.6406230067
 31
0.0
  0
LINE
  5
1FD
330
14D
100
AcDbEntity
  8
DV2_Default
  6
Continuous
 62
     7
 48
25.4
100
AcDbLine
 10
394.9924858329
 20
282.9213550674
 30
0.0
 11
393.111091736
 21
286.1800252323
 31
0.0
  0
LINE
  5
1FE
330
14D
100
AcDbEntity
  8
DV2_Default
  6
Continuous
 62
     7
 48
25.4
100
AcDbLine
 10
396.8009377861
 20
283.9654652895
 30
0.0
 11
393.1381813927
 21
290.3095454587
 31
0.0
  0
LINE
  5
1FF
330
14D
100
AcDbEntity
  8
DV2_Default
  6
Continuous
 62
     7
 48
25.4
100
AcDbLine
 10
409.9924858329
 20
256.9405929539
 30
0.0
 11
394.9924858329
 21
282.9213550674
 31
0.0
  0
LINE
  5
200
330
14D
100
AcDbEntity
  8
DV2_Default
  6
Continuous
 62
     7
 48
25.4
100
AcDbLine
 10
411.8009377861
 20
257.9847031759
 30
0.0
 11
396.8009377861
 21
283.9654652895
 31
0.0
  0
LINE
  5
201
330
14D
100
AcDbEntity
  8
DV2_Default
  6
Continuous
 62
     7
 48
25.4
100
AcDbLine
 10
472.5101676325
 20
282.9213550674
 30
0.0
 11
474.3915617293
 21
286.1800252323
 31
0.0
  0
LINE
  5
202
330
14D
100
AcDbEntity
  8
DV2_Default
  6
Continuous
 62
     7
 48
25.4
100
AcDbLine
 10
470.7017156792
 20
283.9654652895
 30
0.0
 11
474.3644720726
 21
290.3095454587
 31
0.0
  0
LINE
  5
203
330
14D
100
AcDbEntity
  8
DV2_Default
  6
Continuous
 62
     7
 48
25.4
100
AcDbLine
 10
457.5101676325
 20
256.9405929539
 30
0.0
 11
455.6287735356
 21
253.6819227891
 31
0.0
  0
LINE
  5
204
330
14D
100
AcDbEntity
  8
DV2_Default
  6
Continuous
 62
     7
 48
25.4
100
AcDbLine
 10
455.7017156792
 20
257.9847031759
 30
0.0
 11
452.0389592857
 21
251.6406230067
 31
0.0
  0
LINE
  5
205
330
14D
100
AcDbEntity
  8
DV2_Default
  6
Continuous
 62
     7
 48
25.4
100
AcDbLine
 10
472.5101676325
 20
282.9213550674
 30
0.0
 11
457.5101676325
 21
256.9405929539
 31
0.0
  0
LINE
  5
206
330
14D
100
AcDbEntity
  8
DV2_Default
  6
Continuous
 62
     7
 48
25.4
100
AcDbLine
 10
470.7017156792
 20
283.9654652895
 30
0.0
 11
455.7017156792
 21
257.9847031759
 31
0.0
  0
LINE
  5
207
330
14D
100
AcDbEntity
  8
DV2_Default
  6
Continuous
 62
     7
 48
25.4
100
AcDbLine
 10
394.2130629695
 20
282.4713550674
 30
0.0
 11
394.9924858329
 21
282.9213550674
 31
0.0
  0
LINE
  5
208
330
14D
100
AcDbEntity
  8
DV2_Default
  6
Continuous
 62
     7
 48
25.4
100
AcDbLine
 10
409.2130629695
 20
256.4905929539
 30
0.0
 11
409.9924858329
 21
256.9405929539
 31
0.0
  0
LINE
  5
209
330
14D
100
AcDbEntity
  8
DV2_Default
  6
Continuous
 62
     7
 48
25.4
100
AcDbLine
 10
473.2895904959
 20
282.4713550674
 30
0.0
 11
472.5101676325
 21
282.9213550674
 31
0.0
  0
LINE
  5
20A
330
14D
100
AcDbEntity
  8
DV2_Default
  6
Continuous
 62
     7
 48
25.4
100
AcDbLine
 10
458.2895904959
 20
256.4905929539
 30
0.0
 11
457.5101676325
 21
256.9405929539
 31
0.0
  0
ENDBLK
  5
20C
330
14D
100
AcDbEntity
  8
0
100
AcDbBlockEnd
  0
BLOCK
  5
2BD
330
20D
100
AcDbEntity
  8
0
100
AcDbBlockBegin
  2
SE2
 70
     0
 71
     0
 10
0.0
 20
0.0
 30
0.0
  3
SE2
  1

  0
LINE
  5
210
330
20D
100
AcDbEntity
  8
DV3_Default
  6
Continuous
 62
     7
 48
25.4
100
AcDbLine
 10
409.4961053768
 20
127.0380278653
 30
0.0
 11
409.4961053768
 21
43.4580278653
 31
0.0
  0
LINE
  5
211
330
20D
100
AcDbEntity
  8
DV3_Default
  6
Continuous
 62
     7
 48
25.4
100
AcDbLine
 10
409.4961053768
 20
43.4580278653
 30
0.0
 11
289.4961053768
 21
43.4580278653
 31
0.0
  0
LINE
  5
212
330
20D
100
AcDbEntity
  8
DV3_Default
  6
Continuous
 62
     7
 48
25.4
100
AcDbLine
 10
289.4961053768
 20
43.4580278653
 30
0.0
 11
289.4961053768
 21
127.0380278653
 31
0.0
  0
TEXT
  5
213
330
20D
100
AcDbEntity
  8
DV3_Default
  6
Continuous
 62
     7
 48
25.4
100
AcDbText
 10
288.0903701193
 20
38.6403433582
 30
0.0
 40
3.0
  1
0
  7
SEACAD_arial_ttf
 11
288.0903701193
 21
41.6403433582
 31
0.0
100
AcDbText
 73
     3
  0
TEXT
  5
214
330
20D
100
AcDbEntity
  8
DV3_Default
  6
Continuous
 62
     7
 48
25.4
100
AcDbText
 10
314.8454297632
 20
38.4065330371
 30
0.0
 40
3.0
  1
1000
  7
SEACAD_arial_ttf
 11
314.8454297632
 21
41.4065330371
 31
0.0
100
AcDbText
 73
     3
  0
TEXT
  5
215
330
20D
100
AcDbEntity
  8
DV3_Default
  6
Continuous
 62
     7
 48
25.4
100
AcDbText
 10
344.9005978986
 20
38.6160750012
 30
0.0
 40
3.0
  1
2000
  7
SEACAD_arial_ttf
 11
344.9005978986
 21
41.6160750012
 31
0.0
100
AcDbText
 73
     3
  0
TEXT
  5
216
330
20D
100
AcDbEntity
  8
DV3_Default
  6
Continuous
 62
     7
 48
25.4
100
AcDbText
 10
374.8614733364
 20
38.5305220403
 30
0.0
 40
3.0
  1
3000
  7
SEACAD_arial_ttf
 11
374.8614733364
 21
41.5305220403
 31
0.0
100
AcDbText
 73
     3
  0
TEXT
  5
217
330
20D
100
AcDbEntity
  8
DV3_Default
  6
Continuous
 62
     7
 48
25.4
100
AcDbText
 10
284.3774645355
 20
53.754968959
 30
0.0
 40
3.0
  1
20
  7
SEACAD_arial_ttf
 11
284.3774645355
 21
56.754968959
 31
0.0
100
AcDbText
 73
     3
  0
TEXT
  5
218
330
20D
100
AcDbEntity
  8
DV3_Default
  6
Continuous
 62
     7
 48
25.4
100
AcDbText
 10
284.3745320476
 20
65.9400278802
 30
0.0
 40
3.0
  1
40
  7
SEACAD_arial_ttf
 11
284.3745320476
 21
68.9400278802
 31
0.0
100
AcDbText
 73
     3
  0
TEXT
  5
219
330
20D
100
AcDbEntity
  8
DV3_Default
  6
Continuous
 62
     7
 48
25.4
100
AcDbText
 10
284.3791612048
 20
77.8061204379
 30
0.0
 40
3.0
  1
60
  7
SEACAD_arial_ttf
 11
284.3791612048
 21
80.8061204379
 31
0.0
100
AcDbText
 73
     3
  0
TEXT
  5
21A
330
20D
100
AcDbEntity
  8
DV3_Default
  6
Continuous
 62
     7
 48
25.4
100
AcDbText
 10
281.9718971208
 20
101.6571683978
 30
0.0
 40
3.0
  1
100
  7
SEACAD_arial_ttf
 11
281.9718971208
 21
104.6571683978
 31
0.0
100
AcDbText
 73
     3
  0
TEXT
  5
21B
330
20D
100
AcDbEntity
  8
DV3_Default
  6
Continuous
 62
     7
 48
25.4
100
AcDbText
 10
284.3561946695
 20
90.0213459482
 30
0.0
 40
3.0
  1
80
  7
SEACAD_arial_ttf
 11
284.3561946695
 21
93.0213459482
 31
0.0
100
AcDbText
 73
     3
  0
TEXT
  5
21C
330
20D
100
AcDbEntity
  8
DV3_Default
  6
Continuous
 62
     7
 48
25.4
100
AcDbText
 10
282.0243085988
 20
113.4705183459
 30
0.0
 40
3.0
  1
120
  7
SEACAD_arial_ttf
 11
282.0243085988
 21
116.4705183459
 31
0.0
100
AcDbText
 73
     3
  0
TEXT
  5
21D
330
20D
100
AcDbEntity
  8
DV3_Default
  6
Continuous
 62
     7
 48
25.4
100
AcDbText
 10
323.7569003976
 20
129.3087481243
 30
0.0
 40
3.6
  1
Input Force
  7
SEACAD_arial_ttf
 11
323.7569003976
 21
132.9087481243
 31
0.0
100
AcDbText
 73
     3
  0
TEXT
  5
21E
330
20D
100
AcDbEntity
  8
DV3_Default
  6
Continuous
 62
     7
 48
25.4
100
AcDbText
 10
335.4792666232
 20
122.7637051503
 30
0.0
 40
3.0
  1
59KN
  7
SEACAD_arial_ttf
 11
335.4792666232
 21
125.7637051503
 31
0.0
100
AcDbText
 73
     3
  0
TEXT
  5
21F
330
20D
100
AcDbEntity
  8
DV3_Default
  6
Continuous
 62
     7
 48
25.4
100
AcDbText
 10
335.504172818
 20
115.6348119637
 30
0.0
 40
3.0
  1
54KN
  7
SEACAD_arial_ttf
 11
335.504172818
 21
118.6348119637
 31
0.0
100
AcDbText
 73
     3
  0
TEXT
  5
220
330
20D
100
AcDbEntity
  8
DV3_Default
  6
Continuous
 62
     7
 48
25.4
100
AcDbText
 10
335.6704508433
 20
107.0155743371
 30
0.0
 40
3.0
  1
49KN
  7
SEACAD_arial_ttf
 11
335.6704508433
 21
110.0155743371
 31
0.0
100
AcDbText
 73
     3
  0
TEXT
  5
221
330
20D
100
AcDbEntity
  8
DV3_Default
  6
Continuous
 62
     7
 48
25.4
100
AcDbText
 10
335.6267979622
 20
92.1962104929
 30
0.0
 40
3.0
  1
39KN
  7
SEACAD_arial_ttf
 11
335.6267979622
 21
95.1962104929
 31
0.0
100
AcDbText
 73
     3
  0
TEXT
  5
222
330
20D
100
AcDbEntity
  8
DV3_Default
  6
Continuous
 62
     7
 48
25.4
100
AcDbText
 10
335.6696066919
 20
98.7063761402
 30
0.0
 40
3.0
  1
44KN
  7
SEACAD_arial_ttf
 11
335.6696066919
 21
101.7063761402
 31
0.0
100
AcDbText
 73
     3
  0
TEXT
  5
223
330
20D
100
AcDbEntity
  8
DV3_Default
  6
Continuous
 62
     7
 48
25.4
100
AcDbText
 10
335.5679394196
 20
85.460455834
 30
0.0
 40
3.0
  1
34KN
  7
SEACAD_arial_ttf
 11
335.5679394196
 21
88.460455834
 31
0.0
100
AcDbText
 73
     3
  0
TEXT
  5
224
330
20D
100
AcDbEntity
  8
DV3_Default
  6
Continuous
 62
     7
 48
25.4
100
AcDbText
 10
335.5512172728
 20
78.2798377892
 30
0.0
 40
3.0
  1
29KN
  7
SEACAD_arial_ttf
 11
335.5512172728
 21
81.2798377892
 31
0.0
100
AcDbText
 73
     3
  0
TEXT
  5
225
330
20D
100
AcDbEntity
  8
DV3_Default
  6
Continuous
 62
     7
 48
25.4
100
AcDbText
 10
335.5283350618
 20
69.6119599571
 30
0.0
 40
3.0
  1
24KN
  7
SEACAD_arial_ttf
 11
335.5283350618
 21
72.6119599571
 31
0.0
100
AcDbText
 73
     3
  0
TEXT
  5
226
330
20D
100
AcDbEntity
  8
DV3_Default
  6
Continuous
 62
     7
 48
25.4
100
AcDbText
 10
338.7952725861
 20
27.2182974267
 30
0.0
 40
3.6
  1
Speed in min-
  7
SEACAD_arial_ttf
 11
338.7952725861
 21
30.8182974267
 31
0.0
100
AcDbText
 73
     3
  0
TEXT
  5
227
330
20D
100
AcDbEntity
  8
DV3_Default
  6
Continuous
 62
     7
 48
25.4
100
AcDbText
 10
370.0213595426
 20
27.2182974267
 30
0.0
 40
2.7516666667
  1
¹
  7
SEACAD_arial_ttf
 11
370.0213595426
 21
29.9699640933
 31
0.0
100
AcDbText
 73
     3
  0
TEXT
  5
228
330
20D
100
AcDbEntity
  8
DV3_Default
  6
Continuous
 62
     7
 48
25.4
100
AcDbText
 10
246.3818272459
 20
92.0264486407
 30
0.0
 40
3.6
  1
Total Gripping 
  7
SEACAD_arial_ttf
 11
246.3818272459
 21
95.6264486407
 31
0.0
100
AcDbText
 73
     3
  0
TEXT
  5
229
330
20D
100
AcDbEntity
  8
DV3_Default
  6
Continuous
 62
     7
 48
25.4
100
AcDbText
 10
246.3818272459
 20
86.391666032
 30
0.0
 40
3.6
  1
Force in kN
  7
SEACAD_arial_ttf
 11
246.3818272459
 21
89.991666032
 31
0.0
100
AcDbText
 73
     3
  0
TEXT
  5
22A
330
20D
100
AcDbEntity
  8
DV3_Default
  6
Continuous
 62
     7
 48
25.4
100
AcDbText
 10
301.5091402534
 20
147.8906282716
 30
0.0
 40
3.6
  1
Gripping Characteristic Graph For BB-212A8
  7
SEACAD_arial_ttf
 11
301.5091402534
 21
151.4906282716
 31
0.0
100
AcDbText
 73
     3
  0
LWPOLYLINE
  5
22B
330
20D
100
AcDbEntity
  8
DV3_Default
  6
Continuous
 62
     7
 48
25.4
100
AcDbPolyline
 90
        2
 70
     0
 43
0.0
 10
414.6369618848
 20
49.0019161476
 10
378.0983437137
 20
65.1293062369
  0
HATCH
  5
22C
330
20D
100
AcDbEntity
  8
DV3_Default
  6
Continuous
 62
     7
 48
25.4
100
AcDbHatch
 10
0.0
 20
0.0
 30
0.0
210
0.0
220
0.0
230
1.0
  2
SOLID
 70
     1
 71
     0
 91
        1
 92
        1
 93
        3
 72
     1
 10
381.6340783964816
 20
64.22455185872911
 11
378.0983437137303
 21
65.12930623686356
 72
     1
 10
378.0983437137303
 20
65.12930623686357
 11
381.1495237504515
 21
63.12673273881705
 72
     1
 10
381.1495237504515
 20
63.12673273881705
 11
381.6340783964816
 21
64.22455185872911
 97
        0
 75
     0
 76
     1
 98
        0
  0
LWPOLYLINE
  5
22D
330
20D
100
AcDbEntity
  8
DV3_Default
  6
Continuous
 62
     7
 48
25.4
370
     9
100
AcDbPolyline
 90
        4
 70
     1
 43
0.0001
 10
381.6340783965
 20
64.2245518587
 10
378.0983437137
 20
65.1293062369
 10
381.1495237505
 20
63.1267327388
 10
381.6340783965
 20
64.2245518587
  0
LINE
  5
22E
330
20D
100
AcDbEntity
  8
DV3_Default
  6
Continuous
 62
     7
 48
25.4
100
AcDbLine
 10
414.6369618848
 20
49.0019161476
 30
0.0
 11
460.0282662326
 21
49.0019161476
 31
0.0
  0
TEXT
  5
22F
330
20D
100
AcDbEntity
  8
DV3_Default
  6
Continuous
 62
     7
 48
25.4
100
AcDbText
 10
414.6369618848
 20
49.9019161476
 30
0.0
 40
3.6
  1
Gripping Force Limit
  7
SEACAD_arial_ttf
 11
414.6369618848
 21
53.5019161476
 31
0.0
100
AcDbText
 73
     3
  0
TEXT
  5
230
330
20D
100
AcDbEntity
  8
DV3_Default
  6
Continuous
 62
     7
 48
25.4
100
AcDbText
 10
39.6049077184
 20
130.1723332549
 30
0.0
 40
3.0
  1
SPINDLE NOSE SIZE
  7
SEACAD_arial_ttf
 11
39.6049077184
 21
133.1723332549
 31
0.0
100
AcDbText
 73
     3
  0
TEXT
  5
231
330
20D
100
AcDbEntity
  8
DV3_Default
  6
Continuous
 62
     7
 48
25.4
100
AcDbText
 10
129.196292721
 20
130.4203486797
 30
0.0
 40
3.0
  1
A2-8
  7
SEACAD_arial_ttf
 11
129.196292721
 21
133.4203486797
 31
0.0
100
AcDbText
 73
     3
  0
TEXT
  5
232
330
20D
100
AcDbEntity
  8
DV3_Default
  6
Continuous
 62
     7
 48
25.4
100
AcDbText
 10
39.7062274842
 20
65.4260520974
 30
0.0
 40
3.0
  1
TOTAL GRIPPING FORCE AT MAX. SPEED
  7
SEACAD_arial_ttf
 11
39.7062274842
 21
68.4260520974
 31
0.0
100
AcDbText
 73
     3
  0
TEXT
  5
233
330
20D
100
AcDbEntity
  8
DV3_Default
  6
Continuous
 62
     7
 48
25.4
100
AcDbText
 10
128.9938605938
 20
22.3244471329
 30
0.0
 40
3.0
  1
SB12N1
  7
SEACAD_arial_ttf
 11
128.9938605938
 21
25.3244471329
 31
0.0
100
AcDbText
 73
     3
  0
LINE
  5
234
330
20D
100
AcDbEntity
  8
DV3_Default
  6
Continuous
 62
     7
 48
25.4
100
AcDbLine
 10
37.2537879456
 20
27.2789201033
 30
0.0
 11
181.2537879456
 21
27.2789201033
 31
0.0
  0
LINE
  5
235
330
20D
100
AcDbEntity
  8
DV3_Default
  6
Continuous
 62
     7
 48
25.4
100
AcDbLine
 10
181.2537879456
 20
135.2789201033
 30
0.0
 11
37.2537879456
 21
135.2789201033
 31
0.0
  0
LINE
  5
236
330
20D
100
AcDbEntity
  8
DV3_Default
  6
Continuous
 62
     7
 48
25.4
100
AcDbLine
 10
37.2537879456
 20
128.0789201033
 30
0.0
 11
181.2537879456
 21
128.0789201033
 31
0.0
  0
LINE
  5
237
330
20D
100
AcDbEntity
  8
DV3_Default
  6
Continuous
 62
     7
 48
25.4
100
AcDbLine
 10
181.2537879456
 20
120.8789201033
 30
0.0
 11
37.2537879456
 21
120.8789201033
 31
0.0
  0
LINE
  5
238
330
20D
100
AcDbEntity
  8
DV3_Default
  6
Continuous
 62
     7
 48
25.4
100
AcDbLine
 10
37.2537879456
 20
113.6789201033
 30
0.0
 11
181.2537879456
 21
113.6789201033
 31
0.0
  0
LINE
  5
239
330
20D
100
AcDbEntity
  8
DV3_Default
  6
Continuous
 62
     7
 48
25.4
100
AcDbLine
 10
181.2537879456
 20
106.4789201033
 30
0.0
 11
37.2537879456
 21
106.4789201033
 31
0.0
  0
LINE
  5
23A
330
20D
100
AcDbEntity
  8
DV3_Default
  6
Continuous
 62
     7
 48
25.4
100
AcDbLine
 10
37.2537879456
 20
99.2789201033
 30
0.0
 11
181.2537879456
 21
99.2789201033
 31
0.0
  0
LINE
  5
23B
330
20D
100
AcDbEntity
  8
DV3_Default
  6
Continuous
 62
     7
 48
25.4
100
AcDbLine
 10
181.2537879456
 20
92.0789201033
 30
0.0
 11
37.2537879456
 21
92.0789201033
 31
0.0
  0
LINE
  5
23C
330
20D
100
AcDbEntity
  8
DV3_Default
  6
Continuous
 62
     7
 48
25.4
100
AcDbLine
 10
37.2537879456
 20
84.8789201033
 30
0.0
 11
181.2537879456
 21
84.8789201033
 31
0.0
  0
LINE
  5
23D
330
20D
100
AcDbEntity
  8
DV3_Default
  6
Continuous
 62
     7
 48
25.4
100
AcDbLine
 10
181.2537879456
 20
77.6789201033
 30
0.0
 11
37.2537879456
 21
77.6789201033
 31
0.0
  0
LINE
  5
23E
330
20D
100
AcDbEntity
  8
DV3_Default
  6
Continuous
 62
     7
 48
25.4
100
AcDbLine
 10
37.2537879456
 20
70.4789201033
 30
0.0
 11
181.2537879456
 21
70.4789201033
 31
0.0
  0
LINE
  5
23F
330
20D
100
AcDbEntity
  8
DV3_Default
  6
Continuous
 62
     7
 48
25.4
100
AcDbLine
 10
181.2537879456
 20
63.2789201033
 30
0.0
 11
37.2537879456
 21
63.2789201033
 31
0.0
  0
LINE
  5
240
330
20D
100
AcDbEntity
  8
DV3_Default
  6
Continuous
 62
     7
 48
25.4
100
AcDbLine
 10
37.2537879456
 20
56.0789201033
 30
0.0
 11
181.2537879456
 21
56.0789201033
 31
0.0
  0
LINE
  5
241
330
20D
100
AcDbEntity
  8
DV3_Default
  6
Continuous
 62
     7
 48
25.4
100
AcDbLine
 10
181.2537879456
 20
48.8789201033
 30
0.0
 11
37.2537879456
 21
48.8789201033
 31
0.0
  0
LINE
  5
242
330
20D
100
AcDbEntity
  8
DV3_Default
  6
Continuous
 62
     7
 48
25.4
100
AcDbLine
 10
37.2537879456
 20
41.6789201033
 30
0.0
 11
181.2537879456
 21
41.6789201033
 31
0.0
  0
LINE
  5
243
330
20D
100
AcDbEntity
  8
DV3_Default
  6
Continuous
 62
     7
 48
25.4
100
AcDbLine
 10
181.2537879456
 20
34.4789201033
 30
0.0
 11
37.2537879456
 21
34.4789201033
 31
0.0
  0
TEXT
  5
244
330
20D
100
AcDbEntity
  8
DV3_Default
  6
Continuous
 62
     7
 48
25.4
100
AcDbText
 10
89.7137717405
 20
149.9838237146
 30
0.0
 40
3.6
  1
Specifications
  7
SEACAD_arial_ttf
 11
89.7137717405
 21
153.5838237146
 31
0.0
100
AcDbText
 73
     3
  0
TEXT
  5
245
330
20D
100
AcDbEntity
  8
DV3_Default
  6
Continuous
 62
     7
 48
25.4
100
AcDbText
 10
39.7336183371
 20
123.2540243662
 30
0.0
 40
3.0
  1
THROUGH HOLE
  7
SEACAD_arial_ttf
 11
39.7336183371
 21
126.2540243662
 31
0.0
100
AcDbText
 73
     3
  0
TEXT
  5
246
330
20D
100
AcDbEntity
  8
DV3_Default
  6
Continuous
 62
     7
 48
25.4
100
AcDbText
 10
128.7483423787
 20
122.9935103534
 30
0.0
 40
3.0
  1
106mm
  7
SEACAD_arial_ttf
 11
128.7483423787
 21
125.9935103534
 31
0.0
100
AcDbText
 73
     3
  0
TEXT
  5
247
330
20D
100
AcDbEntity
  8
DV3_Default
  6
Continuous
 62
     7
 48
25.4
100
AcDbText
 10
39.528949539
 20
115.7857071542
 30
0.0
 40
3.0
  1
MAX. GRIPPING RANGE
  7
SEACAD_arial_ttf
 11
39.528949539
 21
118.7857071542
 31
0.0
100
AcDbText
 73
     3
  0
TEXT
  5
248
330
20D
100
AcDbEntity
  8
DV3_Default
  6
Continuous
 62
     7
 48
25.4
100
AcDbText
 10
39.5062973007
 20
108.4031511663
 30
0.0
 40
3.0
  1
MIN. GRIPPING RANGE
  7
SEACAD_arial_ttf
 11
39.5062973007
 21
111.4031511663
 31
0.0
100
AcDbText
 73
     3
  0
TEXT
  5
249
330
20D
100
AcDbEntity
  8
DV3_Default
  6
Continuous
 62
     7
 48
25.4
100
AcDbText
 10
39.6798590548
 20
101.2203032791
 30
0.0
 40
3.0
  1
JAW STROKE
  7
SEACAD_arial_ttf
 11
39.6798590548
 21
104.2203032791
 31
0.0
100
AcDbText
 73
     3
  0
TEXT
  5
24A
330
20D
100
AcDbEntity
  8
DV3_Default
  6
Continuous
 62
     7
 48
25.4
100
AcDbText
 10
39.4831971009
 20
94.3516417629
 30
0.0
 40
3.0
  1
PLUNGER STROKE
  7
SEACAD_arial_ttf
 11
39.4831971009
 21
97.3516417629
 31
0.0
100
AcDbText
 73
     3
  0
TEXT
  5
24B
330
20D
100
AcDbEntity
  8
DV3_Default
  6
Continuous
 62
     7
 48
25.4
100
AcDbText
 10
39.4874731385
 20
86.9176879797
 30
0.0
 40
3.0
  1
MAX. PERMISSIBLE INPUT FORCE
  7
SEACAD_arial_ttf
 11
39.4874731385
 21
89.9176879797
 31
0.0
100
AcDbText
 73
     3
  0
TEXT
  5
24C
330
20D
100
AcDbEntity
  8
DV3_Default
  6
Continuous
 62
     7
 48
25.4
100
AcDbText
 10
39.5204947332
 20
79.8642014805
 30
0.0
 40
3.0
  1
MAX. STATIC GRIPPING FORCE
  7
SEACAD_arial_ttf
 11
39.5204947332
 21
82.8642014805
 31
0.0
100
AcDbText
 73
     3
  0
TEXT
  5
24D
330
20D
100
AcDbEntity
  8
DV3_Default
  6
Continuous
 62
     7
 48
25.4
100
AcDbText
 10
39.5112579982
 20
72.7171836111
 30
0.0
 40
3.0
  1
MAX. PERMISSIBLE SPEED
  7
SEACAD_arial_ttf
 11
39.5112579982
 21
75.7171836111
 31
0.0
100
AcDbText
 73
     3
  0
TEXT
  5
24E
330
20D
100
AcDbEntity
  8
DV3_Default
  6
Continuous
 62
     7
 48
25.4
100
AcDbText
 10
39.4803886777
 20
58.257593988
 30
0.0
 40
3.0
  1
NET WEIGHT WITH SOFT TOP JAWS
  7
SEACAD_arial_ttf
 11
39.4803886777
 21
61.257593988
 31
0.0
100
AcDbText
 73
     3
  0
TEXT
  5
24F
330
20D
100
AcDbEntity
  8
DV3_Default
  6
Continuous
 62
     7
 48
25.4
100
AcDbText
 10
39.53414796
 20
51.010617462
 30
0.0
 40
3.0
  1
MOMENT OF INERTIA
  7
SEACAD_arial_ttf
 11
39.53414796
 21
54.010617462
 31
0.0
100
AcDbText
 73
     3
  0
TEXT
  5
250
330
20D
100
AcDbEntity
  8
DV3_Default
  6
Continuous
 62
     7
 48
25.4
100
AcDbText
 10
39.5233316673
 20
43.9905994938
 30
0.0
 40
3.0
  1
MATCHING CYLINDER
  7
SEACAD_arial_ttf
 11
39.5233316673
 21
46.9905994938
 31
0.0
100
AcDbText
 73
     3
  0
TEXT
  5
251
330
20D
100
AcDbEntity
  8
DV3_Default
  6
Continuous
 62
     7
 48
25.4
100
AcDbText
 10
39.5049554667
 20
36.5736800772
 30
0.0
 40
3.0
  1
MAX. PERMISSIBLE OIL PRESSURE
  7
SEACAD_arial_ttf
 11
39.5049554667
 21
39.5736800772
 31
0.0
100
AcDbText
 73
     3
  0
TEXT
  5
252
330
20D
100
AcDbEntity
  8
DV3_Default
  6
Continuous
 62
     7
 48
25.4
100
AcDbText
 10
39.5302069154
 20
29.5586228064
 30
0.0
 40
3.0
  1
MATCHING HARD TOP JAW
  7
SEACAD_arial_ttf
 11
39.5302069154
 21
32.5586228064
 31
0.0
100
AcDbText
 73
     3
  0
TEXT
  5
253
330
20D
100
AcDbEntity
  8
DV3_Default
  6
Continuous
 62
     7
 48
25.4
100
AcDbText
 10
39.5302069154
 20
22.5051363072
 30
0.0
 40
3.0
  1
MATCHING SOFT TOP JAW
  7
SEACAD_arial_ttf
 11
39.5302069154
 21
25.5051363072
 31
0.0
100
AcDbText
 73
     3
  0
LINE
  5
254
330
20D
100
AcDbEntity
  8
DV3_Default
  6
Continuous
 62
     7
 48
25.4
100
AcDbLine
 10
37.2537879456
 20
20.0789201033
 30
0.0
 11
181.2537879456
 21
20.0789201033
 31
0.0
  0
LINE
  5
255
330
20D
100
AcDbEntity
  8
DV3_Default
  6
Continuous
 62
     7
 48
25.4
100
AcDbLine
 10
127.1440848457
 20
135.2789201033
 30
0.0
 11
127.1440848457
 21
20.0789201033
 31
0.0
  0
LINE
  5
256
330
20D
100
AcDbEntity
  8
DV3_Default
  6
Continuous
 62
     7
 48
25.4
100
AcDbLine
 10
37.2537879456
 20
135.2789201033
 30
0.0
 11
37.2537879456
 21
20.0789201033
 31
0.0
  0
LINE
  5
257
330
20D
100
AcDbEntity
  8
DV3_Default
  6
Continuous
 62
     7
 48
25.4
100
AcDbLine
 10
181.2537879456
 20
135.2789201033
 30
0.0
 11
181.2537879456
 21
20.0789201033
 31
0.0
  0
TEXT
  5
258
330
20D
100
AcDbEntity
  8
DV3_Default
  6
Continuous
 62
     7
 48
25.4
100
AcDbText
 10
128.9954138058
 20
115.8601034141
 30
0.0
 40
3.0
  1
315mm
  7
SEACAD_arial_ttf
 11
128.9954138058
 21
118.8601034141
 31
0.0
100
AcDbText
 73
     3
  0
TEXT
  5
259
330
20D
100
AcDbEntity
  8
DV3_Default
  6
Continuous
 62
     7
 48
25.4
100
AcDbText
 10
129.2120546187
 20
108.4808251068
 30
0.0
 40
3.0
  1
47mm
  7
SEACAD_arial_ttf
 11
129.2120546187
 21
111.4808251068
 31
0.0
100
AcDbText
 73
     3
  0
TEXT
  5
25A
330
20D
100
AcDbEntity
  8
DV3_Default
  6
Continuous
 62
     7
 48
25.4
100
AcDbText
 10
128.8176338759
 20
101.346332924
 30
0.0
 40
3.0
  1
10.6mm
  7
SEACAD_arial_ttf
 11
128.8176338759
 21
104.346332924
 31
0.0
100
AcDbText
 73
     3
  0
TEXT
  5
25B
330
20D
100
AcDbEntity
  8
DV3_Default
  6
Continuous
 62
     7
 48
25.4
100
AcDbText
 10
129.0471968601
 20
94.3268126505
 30
0.0
 40
3.0
  1
23mm
  7
SEACAD_arial_ttf
 11
129.0471968601
 21
97.3268126505
 31
0.0
100
AcDbText
 73
     3
  0
TEXT
  5
25C
330
20D
100
AcDbEntity
  8
DV3_Default
  6
Continuous
 62
     7
 48
25.4
100
AcDbText
 10
129.0183303116
 20
87.0685107255
 30
0.0
 40
3.0
  1
59kN
  7
SEACAD_arial_ttf
 11
129.0183303116
 21
90.0685107255
 31
0.0
100
AcDbText
 73
     3
  0
TEXT
  5
25D
330
20D
100
AcDbEntity
  8
DV3_Default
  6
Continuous
 62
     7
 48
25.4
100
AcDbText
 10
128.7003123252
 20
79.8118272967
 30
0.0
 40
3.0
  1
153kN
  7
SEACAD_arial_ttf
 11
128.7003123252
 21
82.8118272967
 31
0.0
100
AcDbText
 73
     3
  0
TEXT
  5
25E
330
20D
100
AcDbEntity
  8
DV3_Default
  6
Continuous
 62
     7
 48
25.4
100
AcDbText
 10
128.9607642892
 20
72.6380288409
 30
0.0
 40
3.0
  1
3500min-
  7
SEACAD_arial_ttf
 11
128.9607642892
 21
75.6380288409
 31
0.0
100
AcDbText
 73
     3
  0
TEXT
  5
25F
330
20D
100
AcDbEntity
  8
DV3_Default
  6
Continuous
 62
     7
 48
25.4
100
AcDbText
 10
146.5694599414
 20
72.6380288409
 30
0.0
 40
2.7516666667
  1
¹
  7
SEACAD_arial_ttf
 11
146.5694599414
 21
75.3896955076
 31
0.0
100
AcDbText
 73
     3
  0
TEXT
  5
260
330
20D
100
AcDbEntity
  8
DV3_Default
  6
Continuous
 62
     7
 48
25.4
100
AcDbText
 10
128.9573538419
 20
65.3709418413
 30
0.0
 40
3.0
  1
51kN
  7
SEACAD_arial_ttf
 11
128.9573538419
 21
68.3709418413
 31
0.0
100
AcDbText
 73
     3
  0
TEXT
  5
261
330
20D
100
AcDbEntity
  8
DV3_Default
  6
Continuous
 62
     7
 48
25.4
100
AcDbText
 10
129.056841378
 20
58.3006342877
 30
0.0
 40
3.0
  1
66.4kg
  7
SEACAD_arial_ttf
 11
129.056841378
 21
61.3006342877
 31
0.0
100
AcDbText
 73
     3
  0
TEXT
  5
262
330
20D
100
AcDbEntity
  8
DV3_Default
  6
Continuous
 62
     7
 48
25.4
100
AcDbText
 10
129.0143522847
 20
51.0676964606
 30
0.0
 40
3.0
  1
0.933kg.m
  7
SEACAD_arial_ttf
 11
129.0143522847
 21
54.0676964606
 31
0.0
100
AcDbText
 73
     3
  0
TEXT
  5
263
330
20D
100
AcDbEntity
  8
DV3_Default
  6
Continuous
 62
     7
 48
25.4
100
AcDbText
 10
148.8404392413
 20
51.0676964606
 30
0.0
 40
2.7516666667
  1
²
  7
SEACAD_arial_ttf
 11
148.8404392413
 21
53.8193631273
 31
0.0
100
AcDbText
 73
     3
  0
TEXT
  5
264
330
20D
100
AcDbEntity
  8
DV3_Default
  6
Continuous
 62
     7
 48
25.4
100
AcDbText
 10
129.0004507525
 20
43.814154665
 30
0.0
 40
3.0
  1
SS2110K
  7
SEACAD_arial_ttf
 11
129.0004507525
 21
46.814154665
 31
0.0
100
AcDbText
 73
     3
  0
TEXT
  5
265
330
20D
100
AcDbEntity
  8
DV3_Default
  6
Continuous
 62
     7
 48
25.4
100
AcDbText
 10
128.9912423314
 20
36.4823129742
 30
0.0
 40
3.0
  1
2.94MPa
  7
SEACAD_arial_ttf
 11
128.9912423314
 21
39.4823129742
 31
0.0
100
AcDbText
 73
     3
  0
TEXT
  5
266
330
20D
100
AcDbEntity
  8
DV3_Default
  6
Continuous
 62
     7
 48
25.4
100
AcDbText
 10
128.8109267086
 20
29.3975676595
 30
0.0
 40
3.0
  1
HB12N1
  7
SEACAD_arial_ttf
 11
128.8109267086
 21
32.3975676595
 31
0.0
100
AcDbText
 73
     3
  0
LINE
  5
267
330
20D
100
AcDbEntity
  8
DV3_Default
  6
Continuous
 62
     7
 48
25.4
100
AcDbLine
 10
289.4961053768
 20
55.3980278653
 30
0.0
 11
409.4961053768
 21
55.3980278653
 31
0.0
  0
LINE
  5
268
330
20D
100
AcDbEntity
  8
DV3_Default
  6
Continuous
 62
     7
 48
25.4
100
AcDbLine
 10
409.4961053768
 20
67.3380278653
 30
0.0
 11
289.4961053768
 21
67.3380278653
 31
0.0
  0
LINE
  5
269
330
20D
100
AcDbEntity
  8
DV3_Default
  6
Continuous
 62
     7
 48
25.4
100
AcDbLine
 10
289.4961053768
 20
79.2780278653
 30
0.0
 11
409.4961053768
 21
79.2780278653
 31
0.0
  0
LINE
  5
26A
330
20D
100
AcDbEntity
  8
DV3_Default
  6
Continuous
 62
     7
 48
25.4
100
AcDbLine
 10
409.4961053768
 20
91.2180278653
 30
0.0
 11
289.4961053768
 21
91.2180278653
 31
0.0
  0
LINE
  5
26B
330
20D
100
AcDbEntity
  8
DV3_Default
  6
Continuous
 62
     7
 48
25.4
100
AcDbLine
 10
289.4961053768
 20
103.1580278653
 30
0.0
 11
409.4961053768
 21
103.1580278653
 31
0.0
  0
LINE
  5
26C
330
20D
100
AcDbEntity
  8
DV3_Default
  6
Continuous
 62
     7
 48
25.4
100
AcDbLine
 10
409.4961053768
 20
115.0980278653
 30
0.0
 11
289.4961053768
 21
115.0980278653
 31
0.0
  0
LINE
  5
26D
330
20D
100
AcDbEntity
  8
DV3_Default
  6
Continuous
 62
     7
 48
25.4
100
AcDbLine
 10
289.4961053768
 20
127.0380278653
 30
0.0
 11
409.4961053768
 21
127.0380278653
 31
0.0
  0
TEXT
  5
26E
330
20D
100
AcDbEntity
  8
DV3_Default
  6
Continuous
 62
     7
 48
25.4
100
AcDbText
 10
282.0151904992
 20
137.4572082651
 30
0.0
 40
3.0
  1
160
  7
SEACAD_arial_ttf
 11
282.0151904992
 21
140.4572082651
 31
0.0
100
AcDbText
 73
     3
  0
TEXT
  5
26F
330
20D
100
AcDbEntity
  8
DV3_Default
  6
Continuous
 62
     7
 48
25.4
100
AcDbText
 10
405.1608773841
 20
38.6381856642
 30
0.0
 40
3.0
  1
4000
  7
SEACAD_arial_ttf
 11
405.1608773841
 21
41.6381856642
 31
0.0
100
AcDbText
 73
     3
  0
LINE
  5
270
330
20D
100
AcDbEntity
  8
DV3_Default
  6
Continuous
 62
     7
 48
25.4
100
AcDbLine
 10
214.313703324
 20
116.0368512426
 30
0.0
 11
214.313703324
 21
113.4868512426
 31
0.0
  0
LINE
  5
271
330
20D
100
AcDbEntity
  8
DV3_Default
  6
Continuous
 62
     7
 48
25.4
100
AcDbLine
 10
214.313703324
 20
128.6368512426
 30
0.0
 11
214.313703324
 21
131.1868512426
 31
0.0
  0
LINE
  5
272
330
20D
100
AcDbEntity
  8
DV3_Default
  6
Continuous
 62
     7
 48
25.4
100
AcDbLine
 10
213.8894392552
 20
131.6111153113
 30
0.0
 11
210.5894392552
 21
131.6111153113
 31
0.0
  0
LINE
  5
273
330
20D
100
AcDbEntity
  8
DV3_Default
  6
Continuous
 62
     7
 48
25.4
100
AcDbLine
 10
206.9894392552
 20
128.0111153113
 30
0.0
 11
206.9894392552
 21
116.6625871738
 31
0.0
  0
LINE
  5
274
330
20D
100
AcDbEntity
  8
DV3_Default
  6
Continuous
 62
     7
 48
25.4
100
AcDbLine
 10
210.5894392552
 20
113.0625871738
 30
0.0
 11
213.8894392552
 21
113.0625871738
 31
0.0
  0
LINE
  5
275
330
20D
100
AcDbEntity
  8
DV3_Default
  6
Continuous
 62
     7
 48
25.4
100
AcDbLine
 10
214.313703324
 20
131.1868512426
 30
0.0
 11
211.013703324
 21
131.1868512426
 31
0.0
  0
LINE
  5
276
330
20D
100
AcDbEntity
  8
DV3_Default
  6
Continuous
 62
     7
 48
25.4
100
AcDbLine
 10
207.413703324
 20
127.5868512426
 30
0.0
 11
207.413703324
 21
117.0868512426
 31
0.0
  0
LINE
  5
277
330
20D
100
AcDbEntity
  8
DV3_Default
  6
Continuous
 62
     7
 48
25.4
100
AcDbLine
 10
211.013703324
 20
113.4868512426
 30
0.0
 11
214.313703324
 21
113.4868512426
 31
0.0
  0
LINE
  5
278
330
20D
100
AcDbEntity
  8
DV3_Default
  6
Continuous
 62
     7
 48
25.4
100
AcDbLine
 10
213.8894392552
 20
113.0625871738
 30
0.0
 11
214.313703324
 21
113.4868512426
 31
0.0
  0
LINE
  5
279
330
20D
100
AcDbEntity
  8
DV3_Default
  6
Continuous
 62
     7
 48
25.4
100
AcDbLine
 10
213.8894392552
 20
131.6111153113
 30
0.0
 11
214.313703324
 21
131.1868512426
 31
0.0
  0
LINE
  5
27A
330
20D
100
AcDbEntity
  8
DV3_Default
  6
Continuous
 62
     7
 48
25.4
100
AcDbLine
 10
211.013703324
 20
113.4868512426
 30
0.0
 11
207.413703324
 21
117.0868512426
 31
0.0
  0
LINE
  5
27B
330
20D
100
AcDbEntity
  8
DV3_Default
  6
Continuous
 62
     7
 48
25.4
100
AcDbLine
 10
207.413703324
 20
127.5868512426
 30
0.0
 11
211.013703324
 21
131.1868512426
 31
0.0
  0
LINE
  5
27C
330
20D
100
AcDbEntity
  8
DV3_Default
  6
Continuous
 62
     7
 48
25.4
100
AcDbLine
 10
206.9894392552
 20
128.0111153113
 30
0.0
 11
210.5894392552
 21
131.6111153113
 31
0.0
  0
LINE
  5
27D
330
20D
100
AcDbEntity
  8
DV3_Default
  6
Continuous
 62
     7
 48
25.4
100
AcDbLine
 10
210.5894392552
 20
113.0625871738
 30
0.0
 11
206.9894392552
 21
116.6625871738
 31
0.0
  0
LINE
  5
27E
330
20D
100
AcDbEntity
  8
DV3_Default
  6
Continuous
 62
     7
 48
25.4
100
AcDbLine
 10
219.713703324
 20
129.9868512426
 30
0.0
 11
219.713703324
 21
135.8368512426
 31
0.0
  0
LINE
  5
27F
330
20D
100
AcDbEntity
  8
DV3_Default
  6
Continuous
 62
     7
 48
25.4
100
AcDbLine
 10
218.213703324
 20
137.3368512426
 30
0.0
 11
219.713703324
 21
135.8368512426
 31
0.0
  0
LINE
  5
280
330
20D
100
AcDbEntity
  8
DV3_Default
  6
Continuous
 62
     7
 48
25.4
100
AcDbLine
 10
218.213703324
 20
137.3368512426
 30
0.0
 11
218.213703324
 21
146.3368512426
 31
0.0
  0
LINE
  5
281
330
20D
100
AcDbEntity
  8
DV3_Default
  6
Continuous
 62
     7
 48
25.4
100
AcDbLine
 10
218.963703324
 20
136.5868512426
 30
0.0
 11
218.963703324
 21
129.2368512426
 31
0.0
  0
LINE
  5
282
330
20D
100
AcDbEntity
  8
DV3_Default
  6
Continuous
 62
     7
 48
25.4
100
AcDbLine
 10
218.363703324
 20
128.6368512426
 30
0.0
 11
219.713703324
 21
129.9868512426
 31
0.0
  0
LINE
  5
283
330
20D
100
AcDbEntity
  8
DV3_Default
  6
Continuous
 62
     7
 48
25.4
100
AcDbLine
 10
206.9894392552
 20
125.9368512426
 30
0.0
 11
203.3894392552
 21
125.9368512426
 31
0.0
  0
LINE
  5
284
330
20D
100
AcDbEntity
  8
DV3_Default
  6
Continuous
 62
     7
 48
25.4
100
AcDbLine
 10
203.3894392552
 20
118.7368512426
 30
0.0
 11
206.9894392552
 21
118.7368512426
 31
0.0
  0
ARC
  5
285
330
20D
100
AcDbEntity
  8
DV3_Default
  6
Continuous
 62
     7
 48
25.4
100
AcDbCircle
 10
203.3894392552
 20
122.3368512426
 30
0.0
 40
3.6
100
AcDbArc
 50
90.0
 51
270.0
  0
LINE
  5
286
330
20D
100
AcDbEntity
  8
DV3_Default
  6
CENTER2
 62
     7
 48
25.4
100
AcDbLine
 10
203.3894392552
 20
130.2078409123
 30
0.0
 11
203.3894392552
 21
113.0683446883
 31
0.0
  0
CIRCLE
  5
287
330
20D
100
AcDbEntity
  8
DV3_Default
  6
Continuous
 62
     7
 48
25.4
100
AcDbCircle
 10
203.3865884768
 20
122.3368512426
 30
0.0
 40
0.9
  0
HATCH
  5
288
330
20D
100
AcDbEntity
  8
0
  6
Continuous
 62
     7
 48
25.4
100
AcDbHatch
 10
0.0
 20
0.0
 30
0.0
210
0.0
220
0.0
230
1.0
  2
LINE
 70
     0
 71
     0
 91
        1
 92
        1
 93
        7
 72
     1
 10
204.586588476812
 20
122.3368512425569
 11
204.9454342036239
 21
122.3368512425569
 72
     1
 10
204.9454342036239
 20
122.3368512425569
 11
204.9454342036239
 21
123.2368512425568
 72
     1
 10
204.9454342036239
 20
123.2368512425568
 11
203.3865884768119
 21
124.1368512425568
 72
     1
 10
203.3865884768119
 20
124.1368512425568
 11
201.8277427499999
 21
123.2368512425568
 72
     1
 10
201.8277427499999
 20
123.2368512425568
 11
201.8277427499999
 21
122.3368512425568
 72
     1
 10
201.82774275
 20
122.3368512425569
 11
202.186588476812
 21
122.3368512425569
 72
     3
 10
203.3865884768119
 20
122.3368512425569
 11
1.2
 21
0.0
 40
1.0
 50
0.0
 51
180.0
 73
     1
 97
        0
 75
     0
 76
     2
 52
45.0
 41
1.25
 77
     0
 78
     1
 53
45.0
 43
0.0
 44
0.0
 45
-2.80633003783411
 46
2.80633003783411
 79
     0
 98
        0
  0
LWPOLYLINE
  5
289
330
20D
100
AcDbEntity
  8
0
  6
Continuous
 62
     7
 48
25.4
100
AcDbPolyline
 90
        8
 70
     1
 43
0.0
 10
204.5865884768
 20
122.3368512426
 10
204.9454342036
 20
122.3368512426
 10
204.9454342036
 20
123.2368512426
 10
203.3865884768
 20
124.1368512426
 10
201.82774275
 20
123.2368512426
 10
201.82774275
 20
122.3368512426
 10
202.1865884768
 20
122.3368512426
 42
-1.0
 10
204.5865884768
 20
122.3368512426
 42
-1.0
  0
LINE
  5
28A
330
20D
100
AcDbEntity
  8
DV3_Default
  6
Continuous
 62
     7
 48
25.4
100
AcDbLine
 10
204.9454342036
 20
123.2368512426
 30
0.0
 11
203.3865884768
 21
124.1368512426
 31
0.0
  0
LINE
  5
28B
330
20D
100
AcDbEntity
  8
DV3_Default
  6
Continuous
 62
     7
 48
25.4
100
AcDbLine
 10
203.3865884768
 20
124.1368512426
 30
0.0
 11
201.82774275
 21
123.2368512426
 31
0.0
  0
HATCH
  5
28C
330
20D
100
AcDbEntity
  8
0
  6
Continuous
 62
     7
 48
25.4
100
AcDbHatch
 10
0.0
 20
0.0
 30
0.0
210
0.0
220
0.0
230
1.0
  2
LINE
 70
     0
 71
     0
 91
        1
 92
        1
 93
        7
 72
     1
 10
202.1865884768119
 20
122.3368512425569
 11
201.8277427499999
 21
122.3368512425569
 72
     1
 10
201.8277427499999
 20
122.3368512425568
 11
201.8277427499999
 21
121.4368512425568
 72
     1
 10
201.8277427499999
 20
121.4368512425568
 11
203.3865884768119
 21
120.5368512425568
 72
     1
 10
203.3865884768119
 20
120.5368512425568
 11
204.9454342036239
 21
121.4368512425568
 72
     1
 10
204.9454342036239
 20
121.4368512425568
 11
204.9454342036239
 21
122.3368512425569
 72
     1
 10
204.9454342036239
 20
122.3368512425569
 11
204.586588476812
 21
122.3368512425569
 72
     3
 10
203.3865884768119
 20
122.3368512425569
 11
1.2
 21
0.0
 40
1.0
 50
180.0
 51
360.0
 73
     1
 97
        0
 75
     0
 76
     2
 52
45.0
 41
1.25
 77
     0
 78
     1
 53
45.0
 43
0.0
 44
0.0
 45
-2.80633003783411
 46
2.80633003783411
 79
     0
 98
        0
  0
LWPOLYLINE
  5
28D
330
20D
100
AcDbEntity
  8
0
  6
Continuous
 62
     7
 48
25.4
100
AcDbPolyline
 90
        8
 70
     1
 43
0.0
 10
202.1865884768
 20
122.3368512426
 10
201.82774275
 20
122.3368512426
 10
201.82774275
 20
121.4368512426
 10
203.3865884768
 20
120.5368512426
 10
204.9454342036
 20
121.4368512426
 10
204.9454342036
 20
122.3368512426
 10
204.5865884768
 20
122.3368512426
 42
-1.0
 10
202.1865884768
 20
122.3368512426
 42
-1.0
  0
LINE
  5
28E
330
20D
100
AcDbEntity
  8
DV3_Default
  6
Continuous
 62
     7
 48
25.4
100
AcDbLine
 10
201.82774275
 20
123.2368512426
 30
0.0
 11
201.82774275
 21
121.4368512426
 31
0.0
  0
LINE
  5
28F
330
20D
100
AcDbEntity
  8
DV3_Default
  6
Continuous
 62
     7
 48
25.4
100
AcDbLine
 10
201.82774275
 20
121.4368512426
 30
0.0
 11
203.3865884768
 21
120.5368512426
 31
0.0
  0
LINE
  5
290
330
20D
100
AcDbEntity
  8
DV3_Default
  6
Continuous
 62
     7
 48
25.4
100
AcDbLine
 10
203.3865884768
 20
120.5368512426
 30
0.0
 11
204.9454342036
 21
121.4368512426
 31
0.0
  0
LINE
  5
291
330
20D
100
AcDbEntity
  8
DV3_Default
  6
Continuous
 62
     7
 48
25.4
100
AcDbLine
 10
204.9454342036
 20
121.4368512426
 30
0.0
 11
204.9454342036
 21
123.2368512426
 31
0.0
  0
LINE
  5
292
330
20D
100
AcDbEntity
  8
DV3_Default
  6
CENTER2
 62
     7
 48
25.4
100
AcDbLine
 10
198.8073481842
 20
122.3368512426
 30
0.0
 11
232.3208966003
 21
122.3368512426
 31
0.0
  0
CIRCLE
  5
293
330
20D
100
AcDbEntity
  8
DV3_Default
  6
Continuous
 62
     7
 48
25.4
100
AcDbCircle
 10
203.3865884768
 20
122.3368512426
 30
0.0
 40
1.2
  0
LINE
  5
294
330
20D
100
AcDbEntity
  8
DV3_Default
  6
Continuous
 62
     7
 48
25.4
100
AcDbLine
 10
319.4961053768
 20
43.4580278653
 30
0.0
 11
319.4961053768
 21
127.0380278653
 31
0.0
  0
LINE
  5
295
330
20D
100
AcDbEntity
  8
DV3_Default
  6
Continuous
 62
     7
 48
25.4
100
AcDbLine
 10
349.4961053768
 20
127.0380278653
 30
0.0
 11
349.4961053768
 21
43.4580278653
 31
0.0
  0
LINE
  5
296
330
20D
100
AcDbEntity
  8
DV3_Default
  6
Continuous
 62
     7
 48
25.4
100
AcDbLine
 10
379.4961053768
 20
43.4580278653
 30
0.0
 11
379.4961053768
 21
127.0380278653
 31
0.0
  0
TEXT
  5
297
330
20D
100
AcDbEntity
  8
DV3_Default
  6
Continuous
 62
     7
 48
25.4
100
AcDbText
 10
282.0151904992
 20
125.6715634177
 30
0.0
 40
3.0
  1
140
  7
SEACAD_arial_ttf
 11
282.0151904992
 21
128.6715634177
 31
0.0
100
AcDbText
 73
     3
  0
LINE
  5
298
330
20D
100
AcDbEntity
  8
DV3_Default
  6
Continuous
 62
     7
 48
25.4
100
AcDbLine
 10
289.4961053768
 20
139.0380278653
 30
0.0
 11
409.4961053768
 21
139.0380278653
 31
0.0
  0
LINE
  5
299
330
20D
100
AcDbEntity
  8
DV3_Default
  6
Continuous
 62
     7
 48
25.4
100
AcDbLine
 10
289.4961053768
 20
127.0380278653
 30
0.0
 11
289.4961053768
 21
139.0380278653
 31
0.0
  0
LINE
  5
29A
330
20D
100
AcDbEntity
  8
DV3_Default
  6
Continuous
 62
     7
 48
25.4
100
AcDbLine
 10
319.4961053768
 20
127.0380278653
 30
0.0
 11
319.4961053768
 21
139.0380278653
 31
0.0
  0
LINE
  5
29B
330
20D
100
AcDbEntity
  8
DV3_Default
  6
Continuous
 62
     7
 48
25.4
100
AcDbLine
 10
349.4961053768
 20
127.0380278653
 30
0.0
 11
349.4961053768
 21
139.0380278653
 31
0.0
  0
LINE
  5
29C
330
20D
100
AcDbEntity
  8
DV3_Default
  6
Continuous
 62
     7
 48
25.4
100
AcDbLine
 10
379.4961053768
 20
127.0380278653
 30
0.0
 11
379.4961053768
 21
139.0380278653
 31
0.0
  0
LINE
  5
29D
330
20D
100
AcDbEntity
  8
DV3_Default
  6
Continuous
 62
     7
 48
25.4
100
AcDbLine
 10
409.4961053768
 20
127.0380278653
 30
0.0
 11
409.4961053768
 21
139.0380278653
 31
0.0
  0
LINE
  5
29E
330
20D
100
AcDbEntity
  8
DV3_Default
  6
Continuous
 62
     7
 48
25.4
100
AcDbLine
 10
379.4961053768
 20
43.4580278653
 30
0.0
 11
394.4961053768
 21
43.4580278653
 31
0.0
  0
LINE
  5
29F
330
20D
100
AcDbEntity
  8
DV3_Default
  6
HIDDEN2
 62
     7
 48
25.4
100
AcDbLine
 10
394.4961053768
 20
43.4580278653
 30
0.0
 11
394.4961053768
 21
74.0580278653
 31
0.0
  0
LINE
  5
2A0
330
20D
100
AcDbEntity
  8
DV3_Default
  6
HIDDEN2
 62
     7
 48
25.4
100
AcDbLine
 10
394.4961053768
 20
74.0580278653
 30
0.0
 11
289.4961053768
 21
74.0580278653
 31
0.0
  0
ARC
  5
2A1
330
20D
100
AcDbEntity
  8
DV3_Default
  6
Continuous
 62
     7
 48
25.4
100
AcDbCircle
 10
272.73402854
 20
-14.7246419649
 30
0.0
 40
150.6929521171185
100
AcDbArc
 50
36.0976148907
 51
83.6135842646
  0
ARC
  5
2A2
330
20D
100
AcDbEntity
  8
DV3_Default
  6
Continuous
 62
     7
 48
25.4
100
AcDbCircle
 10
290.7216154611
 20
-10.7298461657
 30
0.0
 40
91.63482396512488
100
AcDbArc
 50
46.4800819649
 51
90.7662878136
  0
ARC
  5
2A3
330
20D
100
AcDbEntity
  8
DV3_Default
  6
Continuous
 62
     7
 48
25.4
100
AcDbCircle
 10
292.6127315272
 20
-5.3941503948
 30
0.0
 40
93.79661705927038
100
AcDbArc
 50
42.8204129398
 51
91.9041454312
  0
ARC
  5
2A4
330
20D
100
AcDbEntity
  8
DV3_Default
  6
Continuous
 62
     7
 48
25.4
100
AcDbCircle
 10
302.6989099436
 20
223.3687538481
 30
0.0
 40
175.2724107865205
100
AcDbArc
 50
286.9584261094
 51
301.5834681715
  0
TEXT
  5
2A5
330
20D
100
AcDbEntity
  8
DV3_Default
  6
Continuous
 62
     7
 48
25.4
100
AcDbText
 10
290.3545991048
 20
69.8521305884
 30
0.0
 40
3.0
  1
51
  7
SEACAD_arial_ttf
 11
290.3545991048
 21
72.8521305884
 31
0.0
100
AcDbText
 73
     3
  0
ARC
  5
2A6
330
20D
100
AcDbEntity
  8
DV3_Default
  6
Continuous
 62
     7
 48
25.4
100
AcDbCircle
 10
289.7276451138
 20
-8.0492140748
 30
0.0
 40
104.0179001523617
100
AcDbArc
 50
41.4728381748
 51
90.1275382473
  0
ARC
  5
2A7
330
20D
100
AcDbEntity
  8
DV3_Default
  6
Continuous
 62
     7
 48
25.4
100
AcDbCircle
 10
280.9946115895
 20
-21.0604445059
 30
0.0
 40
125.593136695464
100
AcDbArc
 50
42.2005100741
 51
86.1186376869
  0
ARC
  5
2A8
330
20D
100
AcDbEntity
  8
DV3_Default
  6
Continuous
 62
     7
 48
25.4
100
AcDbCircle
 10
278.2582297235
 20
-25.9976868005
 30
0.0
 40
137.6894508750947
100
AcDbArc
 50
42.0876631979
 51
85.3184513716
  0
ARC
  5
2A9
330
20D
100
AcDbEntity
  8
DV3_Default
  6
Continuous
 62
     7
 48
25.4
100
AcDbCircle
 10
279.1058865987
 20
-16.7680592998
 30
0.0
 40
136.2584176662176
100
AcDbArc
 50
38.8631267235
 51
85.6267353353
  0
ARC
  5
2AA
330
20D
100
AcDbEntity
  8
DV3_Default
  6
Continuous
 62
     7
 48
25.4
100
AcDbCircle
 10
279.5504025259
 20
-9.5861349969
 30
0.0
 40
136.9856886065234
100
AcDbArc
 50
36.2438299439
 51
85.8364363684
  0
TEXT
  5
2AB
330
20D
100
AcDbEntity
  8
DV3_Default
  6
Continuous
 62
     7
 48
25.4
100
AcDbText
 10
282.1199965507
 20
133.8938025116
 30
0.0
 40
3.0
  1
153
  7
SEACAD_arial_ttf
 11
282.1199965507
 21
136.8938025116
 31
0.0
100
AcDbText
 73
     3
  0
TEXT
  5
2AC
330
20D
100
AcDbEntity
  8
DV3_Default
  6
Continuous
 62
     7
 48
25.4
100
AcDbText
 10
282.0151904992
 20
137.4572082651
 30
0.0
 40
3.0
  1
160
  7
SEACAD_arial_ttf
 11
282.0151904992
 21
140.4572082651
 31
0.0
100
AcDbText
 73
     3
  0
TEXT
  5
2AD
330
20D
100
AcDbEntity
  8
DV3_Default
  6
Continuous
 62
     7
 48
25.4
100
AcDbText
 10
389.7728181506
 20
38.7095288175
 30
0.0
 40
3.0
  1
3500
  7
SEACAD_arial_ttf
 11
389.7728181506
 21
41.7095288175
 31
0.0
100
AcDbText
 73
     3
  0
LINE
  5
2AE
330
20D
100
AcDbEntity
  8
DV3_Default
  6
Continuous
 62
     7
 48
25.4
100
AcDbLine
 10
221.063703324
 20
128.6368512426
 30
0.0
 11
221.063703324
 21
116.0368512426
 31
0.0
  0
LINE
  5
2AF
330
20D
100
AcDbEntity
  8
DV3_Default
  6
Continuous
 62
     7
 48
25.4
100
AcDbLine
 10
214.313703324
 20
128.6368512426
 30
0.0
 11
221.063703324
 21
128.6368512426
 31
0.0
  0
LINE
  5
2B0
330
20D
100
AcDbEntity
  8
DV3_Default
  6
Continuous
 62
     7
 48
25.4
100
AcDbLine
 10
214.313703324
 20
116.0368512426
 30
0.0
 11
221.063703324
 21
116.0368512426
 31
0.0
  0
LINE
  5
2B1
330
20D
100
AcDbEntity
  8
DV3_Default
  6
Continuous
 62
     7
 48
25.4
100
AcDbLine
 10
218.213703324
 20
137.3368512426
 30
0.0
 11
209.213703324
 21
137.3368512426
 31
0.0
  0
LINE
  5
2B2
330
20D
100
AcDbEntity
  8
DV3_Default
  6
Continuous
 62
     7
 48
25.4
100
AcDbLine
 10
213.8894392552
 20
113.0625871738
 30
0.0
 11
214.313703324
 21
113.4868512426
 31
0.0
  0
LINE
  5
2B3
330
20D
100
AcDbEntity
  8
DV3_Default
  6
Continuous
 62
     7
 48
25.4
100
AcDbLine
 10
219.713703324
 20
114.6868512426
 30
0.0
 11
219.713703324
 21
108.8368512426
 31
0.0
  0
LINE
  5
2B4
330
20D
100
AcDbEntity
  8
DV3_Default
  6
Continuous
 62
     7
 48
25.4
100
AcDbLine
 10
218.213703324
 20
107.3368512426
 30
0.0
 11
219.713703324
 21
108.8368512426
 31
0.0
  0
LINE
  5
2B5
330
20D
100
AcDbEntity
  8
DV3_Default
  6
Continuous
 62
     7
 48
25.4
100
AcDbLine
 10
218.213703324
 20
107.3368512426
 30
0.0
 11
218.213703324
 21
98.3368512426
 31
0.0
  0
LINE
  5
2B6
330
20D
100
AcDbEntity
  8
DV3_Default
  6
Continuous
 62
     7
 48
25.4
100
AcDbLine
 10
218.963703324
 20
108.0868512426
 30
0.0
 11
218.963703324
 21
115.4368512426
 31
0.0
  0
LINE
  5
2B7
330
20D
100
AcDbEntity
  8
DV3_Default
  6
Continuous
 62
     7
 48
25.4
100
AcDbLine
 10
218.363703324
 20
116.0368512426
 30
0.0
 11
219.713703324
 21
114.6868512426
 31
0.0
  0
LINE
  5
2B8
330
20D
100
AcDbEntity
  8
DV3_Default
  6
Continuous
 62
     7
 48
25.4
100
AcDbLine
 10
218.213703324
 20
107.3368512426
 30
0.0
 11
209.213703324
 21
107.3368512426
 31
0.0
  0
LINE
  5
2B9
330
20D
100
AcDbEntity
  8
DV3_Default
  6
Continuous
 62
     7
 48
25.4
100
AcDbLine
 10
214.313703324
 20
115.8858778105
 30
0.0
 11
216.7137031266
 21
115.8868510452
 31
0.0
  0
LINE
  5
2BA
330
20D
100
AcDbEntity
  8
DV3_Default
  6
Continuous
 62
     7
 48
25.4
100
AcDbLine
 10
216.7137031266
 20
115.8868510452
 30
0.0
 11
216.7137031266
 21
116.0368512426
 31
0.0
  0
LINE
  5
2BB
330
20D
100
AcDbEntity
  8
DV3_Default
  6
Continuous
 62
     7
 48
25.4
100
AcDbLine
 10
214.313703324
 20
128.7878246746
 30
0.0
 11
216.7137031266
 21
128.7868514399
 31
0.0
  0
LINE
  5
2BC
330
20D
100
AcDbEntity
  8
DV3_Default
  6
Continuous
 62
     7
 48
25.4
100
AcDbLine
 10
216.7137031266
 20
128.7868514399
 30
0.0
 11
216.7137031266
 21
128.6368512426
 31
0.0
  0
ENDBLK
  5
2BE
330
20D
100
AcDbEntity
  8
0
100
AcDbBlockEnd
  0
BLOCK
  5
2C9
330
2BF
100
AcDbEntity
  8
0
100
AcDbBlockBegin
  2
GDimGGroup
 70
     0
 71
     0
 10
0.0
 20
0.0
 30
0.0
  3
GDimGGroup
  1

  0
HATCH
  5
2C1
330
2BF
100
AcDbEntity
  8
Default
  6
Continuous
 62
     7
 48
25.4
100
AcDbHatch
 10
0.0
 20
0.0
 30
0.0
210
0.0
220
0.0
230
1.0
  2
SOLID
 70
     1
 71
     0
 91
        1
 92
        1
 93
        3
 72
     1
 10
422.751326922655
 20
400.3828710539577
 11
418.7513267326652
 21
399.716204355626
 72
     1
 10
418.7513267326652
 20
399.716204355626
 11
422.751326922655
 21
399.0495376572944
 72
     1
 10
422.751326922655
 20
399.0495376572944
 11
422.751326922655
 21
400.3828710539577
 97
        0
 75
     0
 76
     1
 98
        0
  0
LWPOLYLINE
  5
2C2
330
2BF
100
AcDbEntity
  8
Default
  6
Continuous
 62
     7
 48
25.4
370
     9
100
AcDbPolyline
 90
        4
 70
     1
 43
0.0001
 10
422.7513269227
 20
400.382871054
 10
418.7513267327
 20
399.7162043556
 10
422.7513269227
 20
399.0495376573
 10
422.7513269227
 20
400.382871054
  0
HATCH
  5
2C3
330
2BF
100
AcDbEntity
  8
Default
  6
Continuous
 62
     7
 48
25.4
100
AcDbHatch
 10
0.0
 20
0.0
 30
0.0
210
0.0
220
0.0
230
1.0
  2
SOLID
 70
     1
 71
     0
 91
        1
 92
        1
 93
        3
 72
     1
 10
444.7513258721231
 20
400.3828710539577
 11
444.7513258721231
 21
399.0495376572944
 72
     1
 10
444.7513258721231
 20
399.0495376572944
 11
448.7513260621129
 21
399.716204355626
 72
     1
 10
448.7513260621129
 20
399.716204355626
 11
444.7513258721231
 21
400.3828710539577
 97
        0
 75
     0
 76
     1
 98
        0
  0
LWPOLYLINE
  5
2C4
330
2BF
100
AcDbEntity
  8
Default
  6
Continuous
 62
     7
 48
25.4
370
     9
100
AcDbPolyline
 90
        4
 70
     1
 43
0.0001
 10
444.7513258721
 20
400.382871054
 10
448.7513260621
 20
399.7162043556
 10
444.7513258721
 20
399.0495376573
 10
444.7513258721
 20
400.382871054
  0
LINE
  5
2C5
330
2BF
100
AcDbEntity
  8
Default
  6
Continuous
 62
     7
 48
25.4
100
AcDbLine
 10
418.7513267327
 20
382.7782742187
 30
0.0
 11
418.7513267327
 21
401.7162044506
 31
0.0
  0
LINE
  5
2C6
330
2BF
100
AcDbEntity
  8
Default
  6
Continuous
 62
     7
 48
25.4
100
AcDbLine
 10
448.7513267327
 20
382.7782742187
 30
0.0
 11
448.7513267327
 21
401.7162044506
 31
0.0
  0
LINE
  5
2C7
330
2BF
100
AcDbEntity
  8
Default
  6
Continuous
 62
     7
 48
25.4
100
AcDbLine
 10
418.7513267327
 20
399.7162043556
 30
0.0
 11
448.7513260621
 21
399.7162043556
 31
0.0
  0
TEXT
  5
2C8
330
2BF
100
AcDbEntity
  8
Default
  6
Continuous
 62
     7
 48
25.4
100
AcDbText
 10
430.6208916148
 20
400.7162043556
 30
0.0
 40
4.0
  1
50
  7
SEACAD_arial_ttf
 11
430.6208916148
 21
404.7162043556
 31
0.0
100
AcDbText
 73
     3
  0
ENDBLK
  5
2CA
330
2BF
100
AcDbEntity
  8
0
100
AcDbBlockEnd
  0
BLOCK
  5
2D6
330
2CB
100
AcDbEntity
  8
0
100
AcDbBlockBegin
  2
GDimGGroup1
 70
     0
 71
     0
 10
0.0
 20
0.0
 30
0.0
  3
GDimGGroup1
  1

  0
HATCH
  5
2CD
330
2CB
100
AcDbEntity
  8
Default
  6
Continuous
 62
     7
 48
25.4
100
AcDbHatch
 10
0.0
 20
0.0
 30
0.0
210
0.0
220
0.0
230
1.0
  2
SOLID
 70
     1
 71
     0
 91
        1
 92
        1
 93
        3
 72
     1
 10
239.6616345568816
 20
120.0368514325466
 11
238.3283011602184
 21
120.0368514325466
 72
     1
 10
238.3283011602184
 20
120.0368514325466
 11
238.99496785855
 21
116.0368512425568
 72
     1
 10
238.99496785855
 20
116.0368512425568
 11
239.6616345568816
 21
120.0368514325466
 97
        0
 75
     0
 76
     1
 98
        0
  0
LWPOLYLINE
  5
2CE
330
2CB
100
AcDbEntity
  8
Default
  6
Continuous
 62
     7
 48
25.4
370
     9
100
AcDbPolyline
 90
        4
 70
     1
 43
0.0001
 10
239.6616345569
 20
120.0368514325
 10
238.9949678585
 20
116.0368512426
 10
238.3283011602
 20
120.0368514325
 10
239.6616345569
 20
120.0368514325
  0
HATCH
  5
2CF
330
2CB
100
AcDbEntity
  8
Default
  6
Continuous
 62
     7
 48
25.4
100
AcDbHatch
 10
0.0
 20
0.0
 30
0.0
210
0.0
220
0.0
230
1.0
  2
SOLID
 70
     1
 71
     0
 91
        1
 92
        1
 93
        3
 72
     1
 10
239.6616345568816
 20
124.6368510689583
 11
238.99496785855
 21
128.6368512589481
 72
     1
 10
238.99496785855
 20
128.6368512589481
 11
238.3283011602184
 21
124.6368510689583
 72
     1
 10
238.3283011602184
 20
124.6368510689583
 11
239.6616345568816
 21
124.6368510689583
 97
        0
 75
     0
 76
     1
 98
        0
  0
LWPOLYLINE
  5
2D0
330
2CB
100
AcDbEntity
  8
Default
  6
Continuous
 62
     7
 48
25.4
370
     9
100
AcDbPolyline
 90
        4
 70
     1
 43
0.0001
 10
239.6616345569
 20
124.636851069
 10
238.9949678585
 20
128.6368512589
 10
238.3283011602
 20
124.636851069
 10
239.6616345569
 20
124.636851069
  0
LINE
  5
2D1
330
2CB
100
AcDbEntity
  8
Default
  6
Continuous
 62
     7
 48
25.4
100
AcDbLine
 10
221.063703499
 20
116.0368512426
 30
0.0
 11
240.9949679535
 21
116.0368512426
 31
0.0
  0
LINE
  5
2D2
330
2CB
100
AcDbEntity
  8
Default
  6
Continuous
 62
     7
 48
25.4
100
AcDbLine
 10
221.063703499
 20
128.6368512426
 30
0.0
 11
240.9949679535
 21
128.6368512426
 31
0.0
  0
LINE
  5
2D3
330
2CB
100
AcDbEntity
  8
Default
  6
Continuous
 62
     7
 48
25.4
100
AcDbLine
 10
238.9949678585
 20
78.967750356
 30
0.0
 11
238.9949678585
 21
128.6368512589
 31
0.0
  0
TEXT
  5
2D4
330
2CB
100
AcDbEntity
  8
Default
  6
Continuous
 62
     7
 48
25.4
100
AcDbText
 10
237.9949678586
 20
80.3677504263
 30
0.0
 40
4.0
  1
21
 50
90.0
  7
SEACAD_arial_ttf
 11
233.9949678586
 21
80.3677504263
 31
0.0
100
AcDbText
 73
     3
  0
TEXT
  5
2D5
330
2CB
100
AcDbEntity
  8
Default
  6
Continuous
 62
     7
 48
25.4
100
AcDbText
 10
237.9949678586
 20
89.0286199916
 30
0.0
 40
4.0
  1
H8/h8
 50
90.0
  7
SEACAD_arial_ttf
 11
233.9949678586
 21
89.0286199916
 31
0.0
100
AcDbText
 73
     3
  0
ENDBLK
  5
2D7
330
2CB
100
AcDbEntity
  8
0
100
AcDbBlockEnd
  0
BLOCK
  5
2E2
330
2D8
100
AcDbEntity
  8
0
100
AcDbBlockBegin
  2
GDimGGroup2
 70
     0
 71
     0
 10
0.0
 20
0.0
 30
0.0
  3
GDimGGroup2
  1

  0
HATCH
  5
2DA
330
2D8
100
AcDbEntity
  8
Default
  6
Continuous
 62
     7
 48
25.4
100
AcDbHatch
 10
0.0
 20
0.0
 30
0.0
210
0.0
220
0.0
230
1.0
  2
SOLID
 70
     1
 71
     0
 91
        1
 92
        1
 93
        3
 72
     1
 10
253.4430695190351
 20
111.3368514325467
 11
252.1097361223718
 21
111.3368514325467
 72
     1
 10
252.1097361223718
 20
111.3368514325467
 11
252.7764028207035
 21
107.3368512425569
 72
     1
 10
252.7764028207035
 20
107.3368512425569
 11
253.4430695190351
 21
111.3368514325467
 97
        0
 75
     0
 76
     1
 98
        0
  0
LWPOLYLINE
  5
2DB
330
2D8
100
AcDbEntity
  8
Default
  6
Continuous
 62
     7
 48
25.4
370
     9
100
AcDbPolyline
 90
        4
 70
     1
 43
0.0001
 10
253.443069519
 20
111.3368514325
 10
252.7764028207
 20
107.3368512426
 10
252.1097361224
 20
111.3368514325
 10
253.443069519
 20
111.3368514325
  0
HATCH
  5
2DC
330
2D8
100
AcDbEntity
  8
Default
  6
Continuous
 62
     7
 48
25.4
100
AcDbHatch
 10
0.0
 20
0.0
 30
0.0
210
0.0
220
0.0
230
1.0
  2
SOLID
 70
     1
 71
     0
 91
        1
 92
        1
 93
        3
 72
     1
 10
253.4430695190351
 20
133.3368503820148
 11
252.7764028207035
 21
137.3368505720046
 72
     1
 10
252.7764028207035
 20
137.3368505720046
 11
252.1097361223718
 21
133.3368503820148
 72
     1
 10
252.1097361223718
 20
133.3368503820148
 11
253.4430695190351
 21
133.3368503820148
 97
        0
 75
     0
 76
     1
 98
        0
  0
LWPOLYLINE
  5
2DD
330
2D8
100
AcDbEntity
  8
Default
  6
Continuous
 62
     7
 48
25.4
370
     9
100
AcDbPolyline
 90
        4
 70
     1
 43
0.0001
 10
253.443069519
 20
133.336850382
 10
252.7764028207
 20
137.336850572
 10
252.1097361224
 20
133.336850382
 10
253.443069519
 20
133.336850382
  0
LINE
  5
2DE
330
2D8
100
AcDbEntity
  8
Default
  6
Continuous
 62
     7
 48
25.4
100
AcDbLine
 10
218.213703324
 20
107.3368512426
 30
0.0
 11
254.7764029157
 21
107.3368512426
 31
0.0
  0
LINE
  5
2DF
330
2D8
100
AcDbEntity
  8
Default
  6
Continuous
 62
     7
 48
25.4
100
AcDbLine
 10
218.213703324
 20
137.3368512426
 30
0.0
 11
254.7764029157
 21
137.3368512426
 31
0.0
  0
LINE
  5
2E0
330
2D8
100
AcDbEntity
  8
Default
  6
Continuous
 62
     7
 48
25.4
100
AcDbLine
 10
252.7764028207
 20
107.3368512426
 30
0.0
 11
252.7764028207
 21
137.336850572
 31
0.0
  0
TEXT
  5
2E1
330
2D8
100
AcDbEntity
  8
Default
  6
Continuous
 62
     7
 48
25.4
100
AcDbText
 10
251.7764028207
 20
119.2064161247
 30
0.0
 40
4.0
  1
50
 50
90.0
  7
SEACAD_arial_ttf
 11
247.7764028207
 21
119.2064161247
 31
0.0
100
AcDbText
 73
     3
  0
ENDBLK
  5
2E3
330
2D8
100
AcDbEntity
  8
0
100
AcDbBlockEnd
  0
BLOCK
  5
2EE
330
2E4
100
AcDbEntity
  8
0
100
AcDbBlockBegin
  2
GDimGGroup3
 70
     0
 71
     0
 10
0.0
 20
0.0
 30
0.0
  3
GDimGGroup3
  1

  0
HATCH
  5
2E6
330
2E4
100
AcDbEntity
  8
Default
  6
Continuous
 62
     7
 48
25.4
100
AcDbHatch
 10
0.0
 20
0.0
 30
0.0
210
0.0
220
0.0
230
1.0
  2
SOLID
 70
     1
 71
     0
 91
        1
 92
        1
 93
        3
 72
     1
 10
214.2137031339676
 20
151.1188561844326
 11
214.2137031339676
 21
149.7855227877693
 72
     1
 10
214.2137031339676
 20
149.7855227877693
 11
218.2137033239574
 21
150.452189486101
 72
     1
 10
218.2137033239574
 20
150.452189486101
 11
214.2137031339676
 21
151.1188561844326
 97
        0
 75
     0
 76
     1
 98
        0
  0
LWPOLYLINE
  5
2E7
330
2E4
100
AcDbEntity
  8
Default
  6
Continuous
 62
     7
 48
25.4
370
     9
100
AcDbPolyline
 90
        4
 70
     1
 43
0.0001
 10
214.213703134
 20
151.1188561844
 10
218.213703324
 20
150.4521894861
 10
214.213703134
 20
149.7855227878
 10
214.213703134
 20
151.1188561844
  0
HATCH
  5
2E8
330
2E4
100
AcDbEntity
  8
Default
  6
Continuous
 62
     7
 48
25.4
100
AcDbHatch
 10
0.0
 20
0.0
 30
0.0
210
0.0
220
0.0
230
1.0
  2
SOLID
 70
     1
 71
     0
 91
        1
 92
        1
 93
        3
 72
     1
 10
223.7137035139472
 20
151.1188561844326
 11
219.7137033239574
 21
150.452189486101
 72
     1
 10
219.7137033239574
 20
150.452189486101
 11
223.7137035139472
 21
149.7855227877693
 72
     1
 10
223.7137035139472
 20
149.7855227877693
 11
223.7137035139472
 21
151.1188561844326
 97
        0
 75
     0
 76
     1
 98
        0
  0
LWPOLYLINE
  5
2E9
330
2E4
100
AcDbEntity
  8
Default
  6
Continuous
 62
     7
 48
25.4
370
     9
100
AcDbPolyline
 90
        4
 70
     1
 43
0.0001
 10
223.7137035139
 20
151.1188561844
 10
219.713703324
 20
150.4521894861
 10
223.7137035139
 20
149.7855227878
 10
223.7137035139
 20
151.1188561844
  0
LINE
  5
2EA
330
2E4
100
AcDbEntity
  8
Default
  6
Continuous
 62
     7
 48
25.4
100
AcDbLine
 10
218.213703324
 20
141.8368512426
 30
0.0
 11
218.213703324
 21
152.4521895811
 31
0.0
  0
LINE
  5
2EB
330
2E4
100
AcDbEntity
  8
Default
  6
Continuous
 62
     7
 48
25.4
100
AcDbLine
 10
219.713703324
 20
135.8368512426
 30
0.0
 11
219.713703324
 21
152.4521895811
 31
0.0
  0
LINE
  5
2EC
330
2E4
100
AcDbEntity
  8
Default
  6
Continuous
 62
     7
 48
25.4
100
AcDbLine
 10
204.9213813887
 20
150.4521894861
 30
0.0
 11
227.7137030185
 21
150.4521894861
 31
0.0
  0
TEXT
  5
2ED
330
2E4
100
AcDbEntity
  8
Default
  6
Continuous
 62
     7
 48
25.4
100
AcDbText
 10
206.3213809317
 20
151.4521894861
 30
0.0
 40
4.0
  1
2.5
  7
SEACAD_arial_ttf
 11
206.3213809317
 21
155.4521894861
 31
0.0
100
AcDbText
 73
     3
  0
ENDBLK
  5
2EF
330
2E4
100
AcDbEntity
  8
0
100
AcDbBlockEnd
  0
BLOCK
  5
2FA
330
2F0
100
AcDbEntity
  8
0
100
AcDbBlockBegin
  2
GDimGGroup4
 70
     0
 71
     0
 10
0.0
 20
0.0
 30
0.0
  3
GDimGGroup4
  1

  0
HATCH
  5
2F2
330
2F0
100
AcDbEntity
  8
Default
  6
Continuous
 62
     7
 48
25.4
100
AcDbHatch
 10
0.0
 20
0.0
 30
0.0
210
0.0
220
0.0
230
1.0
  2
SOLID
 70
     1
 71
     0
 91
        1
 92
        1
 93
        3
 72
     1
 10
215.7137031339676
 20
151.1188562365866
 11
215.7137031339676
 21
149.7855228399234
 72
     1
 10
215.7137031339676
 20
149.7855228399234
 11
219.7137033239574
 21
150.452189538255
 72
     1
 10
219.7137033239574
 20
150.452189538255
 11
215.7137031339676
 21
151.1188562365866
 97
        0
 75
     0
 76
     1
 98
        0
  0
LWPOLYLINE
  5
2F3
330
2F0
100
AcDbEntity
  8
Default
  6
Continuous
 62
     7
 48
25.4
370
     9
100
AcDbPolyline
 90
        4
 70
     1
 43
0.0001
 10
215.713703134
 20
151.1188562366
 10
219.713703324
 20
150.4521895383
 10
215.713703134
 20
149.7855228399
 10
215.713703134
 20
151.1188562366
  0
HATCH
  5
2F4
330
2F0
100
AcDbEntity
  8
Default
  6
Continuous
 62
     7
 48
25.4
100
AcDbHatch
 10
0.0
 20
0.0
 30
0.0
210
0.0
220
0.0
230
1.0
  2
SOLID
 70
     1
 71
     0
 91
        1
 92
        1
 93
        3
 72
     1
 10
225.0637035139472
 20
151.1188562365866
 11
221.0637033239574
 21
150.452189538255
 72
     1
 10
221.0637033239574
 20
150.452189538255
 11
225.0637035139472
 21
149.7855228399234
 72
     1
 10
225.0637035139472
 20
149.7855228399234
 11
225.0637035139472
 21
151.1188562365866
 97
        0
 75
     0
 76
     1
 98
        0
  0
LWPOLYLINE
  5
2F5
330
2F0
100
AcDbEntity
  8
Default
  6
Continuous
 62
     7
 48
25.4
370
     9
100
AcDbPolyline
 90
        4
 70
     1
 43
0.0001
 10
225.0637035139
 20
151.1188562366
 10
221.063703324
 20
150.4521895383
 10
225.0637035139
 20
149.7855228399
 10
225.0637035139
 20
151.1188562366
  0
LINE
  5
2F6
330
2F0
100
AcDbEntity
  8
Default
  6
Continuous
 62
     7
 48
25.4
100
AcDbLine
 10
219.713703324
 20
135.8368512426
 30
0.0
 11
219.713703324
 21
152.4521896332
 31
0.0
  0
LINE
  5
2F7
330
2F0
100
AcDbEntity
  8
Default
  6
Continuous
 62
     7
 48
25.4
100
AcDbLine
 10
221.063703324
 20
128.6368512426
 30
0.0
 11
221.063703324
 21
152.4521896332
 31
0.0
  0
LINE
  5
2F8
330
2F0
100
AcDbEntity
  8
Default
  6
Continuous
 62
     7
 48
25.4
100
AcDbLine
 10
211.713702944
 20
150.4521895383
 30
0.0
 11
240.3025353
 21
150.4521895383
 31
0.0
  0
TEXT
  5
2F9
330
2F0
100
AcDbEntity
  8
Default
  6
Continuous
 62
     7
 48
25.4
100
AcDbText
 10
227.9460142539
 20
151.4521895383
 30
0.0
 40
4.0
  1
2.25
  7
SEACAD_arial_ttf
 11
227.9460142539
 21
155.4521895383
 31
0.0
100
AcDbText
 73
     3
  0
ENDBLK
  5
2FB
330
2F0
100
AcDbEntity
  8
0
100
AcDbBlockEnd
  0
BLOCK
  5
307
330
2FC
100
AcDbEntity
  8
0
100
AcDbBlockBegin
  2
GDimGGroup5
 70
     0
 71
     0
 10
0.0
 20
0.0
 30
0.0
  3
GDimGGroup5
  1

  0
HATCH
  5
2FE
330
2FC
100
AcDbEntity
  8
Default
  6
Continuous
 62
     7
 48
25.4
100
AcDbHatch
 10
0.0
 20
0.0
 30
0.0
210
0.0
220
0.0
230
1.0
  2
SOLID
 70
     1
 71
     0
 91
        1
 92
        1
 93
        3
 72
     1
 10
26.20435166435727
 20
202.8791833434887
 11
26.8710183626889
 21
198.8791831534988
 72
     1
 10
26.8710183626889
 20
198.8791831534988
 11
27.53768506102054
 21
202.8791833434887
 72
     1
 10
27.53768506102054
 20
202.8791833434887
 11
26.20435166435727
 21
202.8791833434887
 97
        0
 75
     0
 76
     1
 98
        0
  0
LWPOLYLINE
  5
2FF
330
2FC
100
AcDbEntity
  8
Default
  6
Continuous
 62
     7
 48
25.4
370
     9
100
AcDbPolyline
 90
        4
 70
     1
 43
0.0001
 10
26.2043516644
 20
202.8791833435
 10
26.8710183627
 20
198.8791831535
 10
27.537685061
 20
202.8791833435
 10
26.2043516644
 20
202.8791833435
  0
HATCH
  5
300
330
2FC
100
AcDbEntity
  8
Default
  6
Continuous
 62
     7
 48
25.4
100
AcDbHatch
 10
0.0
 20
0.0
 30
0.0
210
0.0
220
0.0
230
1.0
  2
SOLID
 70
     1
 71
     0
 91
        1
 92
        1
 93
        3
 72
     1
 10
26.20435166435727
 20
383.8791785527653
 11
27.53768506102054
 21
383.8791785527653
 72
     1
 10
27.53768506102054
 20
383.8791785527653
 11
26.8710183626889
 21
387.8791787427551
 72
     1
 10
26.8710183626889
 20
387.8791787427551
 11
26.20435166435727
 21
383.8791785527653
 97
        0
 75
     0
 76
     1
 98
        0
  0
LWPOLYLINE
  5
301
330
2FC
100
AcDbEntity
  8
Default
  6
Continuous
 62
     7
 48
25.4
370
     9
100
AcDbPolyline
 90
        4
 70
     1
 43
0.0001
 10
26.2043516644
 20
383.8791785528
 10
26.8710183627
 20
387.8791787428
 10
27.537685061
 20
383.8791785528
 10
26.2043516644
 20
383.8791785528
  0
LINE
  5
302
330
2FC
100
AcDbEntity
  8
Default
  6
Continuous
 62
     7
 48
25.4
100
AcDbLine
 10
155.9827702767
 20
198.8791831535
 30
0.0
 11
24.8710182677
 21
198.8791831535
 31
0.0
  0
LINE
  5
303
330
2FC
100
AcDbEntity
  8
Default
  6
Continuous
 62
     7
 48
25.4
100
AcDbLine
 10
177.908506208
 20
387.8791831535
 30
0.0
 11
24.8710182677
 21
387.8791831535
 31
0.0
  0
LINE
  5
304
330
2FC
100
AcDbEntity
  8
Default
  6
Continuous
 62
     7
 48
25.4
100
AcDbLine
 10
26.8710183627
 20
198.8791831535
 30
0.0
 11
26.8710183627
 21
387.8791787428
 31
0.0
  0
TEXT
  5
305
330
2FC
100
AcDbEntity
  8
Default
  6
Continuous
 62
     7
 48
25.4
100
AcDbText
 10
25.8710183627
 20
292.3642305286
 30
0.0
 40
4.0
  1
315
 50
90.0
  7
SEACAD_arial_ttf
 11
21.8710183627
 21
292.3642305286
 31
0.0
100
AcDbText
 73
     3
  0
TEXT
  5
306
330
2FC
100
AcDbEntity
  8
Default
  6
Continuous
 62
     7
 48
25.4
100
AcDbText
 10
25.8710183627
 20
285.0028270198
 30
0.0
 40
4.0
  1
O
 50
90.0
  7
SEACAD_semeca1_ttf
 11
21.8710183627
 21
285.0028270198
 31
0.0
100
AcDbText
 73
     3
  0
ENDBLK
  5
308
330
2FC
100
AcDbEntity
  8
0
100
AcDbBlockEnd
  0
BLOCK
  5
315
330
309
100
AcDbEntity
  8
0
100
AcDbBlockBegin
  2
GDimGGroup6
 70
     0
 71
     0
 10
0.0
 20
0.0
 30
0.0
  3
GDimGGroup6
  1

  0
HATCH
  5
30B
330
309
100
AcDbEntity
  8
Default
  6
Continuous
 62
     7
 48
25.4
100
AcDbHatch
 10
0.0
 20
0.0
 30
0.0
210
0.0
220
0.0
230
1.0
  2
SOLID
 70
     1
 71
     0
 91
        1
 92
        1
 93
        3
 72
     1
 10
45.9063803918887
 20
207.3791833434887
 11
46.57304709022034
 21
203.3791831534988
 72
     1
 10
46.57304709022034
 20
203.3791831534988
 11
47.23971378855197
 21
207.3791833434887
 72
     1
 10
47.23971378855197
 20
207.3791833434887
 11
45.9063803918887
 21
207.3791833434887
 97
        0
 75
     0
 76
     1
 98
        0
  0
LWPOLYLINE
  5
30C
330
309
100
AcDbEntity
  8
Default
  6
Continuous
 62
     7
 48
25.4
370
     9
100
AcDbPolyline
 90
        4
 70
     1
 43
0.0001
 10
45.9063803919
 20
207.3791833435
 10
46.5730470902
 20
203.3791831535
 10
47.2397137886
 20
207.3791833435
 10
45.9063803919
 20
207.3791833435
  0
HATCH
  5
30D
330
309
100
AcDbEntity
  8
Default
  6
Continuous
 62
     7
 48
25.4
100
AcDbHatch
 10
0.0
 20
0.0
 30
0.0
210
0.0
220
0.0
230
1.0
  2
SOLID
 70
     1
 71
     0
 91
        1
 92
        1
 93
        3
 72
     1
 10
45.9063803918887
 20
379.3791901160664
 11
47.23971378855197
 21
379.3791901160664
 72
     1
 10
47.23971378855197
 20
379.3791901160664
 11
46.57304709022034
 21
383.3791903060562
 72
     1
 10
46.57304709022034
 20
383.3791903060562
 11
45.9063803918887
 21
379.3791901160664
 97
        0
 75
     0
 76
     1
 98
        0
  0
LWPOLYLINE
  5
30E
330
309
100
AcDbEntity
  8
Default
  6
Continuous
 62
     7
 48
25.4
370
     9
100
AcDbPolyline
 90
        4
 70
     1
 43
0.0001
 10
45.9063803919
 20
379.3791901161
 10
46.5730470902
 20
383.3791903061
 10
47.2397137886
 20
379.3791901161
 10
45.9063803919
 20
379.3791901161
  0
LINE
  5
30F
330
309
100
AcDbEntity
  8
Default
  6
Continuous
 62
     7
 48
25.4
100
AcDbLine
 10
138.5827702767
 20
203.3791831535
 30
0.0
 11
44.5730469952
 21
203.3791831535
 31
0.0
  0
LINE
  5
310
330
309
100
AcDbEntity
  8
Default
  6
Continuous
 62
     7
 48
25.4
100
AcDbLine
 10
138.5827702767
 20
383.3791831535
 30
0.0
 11
44.5730469952
 21
383.3791831535
 31
0.0
  0
LINE
  5
311
330
309
100
AcDbEntity
  8
Default
  6
Continuous
 62
     7
 48
25.4
100
AcDbLine
 10
46.5730470902
 20
203.3791831535
 30
0.0
 11
46.5730470902
 21
383.3791903061
 31
0.0
  0
TEXT
  5
312
330
309
100
AcDbEntity
  8
Default
  6
Continuous
 62
     7
 48
25.4
100
AcDbText
 10
45.5730470902
 20
287.5990189189
 30
0.0
 40
4.0
  1
300
 50
90.0
  7
SEACAD_arial_ttf
 11
41.5730470902
 21
287.5990189189
 31
0.0
100
AcDbText
 73
     3
  0
TEXT
  5
313
330
309
100
AcDbEntity
  8
Default
  6
Continuous
 62
     7
 48
25.4
100
AcDbText
 10
45.5730470902
 20
299.3903232668
 30
0.0
 40
4.0
  1
H6
 50
90.0
  7
SEACAD_arial_ttf
 11
41.5730470902
 21
299.3903232668
 31
0.0
100
AcDbText
 73
     3
  0
TEXT
  5
314
330
309
100
AcDbEntity
  8
Default
  6
Continuous
 62
     7
 48
25.4
100
AcDbText
 10
45.5730470902
 20
280.2376154102
 30
0.0
 40
4.0
  1
O
 50
90.0
  7
SEACAD_semeca1_ttf
 11
41.5730470902
 21
280.2376154102
 31
0.0
100
AcDbText
 73
     3
  0
ENDBLK
  5
316
330
309
100
AcDbEntity
  8
0
100
AcDbBlockEnd
  0
BLOCK
  5
320
330
317
100
AcDbEntity
  8
0
100
AcDbBlockBegin
  2
GDimGGroup7
 70
     0
 71
     0
 10
0.0
 20
0.0
 30
0.0
  3
GDimGGroup7
  1

  0
HATCH
  5
319
330
317
100
AcDbEntity
  8
Default
  6
Continuous
 62
     7
 48
25.4
100
AcDbHatch
 10
0.0
 20
0.0
 30
0.0
210
0.0
220
0.0
230
1.0
  2
SOLID
 70
     1
 71
     0
 91
        1
 92
        1
 93
        3
 72
     1
 10
171.2252464757839
 20
282.3791833434887
 11
169.8919130791206
 21
282.3791833434887
 72
     1
 10
169.8919130791206
 20
282.3791833434887
 11
170.5585797774523
 21
278.3791831534988
 72
     1
 10
170.5585797774523
 20
278.3791831534988
 11
171.2252464757839
 21
282.3791833434887
 97
        0
 75
     0
 76
     1
 98
        0
  0
LWPOLYLINE
  5
31A
330
317
100
AcDbEntity
  8
Default
  6
Continuous
 62
     7
 48
25.4
370
     9
100
AcDbPolyline
 90
        4
 70
     1
 43
0.0001
 10
171.2252464758
 20
282.3791833435
 10
170.5585797775
 20
278.3791831535
 10
169.8919130791
 20
282.3791833435
 10
171.2252464758
 20
282.3791833435
  0
HATCH
  5
31B
330
317
100
AcDbEntity
  8
Default
  6
Continuous
 62
     7
 48
25.4
100
AcDbHatch
 10
0.0
 20
0.0
 30
0.0
210
0.0
220
0.0
230
1.0
  2
SOLID
 70
     1
 71
     0
 91
        1
 92
        1
 93
        3
 72
     1
 10
171.2252464757839
 20
304.3791822929568
 11
170.5585797774523
 21
308.3791824829466
 72
     1
 10
170.5585797774523
 20
308.3791824829466
 11
169.8919130791206
 21
304.3791822929568
 72
     1
 10
169.8919130791206
 20
304.3791822929568
 11
171.2252464757839
 21
304.3791822929568
 97
        0
 75
     0
 76
     1
 98
        0
  0
LWPOLYLINE
  5
31C
330
317
100
AcDbEntity
  8
Default
  6
Continuous
 62
     7
 48
25.4
370
     9
100
AcDbPolyline
 90
        4
 70
     1
 43
0.0001
 10
171.2252464758
 20
304.379182293
 10
170.5585797775
 20
308.3791824829
 10
169.8919130791
 20
304.379182293
 10
171.2252464758
 20
304.379182293
  0
LINE
  5
31D
330
317
100
AcDbEntity
  8
Default
  6
Continuous
 62
     7
 48
25.4
100
AcDbLine
 10
170.5585797775
 20
278.3791831535
 30
0.0
 11
170.5585797775
 21
308.3791824829
 31
0.0
  0
TEXT
  5
31E
330
317
100
AcDbEntity
  8
Default
  6
Continuous
 62
     7
 48
25.4
100
AcDbText
 10
169.5585797775
 20
293.92944979
 30
0.0
 40
4.0
  1
50
 50
90.0
  7
SEACAD_arial_ttf
 11
165.5585797775
 21
293.92944979
 31
0.0
100
AcDbText
 73
     3
  0
TEXT
  5
31F
330
317
100
AcDbEntity
  8
Default
  6
Continuous
 62
     7
 48
25.4
100
AcDbText
 10
169.5585797775
 20
286.5680462812
 30
0.0
 40
4.0
  1
O
 50
90.0
  7
SEACAD_semeca1_ttf
 11
165.5585797775
 21
286.5680462812
 31
0.0
100
AcDbText
 73
     3
  0
ENDBLK
  5
321
330
317
100
AcDbEntity
  8
0
100
AcDbBlockEnd
  0
BLOCK
  5
32C
330
322
100
AcDbEntity
  8
0
100
AcDbBlockBegin
  2
GDimGGroup8
 70
     0
 71
     0
 10
0.0
 20
0.0
 30
0.0
  3
GDimGGroup8
  1

  0
HATCH
  5
324
330
322
100
AcDbEntity
  8
Default
  6
Continuous
 62
     7
 48
25.4
100
AcDbHatch
 10
0.0
 20
0.0
 30
0.0
210
0.0
220
0.0
230
1.0
  2
SOLID
 70
     1
 71
     0
 91
        1
 92
        1
 93
        3
 72
     1
 10
319.2358961182067
 20
325.2791833434886
 11
317.9025627215434
 21
325.2791833434886
 72
     1
 10
317.9025627215434
 20
325.2791833434886
 11
318.5692294198751
 21
321.2791831534988
 72
     1
 10
318.5692294198751
 20
321.2791831534988
 11
319.2358961182067
 21
325.2791833434886
 97
        0
 75
     0
 76
     1
 98
        0
  0
LWPOLYLINE
  5
325
330
322
100
AcDbEntity
  8
Default
  6
Continuous
 62
     7
 48
25.4
370
     9
100
AcDbPolyline
 90
        4
 70
     1
 43
0.0001
 10
319.2358961182
 20
325.2791833435
 10
318.5692294199
 20
321.2791831535
 10
317.9025627215
 20
325.2791833435
 10
319.2358961182
 20
325.2791833435
  0
HATCH
  5
326
330
322
100
AcDbEntity
  8
Default
  6
Continuous
 62
     7
 48
25.4
100
AcDbHatch
 10
0.0
 20
0.0
 30
0.0
210
0.0
220
0.0
230
1.0
  2
SOLID
 70
     1
 71
     0
 91
        1
 92
        1
 93
        3
 72
     1
 10
319.2358961182067
 20
383.879185311932
 11
318.5692294198751
 21
387.8791855019218
 72
     1
 10
318.5692294198751
 20
387.8791855019218
 11
317.9025627215434
 21
383.879185311932
 72
     1
 10
317.9025627215434
 20
383.879185311932
 11
319.2358961182067
 21
383.879185311932
 97
        0
 75
     0
 76
     1
 98
        0
  0
LWPOLYLINE
  5
327
330
322
100
AcDbEntity
  8
Default
  6
Continuous
 62
     7
 48
25.4
370
     9
100
AcDbPolyline
 90
        4
 70
     1
 43
0.0001
 10
319.2358961182
 20
383.8791853119
 10
318.5692294199
 20
387.8791855019
 10
317.9025627215
 20
383.8791853119
 10
319.2358961182
 20
383.8791853119
  0
LINE
  5
328
330
322
100
AcDbEntity
  8
Default
  6
Continuous
 62
     7
 48
25.4
100
AcDbLine
 10
249.4027702767
 20
321.2791831535
 30
0.0
 11
320.5692295149
 21
321.2791831535
 31
0.0
  0
LINE
  5
329
330
322
100
AcDbEntity
  8
Default
  6
Continuous
 62
     7
 48
25.4
100
AcDbLine
 10
249.4027702767
 20
387.8791831535
 30
0.0
 11
320.5692295149
 21
387.8791831535
 31
0.0
  0
LINE
  5
32A
330
322
100
AcDbEntity
  8
Default
  6
Continuous
 62
     7
 48
25.4
100
AcDbLine
 10
318.5692294199
 20
321.2791831535
 30
0.0
 11
318.5692294199
 21
387.8791855019
 31
0.0
  0
TEXT
  5
32B
330
322
100
AcDbEntity
  8
Default
  6
Continuous
 62
     7
 48
25.4
100
AcDbText
 10
317.5692294199
 20
349.8835321538
 30
0.0
 40
4.0
  1
111
 50
90.0
  7
SEACAD_arial_ttf
 11
313.5692294199
 21
349.8835321538
 31
0.0
100
AcDbText
 73
     3
  0
ENDBLK
  5
32D
330
322
100
AcDbEntity
  8
0
100
AcDbBlockEnd
  0
BLOCK
  5
338
330
32E
100
AcDbEntity
  8
0
100
AcDbBlockBegin
  2
GDimGGroup9
 70
     0
 71
     0
 10
0.0
 20
0.0
 30
0.0
  3
GDimGGroup9
  1

  0
HATCH
  5
330
330
32E
100
AcDbEntity
  8
Default
  6
Continuous
 62
     7
 48
25.4
100
AcDbHatch
 10
0.0
 20
0.0
 30
0.0
210
0.0
220
0.0
230
1.0
  2
SOLID
 70
     1
 71
     0
 91
        1
 92
        1
 93
        3
 72
     1
 10
245.4027700867235
 20
400.3405836667257
 11
245.4027700867235
 21
399.0072502700623
 72
     1
 10
245.4027700867235
 20
399.0072502700623
 11
249.4027702767133
 21
399.673916968394
 72
     1
 10
249.4027702767133
 20
399.673916968394
 11
245.4027700867235
 21
400.3405836667257
 97
        0
 75
     0
 76
     1
 98
        0
  0
LWPOLYLINE
  5
331
330
32E
100
AcDbEntity
  8
Default
  6
Continuous
 62
     7
 48
25.4
370
     9
100
AcDbPolyline
 90
        4
 70
     1
 43
0.0001
 10
245.4027700867
 20
400.3405836667
 10
249.4027702767
 20
399.6739169684
 10
245.4027700867
 20
399.0072502701
 10
245.4027700867
 20
400.3405836667
  0
HATCH
  5
332
330
32E
100
AcDbEntity
  8
Default
  6
Continuous
 62
     7
 48
25.4
100
AcDbHatch
 10
0.0
 20
0.0
 30
0.0
210
0.0
220
0.0
230
1.0
  2
SOLID
 70
     1
 71
     0
 91
        1
 92
        1
 93
        3
 72
     1
 10
222.3827698897301
 20
400.3405836667257
 11
218.3827696997403
 21
399.673916968394
 72
     1
 10
218.3827696997403
 20
399.673916968394
 11
222.3827698897301
 21
399.0072502700623
 72
     1
 10
222.3827698897301
 20
399.0072502700623
 11
222.3827698897301
 21
400.3405836667257
 97
        0
 75
     0
 76
     1
 98
        0
  0
LWPOLYLINE
  5
333
330
32E
100
AcDbEntity
  8
Default
  6
Continuous
 62
     7
 48
25.4
370
     9
100
AcDbPolyline
 90
        4
 70
     1
 43
0.0001
 10
222.3827698897
 20
400.3405836667
 10
218.3827696997
 20
399.6739169684
 10
222.3827698897
 20
399.0072502701
 10
222.3827698897
 20
400.3405836667
  0
LINE
  5
334
330
32E
100
AcDbEntity
  8
Default
  6
Continuous
 62
     7
 48
25.4
100
AcDbLine
 10
249.4027702767
 20
387.8791831535
 30
0.0
 11
249.4027702767
 21
401.6739170634
 31
0.0
  0
LINE
  5
335
330
32E
100
AcDbEntity
  8
Default
  6
Continuous
 62
     7
 48
25.4
100
AcDbLine
 10
218.3827702767
 20
385.4791831535
 30
0.0
 11
218.3827702767
 21
401.6739170634
 31
0.0
  0
LINE
  5
336
330
32E
100
AcDbEntity
  8
Default
  6
Continuous
 62
     7
 48
25.4
100
AcDbLine
 10
249.4027702767
 20
399.6739169684
 30
0.0
 11
218.3827696997
 21
399.6739169684
 31
0.0
  0
TEXT
  5
337
330
32E
100
AcDbEntity
  8
Default
  6
Continuous
 62
     7
 48
25.4
100
AcDbText
 10
228.4145091187
 20
400.6739169684
 30
0.0
 40
4.0
  1
51.7
  7
SEACAD_arial_ttf
 11
228.4145091187
 21
404.6739169684
 31
0.0
100
AcDbText
 73
     3
  0
ENDBLK
  5
339
330
32E
100
AcDbEntity
  8
0
100
AcDbBlockEnd
  0
BLOCK
  5
344
330
33A
100
AcDbEntity
  8
0
100
AcDbBlockBegin
  2
GDimGGroup10
 70
     0
 71
     0
 10
0.0
 20
0.0
 30
0.0
  3
GDimGGroup10
  1

  0
HATCH
  5
33C
330
33A
100
AcDbEntity
  8
Default
  6
Continuous
 62
     7
 48
25.4
100
AcDbHatch
 10
0.0
 20
0.0
 30
0.0
210
0.0
220
0.0
230
1.0
  2
SOLID
 70
     1
 71
     0
 91
        1
 92
        1
 93
        3
 72
     1
 10
296.5564479904601
 20
383.879182963509
 11
295.8897812921285
 21
387.8791831534988
 72
     1
 10
295.8897812921285
 20
387.8791831534988
 11
295.2231145937968
 21
383.879182963509
 72
     1
 10
295.2231145937968
 20
383.879182963509
 11
296.5564479904601
 21
383.879182963509
 97
        0
 75
     0
 76
     1
 98
        0
  0
LWPOLYLINE
  5
33D
330
33A
100
AcDbEntity
  8
Default
  6
Continuous
 62
     7
 48
25.4
370
     9
100
AcDbPolyline
 90
        4
 70
     1
 43
0.0001
 10
296.5564479905
 20
383.8791829635
 10
295.8897812921
 20
387.8791831535
 10
295.2231145938
 20
383.8791829635
 10
296.5564479905
 20
383.8791829635
  0
HATCH
  5
33E
330
33A
100
AcDbEntity
  8
Default
  6
Continuous
 62
     7
 48
25.4
100
AcDbHatch
 10
0.0
 20
0.0
 30
0.0
210
0.0
220
0.0
230
1.0
  2
SOLID
 70
     1
 71
     0
 91
        1
 92
        1
 93
        3
 72
     1
 10
296.5564479904601
 20
379.2791833270974
 11
295.2231145937968
 21
379.2791833270974
 72
     1
 10
295.2231145937968
 20
379.2791833270974
 11
295.8897812921285
 21
375.2791831371076
 72
     1
 10
295.8897812921285
 20
375.2791831371076
 11
296.5564479904601
 21
379.2791833270974
 97
        0
 75
     0
 76
     1
 98
        0
  0
LWPOLYLINE
  5
33F
330
33A
100
AcDbEntity
  8
Default
  6
Continuous
 62
     7
 48
25.4
370
     9
100
AcDbPolyline
 90
        4
 70
     1
 43
0.0001
 10
296.5564479905
 20
379.2791833271
 10
295.8897812921
 20
375.2791831371
 10
295.2231145938
 20
379.2791833271
 10
296.5564479905
 20
379.2791833271
  0
LINE
  5
340
330
33A
100
AcDbEntity
  8
Default
  6
Continuous
 62
     7
 48
25.4
100
AcDbLine
 10
249.4027702767
 20
387.8791831535
 30
0.0
 11
297.8897813871
 21
387.8791831535
 31
0.0
  0
LINE
  5
341
330
33A
100
AcDbEntity
  8
Default
  6
Continuous
 62
     7
 48
25.4
100
AcDbLine
 10
253.5427125541
 20
375.2791831535
 30
0.0
 11
297.8897813871
 21
375.2791831535
 31
0.0
  0
LINE
  5
342
330
33A
100
AcDbEntity
  8
Default
  6
Continuous
 62
     7
 48
25.4
100
AcDbLine
 10
295.8897812921
 20
387.8791831535
 30
0.0
 11
295.8897812921
 21
375.2791831371
 31
0.0
  0
TEXT
  5
343
330
33A
100
AcDbEntity
  8
Default
  6
Continuous
 62
     7
 48
25.4
100
AcDbText
 10
294.8897812921
 20
378.4487483627
 30
0.0
 40
4.0
  1
21
 50
90.0
  7
SEACAD_arial_ttf
 11
290.8897812921
 21
378.4487483627
 31
0.0
100
AcDbText
 73
     3
  0
ENDBLK
  5
345
330
33A
100
AcDbEntity
  8
0
100
AcDbBlockEnd
  0
BLOCK
  5
350
330
346
100
AcDbEntity
  8
0
100
AcDbBlockBegin
  2
GDimGGroup11
 70
     0
 71
     0
 10
0.0
 20
0.0
 30
0.0
  3
GDimGGroup11
  1

  0
HATCH
  5
348
330
346
100
AcDbEntity
  8
Default
  6
Continuous
 62
     7
 48
25.4
100
AcDbHatch
 10
0.0
 20
0.0
 30
0.0
210
0.0
220
0.0
230
1.0
  2
SOLID
 70
     1
 71
     0
 91
        1
 92
        1
 93
        3
 72
     1
 10
296.5564490821059
 20
371.279182963509
 11
295.8897823837742
 21
375.2791831534988
 72
     1
 10
295.8897823837742
 20
375.2791831534988
 11
295.2231156854426
 21
371.279182963509
 72
     1
 10
295.2231156854426
 20
371.279182963509
 11
296.5564490821059
 21
371.279182963509
 97
        0
 75
     0
 76
     1
 98
        0
  0
LWPOLYLINE
  5
349
330
346
100
AcDbEntity
  8
Default
  6
Continuous
 62
     7
 48
25.4
370
     9
100
AcDbPolyline
 90
        4
 70
     1
 43
0.0001
 10
296.5564490821
 20
371.2791829635
 10
295.8897823838
 20
375.2791831535
 10
295.2231156854
 20
371.2791829635
 10
296.5564490821
 20
371.2791829635
  0
HATCH
  5
34A
330
346
100
AcDbEntity
  8
Default
  6
Continuous
 62
     7
 48
25.4
100
AcDbHatch
 10
0.0
 20
0.0
 30
0.0
210
0.0
220
0.0
230
1.0
  2
SOLID
 70
     1
 71
     0
 91
        1
 92
        1
 93
        3
 72
     1
 10
296.5564490821059
 20
361.3129277978725
 11
295.2231156854426
 21
361.3129277978725
 72
     1
 10
295.2231156854426
 20
361.3129277978725
 11
295.8897823837742
 21
357.3129276078827
 72
     1
 10
295.8897823837742
 20
357.3129276078827
 11
296.5564490821059
 21
361.3129277978725
 97
        0
 75
     0
 76
     1
 98
        0
  0
LWPOLYLINE
  5
34B
330
346
100
AcDbEntity
  8
Default
  6
Continuous
 62
     7
 48
25.4
370
     9
100
AcDbPolyline
 90
        4
 70
     1
 43
0.0001
 10
296.5564490821
 20
361.3129277979
 10
295.8897823838
 20
357.3129276079
 10
295.2231156854
 20
361.3129277979
 10
296.5564490821
 20
361.3129277979
  0
LINE
  5
34C
330
346
100
AcDbEntity
  8
Default
  6
Continuous
 62
     7
 48
25.4
100
AcDbLine
 10
253.5427125541
 20
375.2791831535
 30
0.0
 11
297.8897824788
 21
375.2791831535
 31
0.0
  0
LINE
  5
34D
330
346
100
AcDbEntity
  8
Default
  6
Continuous
 62
     7
 48
25.4
100
AcDbLine
 10
254.0975476981
 20
357.3129278631
 30
0.0
 11
297.8897824788
 21
357.3129278631
 31
0.0
  0
LINE
  5
34E
330
346
100
AcDbEntity
  8
Default
  6
Continuous
 62
     7
 48
25.4
100
AcDbLine
 10
295.8897823838
 20
375.2791831535
 30
0.0
 11
295.8897823838
 21
357.3129276079
 31
0.0
  0
TEXT
  5
34F
330
346
100
AcDbEntity
  8
Default
  6
Continuous
 62
     7
 48
25.4
100
AcDbText
 10
294.8897823838
 20
363.1656205981
 30
0.0
 40
4.0
  1
30
 50
90.0
  7
SEACAD_arial_ttf
 11
290.8897823838
 21
363.1656205981
 31
0.0
100
AcDbText
 73
     3
  0
ENDBLK
  5
351
330
346
100
AcDbEntity
  8
0
100
AcDbBlockEnd
  0
BLOCK
  5
35E
330
352
100
AcDbEntity
  8
0
100
AcDbBlockBegin
  2
GDimGGroup12
 70
     0
 71
     0
 10
0.0
 20
0.0
 30
0.0
  3
GDimGGroup12
  1

  0
HATCH
  5
354
330
352
100
AcDbEntity
  8
Default
  6
Continuous
 62
     7
 48
25.4
100
AcDbHatch
 10
0.0
 20
0.0
 30
0.0
210
0.0
220
0.0
230
1.0
  2
SOLID
 70
     1
 71
     0
 91
        1
 92
        1
 93
        3
 72
     1
 10
272.2257098727036
 20
297.3791833434887
 11
270.8923764760403
 21
297.3791833434887
 72
     1
 10
270.8923764760403
 20
297.3791833434887
 11
271.5590431743719
 21
293.3791831534988
 72
     1
 10
271.5590431743719
 20
293.3791831534988
 11
272.2257098727036
 21
297.3791833434887
 97
        0
 75
     0
 76
     1
 98
        0
  0
LWPOLYLINE
  5
355
330
352
100
AcDbEntity
  8
Default
  6
Continuous
 62
     7
 48
25.4
370
     9
100
AcDbPolyline
 90
        4
 70
     1
 43
0.0001
 10
272.2257098727
 20
297.3791833435
 10
271.5590431744
 20
293.3791831535
 10
270.892376476
 20
297.3791833435
 10
272.2257098727
 20
297.3791833435
  0
HATCH
  5
356
330
352
100
AcDbEntity
  8
Default
  6
Continuous
 62
     7
 48
25.4
100
AcDbHatch
 10
0.0
 20
0.0
 30
0.0
210
0.0
220
0.0
230
1.0
  2
SOLID
 70
     1
 71
     0
 91
        1
 92
        1
 93
        3
 72
     1
 10
272.2257098727036
 20
330.0591816593594
 11
271.5590431743719
 21
334.0591818493492
 72
     1
 10
271.5590431743719
 20
334.0591818493492
 11
270.8923764760403
 21
330.0591816593594
 72
     1
 10
270.8923764760403
 20
330.0591816593594
 11
272.2257098727036
 21
330.0591816593594
 97
        0
 75
     0
 76
     1
 98
        0
  0
LWPOLYLINE
  5
357
330
352
100
AcDbEntity
  8
Default
  6
Continuous
 62
     7
 48
25.4
370
     9
100
AcDbPolyline
 90
        4
 70
     1
 43
0.0001
 10
272.2257098727
 20
330.0591816594
 10
271.5590431744
 20
334.0591818493
 10
270.892376476
 20
330.0591816594
 10
272.2257098727
 20
330.0591816594
  0
LINE
  5
358
330
352
100
AcDbEntity
  8
Default
  6
Continuous
 62
     7
 48
25.4
100
AcDbLine
 10
251.0531231218
 20
293.3791831535
 30
0.0
 11
273.5590432694
 21
293.3791831535
 31
0.0
  0
LINE
  5
359
330
352
100
AcDbEntity
  8
Default
  6
Continuous
 62
     7
 48
25.4
100
AcDbLine
 10
215.1154886114
 20
334.0591831535
 30
0.0
 11
273.5590432694
 21
334.0591831535
 31
0.0
  0
LINE
  5
35A
330
352
100
AcDbEntity
  8
Default
  6
Continuous
 62
     7
 48
25.4
100
AcDbLine
 10
271.5590431744
 20
263.5722954225
 30
0.0
 11
271.5590431744
 21
334.0591818493
 31
0.0
  0
TEXT
  5
35B
330
352
100
AcDbEntity
  8
Default
  6
Continuous
 62
     7
 48
25.4
100
AcDbText
 10
264.5590431744
 20
279.6853391243
 30
0.0
 40
4.0
  1
67.8
 50
90.0
  7
SEACAD_arial_ttf
 11
260.5590431744
 21
279.6853391243
 31
0.0
100
AcDbText
 73
     3
  0
TEXT
  5
35C
330
352
100
AcDbEntity
  8
Default
  6
Continuous
 62
     7
 48
25.4
100
AcDbText
 10
264.5590431744
 20
264.9722956461
 30
0.0
 40
4.0
  1
MAX
 50
90.0
  7
SEACAD_arial_ttf
 11
260.5590431744
 21
264.9722956461
 31
0.0
100
AcDbText
 73
     3
  0
TEXT
  5
35D
330
352
100
AcDbEntity
  8
Default
  6
Continuous
 62
     7
 48
25.4
100
AcDbText
 10
270.5590431744
 20
264.9722956461
 30
0.0
 40
4.0
  1
MIN 62.5
 50
90.0
  7
SEACAD_arial_ttf
 11
266.5590431744
 21
264.9722956461
 31
0.0
100
AcDbText
 73
     3
  0
ENDBLK
  5
35F
330
352
100
AcDbEntity
  8
0
100
AcDbBlockEnd
  0
BLOCK
  5
36C
330
360
100
AcDbEntity
  8
0
100
AcDbBlockBegin
  2
GDimGGroup13
 70
     0
 71
     0
 10
0.0
 20
0.0
 30
0.0
  3
GDimGGroup13
  1

  0
HATCH
  5
362
330
360
100
AcDbEntity
  8
Default
  6
Continuous
 62
     7
 48
25.4
100
AcDbHatch
 10
0.0
 20
0.0
 30
0.0
210
0.0
220
0.0
230
1.0
  2
SOLID
 70
     1
 71
     0
 91
        1
 92
        1
 93
        3
 72
     1
 10
296.5564476595541
 20
338.0591833434887
 11
295.2231142628908
 21
338.0591833434887
 72
     1
 10
295.2231142628908
 20
338.0591833434887
 11
295.8897809612224
 21
334.0591831534989
 72
     1
 10
295.8897809612224
 20
334.0591831534989
 11
296.5564476595541
 21
338.0591833434887
 97
        0
 75
     0
 76
     1
 98
        0
  0
LWPOLYLINE
  5
363
330
360
100
AcDbEntity
  8
Default
  6
Continuous
 62
     7
 48
25.4
370
     9
100
AcDbPolyline
 90
        4
 70
     1
 43
0.0001
 10
296.5564476596
 20
338.0591833435
 10
295.8897809612
 20
334.0591831535
 10
295.2231142629
 20
338.0591833435
 10
296.5564476596
 20
338.0591833435
  0
HATCH
  5
364
330
360
100
AcDbEntity
  8
Default
  6
Continuous
 62
     7
 48
25.4
100
AcDbHatch
 10
0.0
 20
0.0
 30
0.0
210
0.0
220
0.0
230
1.0
  2
SOLID
 70
     1
 71
     0
 91
        1
 92
        1
 93
        3
 72
     1
 10
296.5564476595541
 20
353.312927431602
 11
295.8897809612224
 21
357.3129276215918
 72
     1
 10
295.8897809612224
 20
357.3129276215918
 11
295.2231142628908
 21
353.312927431602
 72
     1
 10
295.2231142628908
 20
353.312927431602
 11
296.5564476595541
 21
353.312927431602
 97
        0
 75
     0
 76
     1
 98
        0
  0
LWPOLYLINE
  5
365
330
360
100
AcDbEntity
  8
Default
  6
Continuous
 62
     7
 48
25.4
370
     9
100
AcDbPolyline
 90
        4
 70
     1
 43
0.0001
 10
296.5564476596
 20
353.3129274316
 10
295.8897809612
 20
357.3129276216
 10
295.2231142629
 20
353.3129274316
 10
296.5564476596
 20
353.3129274316
  0
LINE
  5
366
330
360
100
AcDbEntity
  8
Default
  6
Continuous
 62
     7
 48
25.4
100
AcDbLine
 10
215.1154886114
 20
334.0591831535
 30
0.0
 11
297.8897810562
 21
334.0591831535
 31
0.0
  0
LINE
  5
367
330
360
100
AcDbEntity
  8
Default
  6
Continuous
 62
     7
 48
25.4
100
AcDbLine
 10
254.0975476981
 20
357.3129278631
 30
0.0
 11
297.8897810562
 21
357.3129278631
 31
0.0
  0
LINE
  5
368
330
360
100
AcDbEntity
  8
Default
  6
Continuous
 62
     7
 48
25.4
100
AcDbLine
 10
295.8897809612
 20
287.2618070274
 30
0.0
 11
295.8897809612
 21
357.3129276216
 31
0.0
  0
TEXT
  5
369
330
360
100
AcDbEntity
  8
Default
  6
Continuous
 62
     7
 48
25.4
100
AcDbText
 10
288.8897809612
 20
303.3748508425
 30
0.0
 40
4.0
  1
45.75
 50
90.0
  7
SEACAD_arial_ttf
 11
284.8897809612
 21
303.3748508425
 31
0.0
100
AcDbText
 73
     3
  0
TEXT
  5
36A
330
360
100
AcDbEntity
  8
Default
  6
Continuous
 62
     7
 48
25.4
100
AcDbText
 10
288.8897809612
 20
288.6618073642
 30
0.0
 40
4.0
  1
MAX
 50
90.0
  7
SEACAD_arial_ttf
 11
284.8897809612
 21
288.6618073642
 31
0.0
100
AcDbText
 73
     3
  0
TEXT
  5
36B
330
360
100
AcDbEntity
  8
Default
  6
Continuous
 62
     7
 48
25.4
100
AcDbText
 10
294.8897809612
 20
288.6618073642
 30
0.0
 40
4.0
  1
MIN 15.75
 50
90.0
  7
SEACAD_arial_ttf
 11
290.8897809612
 21
288.6618073642
 31
0.0
100
AcDbText
 73
     3
  0
ENDBLK
  5
36D
330
360
100
AcDbEntity
  8
0
100
AcDbBlockEnd
  0
BLOCK
  5
378
330
36E
100
AcDbEntity
  8
0
100
AcDbBlockBegin
  2
GDimGGroup14
 70
     0
 71
     0
 10
0.0
 20
0.0
 30
0.0
  3
GDimGGroup14
  1

  0
HATCH
  5
370
330
36E
100
AcDbEntity
  8
Default
  6
Continuous
 62
     7
 48
25.4
100
AcDbHatch
 10
0.0
 20
0.0
 30
0.0
210
0.0
220
0.0
230
1.0
  2
SOLID
 70
     1
 71
     0
 91
        1
 92
        1
 93
        3
 72
     1
 10
214.3827700867235
 20
184.0034139676031
 11
218.3827702767133
 21
184.6700806659348
 72
     1
 10
218.3827702767133
 20
184.6700806659348
 11
214.3827700867235
 21
185.3367473642664
 72
     1
 10
214.3827700867235
 20
185.3367473642664
 11
214.3827700867235
 21
184.0034139676031
 97
        0
 75
     0
 76
     1
 98
        0
  0
LWPOLYLINE
  5
371
330
36E
100
AcDbEntity
  8
Default
  6
Continuous
 62
     7
 48
25.4
370
     9
100
AcDbPolyline
 90
        4
 70
     1
 43
0.0001
 10
214.3827700867
 20
184.0034139676
 10
218.3827702767
 20
184.6700806659
 10
214.3827700867
 20
185.3367473643
 10
214.3827700867
 20
184.0034139676
  0
HATCH
  5
372
330
36E
100
AcDbEntity
  8
Default
  6
Continuous
 62
     7
 48
25.4
100
AcDbHatch
 10
0.0
 20
0.0
 30
0.0
210
0.0
220
0.0
230
1.0
  2
SOLID
 70
     1
 71
     0
 91
        1
 92
        1
 93
        3
 72
     1
 10
209.7827704503118
 20
184.0034139676031
 11
209.7827704503118
 21
185.3367473642664
 72
     1
 10
209.7827704503118
 20
185.3367473642664
 11
205.782770260322
 21
184.6700806659348
 72
     1
 10
205.782770260322
 20
184.6700806659348
 11
209.7827704503118
 21
184.0034139676031
 97
        0
 75
     0
 76
     1
 98
        0
  0
LWPOLYLINE
  5
373
330
36E
100
AcDbEntity
  8
Default
  6
Continuous
 62
     7
 48
25.4
370
     9
100
AcDbPolyline
 90
        4
 70
     1
 43
0.0001
 10
209.7827704503
 20
184.0034139676
 10
205.7827702603
 20
184.6700806659
 10
209.7827704503
 20
185.3367473643
 10
209.7827704503
 20
184.0034139676
  0
LINE
  5
374
330
36E
100
AcDbEntity
  8
Default
  6
Continuous
 62
     7
 48
25.4
100
AcDbLine
 10
218.3827702767
 20
201.2791831535
 30
0.0
 11
218.3827702767
 21
182.6700805709
 31
0.0
  0
LINE
  5
375
330
36E
100
AcDbEntity
  8
Default
  6
Continuous
 62
     7
 48
25.4
100
AcDbLine
 10
205.7827702767
 20
213.2791826975
 30
0.0
 11
205.7827702767
 21
182.6700805709
 31
0.0
  0
LINE
  5
376
330
36E
100
AcDbEntity
  8
Default
  6
Continuous
 62
     7
 48
25.4
100
AcDbLine
 10
218.3827702767
 20
184.6700806659
 30
0.0
 11
205.7827702603
 21
184.6700806659
 31
0.0
  0
TEXT
  5
377
330
36E
100
AcDbEntity
  8
Default
  6
Continuous
 62
     7
 48
25.4
100
AcDbText
 10
208.9523354859
 20
185.6700806659
 30
0.0
 40
4.0
  1
21
  7
SEACAD_arial_ttf
 11
208.9523354859
 21
189.6700806659
 31
0.0
100
AcDbText
 73
     3
  0
ENDBLK
  5
379
330
36E
100
AcDbEntity
  8
0
100
AcDbBlockEnd
  0
BLOCK
  5
385
330
37A
100
AcDbEntity
  8
0
100
AcDbBlockBegin
  2
GDimGGroup15
 70
     0
 71
     0
 10
0.0
 20
0.0
 30
0.0
  3
GDimGGroup15
  1

  0
HATCH
  5
37C
330
37A
100
AcDbEntity
  8
Default
  6
Continuous
 62
     7
 48
25.4
100
AcDbHatch
 10
0.0
 20
0.0
 30
0.0
210
0.0
220
0.0
230
1.0
  2
SOLID
 70
     1
 71
     0
 91
        1
 92
        1
 93
        3
 72
     1
 10
234.5921434497067
 20
217.2791833434887
 11
233.2588100530435
 21
217.2791833434887
 72
     1
 10
233.2588100530435
 20
217.2791833434887
 11
233.9254767513751
 21
213.2791831534989
 72
     1
 10
233.9254767513751
 20
213.2791831534989
 11
234.5921434497067
 21
217.2791833434887
 97
        0
 75
     0
 76
     1
 98
        0
  0
LWPOLYLINE
  5
37D
330
37A
100
AcDbEntity
  8
Default
  6
Continuous
 62
     7
 48
25.4
370
     9
100
AcDbPolyline
 90
        4
 70
     1
 43
0.0001
 10
234.5921434497
 20
217.2791833435
 10
233.9254767514
 20
213.2791831535
 10
233.258810053
 20
217.2791833435
 10
234.5921434497
 20
217.2791833435
  0
HATCH
  5
37E
330
37A
100
AcDbEntity
  8
Default
  6
Continuous
 62
     7
 48
25.4
100
AcDbHatch
 10
0.0
 20
0.0
 30
0.0
210
0.0
220
0.0
230
1.0
  2
SOLID
 70
     1
 71
     0
 91
        1
 92
        1
 93
        3
 72
     1
 10
234.5921434497067
 20
228.4791829635091
 11
233.9254767513751
 21
232.4791831534989
 72
     1
 10
233.9254767513751
 20
232.4791831534989
 11
233.2588100530435
 21
228.4791829635091
 72
     1
 10
233.2588100530435
 20
228.4791829635091
 11
234.5921434497067
 21
228.4791829635091
 97
        0
 75
     0
 76
     1
 98
        0
  0
LWPOLYLINE
  5
37F
330
37A
100
AcDbEntity
  8
Default
  6
Continuous
 62
     7
 48
25.4
370
     9
100
AcDbPolyline
 90
        4
 70
     1
 43
0.0001
 10
234.5921434497
 20
228.4791829635
 10
233.9254767514
 20
232.4791831535
 10
233.258810053
 20
228.4791829635
 10
234.5921434497
 20
228.4791829635
  0
LINE
  5
380
330
37A
100
AcDbEntity
  8
Default
  6
Continuous
 62
     7
 48
25.4
100
AcDbLine
 10
218.3827702767
 20
213.2791831535
 30
0.0
 11
235.9254768464
 21
213.2791831535
 31
0.0
  0
LINE
  5
381
330
37A
100
AcDbEntity
  8
Default
  6
Continuous
 62
     7
 48
25.4
100
AcDbLine
 10
218.3827702767
 20
232.4791831535
 30
0.0
 11
235.9254768464
 21
232.4791831535
 31
0.0
  0
LINE
  5
382
330
37A
100
AcDbEntity
  8
Default
  6
Continuous
 62
     7
 48
25.4
100
AcDbLine
 10
233.9254767514
 20
213.2791831535
 30
0.0
 11
233.9254767514
 21
250.8134349626
 31
0.0
  0
TEXT
  5
383
330
37A
100
AcDbEntity
  8
Default
  6
Continuous
 62
     7
 48
25.4
100
AcDbText
 10
232.9254767514
 20
243.1525667429
 30
0.0
 40
4.0
  1
32
 50
90.0
  7
SEACAD_arial_ttf
 11
228.9254767514
 21
243.1525667429
 31
0.0
100
AcDbText
 73
     3
  0
TEXT
  5
384
330
37A
100
AcDbEntity
  8
Default
  6
Continuous
 62
     7
 48
25.4
100
AcDbText
 10
232.9254767514
 20
235.7911632341
 30
0.0
 40
4.0
  1
O
 50
90.0
  7
SEACAD_semeca1_ttf
 11
228.9254767514
 21
235.7911632341
 31
0.0
100
AcDbText
 73
     3
  0
ENDBLK
  5
386
330
37A
100
AcDbEntity
  8
0
100
AcDbBlockEnd
  0
BLOCK
  5
391
330
387
100
AcDbEntity
  8
0
100
AcDbBlockBegin
  2
GDimGGroup16
 70
     0
 71
     0
 10
0.0
 20
0.0
 30
0.0
  3
GDimGGroup16
  1

  0
HATCH
  5
389
330
387
100
AcDbEntity
  8
Default
  6
Continuous
 62
     7
 48
25.4
100
AcDbHatch
 10
0.0
 20
0.0
 30
0.0
210
0.0
220
0.0
230
1.0
  2
SOLID
 70
     1
 71
     0
 91
        1
 92
        1
 93
        3
 72
     1
 10
174.7827700867235
 20
267.9190722746786
 11
178.7827702767133
 21
268.5857389730102
 72
     1
 10
178.7827702767133
 20
268.5857389730102
 11
174.7827700867235
 21
269.2524056713419
 72
     1
 10
174.7827700867235
 20
269.2524056713419
 11
174.7827700867235
 21
267.9190722746786
 97
        0
 75
     0
 76
     1
 98
        0
  0
LWPOLYLINE
  5
38A
330
387
100
AcDbEntity
  8
Default
  6
Continuous
 62
     7
 48
25.4
370
     9
100
AcDbPolyline
 90
        4
 70
     1
 43
0.0001
 10
174.7827700867
 20
267.9190722747
 10
178.7827702767
 20
268.585738973
 10
174.7827700867
 20
269.2524056713
 10
174.7827700867
 20
267.9190722747
  0
HATCH
  5
38B
330
387
100
AcDbEntity
  8
Default
  6
Continuous
 62
     7
 48
25.4
100
AcDbHatch
 10
0.0
 20
0.0
 30
0.0
210
0.0
220
0.0
230
1.0
  2
SOLID
 70
     1
 71
     0
 91
        1
 92
        1
 93
        3
 72
     1
 10
165.9827704667031
 20
267.9190722746786
 11
165.9827704667031
 21
269.2524056713419
 72
     1
 10
165.9827704667031
 20
269.2524056713419
 11
161.9827702767133
 21
268.5857389730102
 72
     1
 10
161.9827702767133
 20
268.5857389730102
 11
165.9827704667031
 21
267.9190722746786
 97
        0
 75
     0
 76
     1
 98
        0
  0
LWPOLYLINE
  5
38C
330
387
100
AcDbEntity
  8
Default
  6
Continuous
 62
     7
 48
25.4
370
     9
100
AcDbPolyline
 90
        4
 70
     1
 43
0.0001
 10
165.9827704667
 20
267.9190722747
 10
161.9827702767
 20
268.585738973
 10
165.9827704667
 20
269.2524056713
 10
165.9827704667
 20
267.9190722747
  0
LINE
  5
38D
330
387
100
AcDbEntity
  8
Default
  6
Continuous
 62
     7
 48
25.4
100
AcDbLine
 10
178.7827702767
 20
293.3791813117
 30
0.0
 11
178.7827702767
 21
266.585738878
 31
0.0
  0
LINE
  5
38E
330
387
100
AcDbEntity
  8
Default
  6
Continuous
 62
     7
 48
25.4
100
AcDbLine
 10
161.9827702767
 20
293.3791819972
 30
0.0
 11
161.9827702767
 21
266.585738878
 31
0.0
  0
LINE
  5
38F
330
387
100
AcDbEntity
  8
Default
  6
Continuous
 62
     7
 48
25.4
100
AcDbLine
 10
178.7827702767
 20
268.585738973
 30
0.0
 11
125.9220408804
 21
268.585738973
 31
0.0
  0
TEXT
  5
390
330
387
100
AcDbEntity
  8
Default
  6
Continuous
 62
     7
 48
25.4
100
AcDbText
 10
127.3220421712
 20
269.585738973
 30
0.0
 40
4.0
  1
28
  7
SEACAD_arial_ttf
 11
127.3220421712
 21
273.585738973
 31
0.0
100
AcDbText
 73
     3
  0
ENDBLK
  5
392
330
387
100
AcDbEntity
  8
0
100
AcDbBlockEnd
  0
BLOCK
  5
39E
330
393
100
AcDbEntity
  8
0
100
AcDbBlockBegin
  2
GDimGGroup17
 70
     0
 71
     0
 10
0.0
 20
0.0
 30
0.0
  3
GDimGGroup17
  1

  0
HATCH
  5
395
330
393
100
AcDbEntity
  8
Default
  6
Continuous
 62
     7
 48
25.4
100
AcDbHatch
 10
0.0
 20
0.0
 30
0.0
210
0.0
220
0.0
230
1.0
  2
SOLID
 70
     1
 71
     0
 91
        1
 92
        1
 93
        3
 72
     1
 10
100.9324494667579
 20
260.1791833434887
 11
101.5991161650895
 21
256.1791831534989
 72
     1
 10
101.5991161650895
 20
256.1791831534989
 11
102.2657828634212
 21
260.1791833434887
 72
     1
 10
102.2657828634212
 20
260.1791833434887
 11
100.9324494667579
 21
260.1791833434887
 97
        0
 75
     0
 76
     1
 98
        0
  0
LWPOLYLINE
  5
396
330
393
100
AcDbEntity
  8
Default
  6
Continuous
 62
     7
 48
25.4
370
     9
100
AcDbPolyline
 90
        4
 70
     1
 43
0.0001
 10
100.9324494668
 20
260.1791833435
 10
101.5991161651
 20
256.1791831535
 10
102.2657828634
 20
260.1791833435
 10
100.9324494668
 20
260.1791833435
  0
HATCH
  5
397
330
393
100
AcDbEntity
  8
Default
  6
Continuous
 62
     7
 48
25.4
100
AcDbHatch
 10
0.0
 20
0.0
 30
0.0
210
0.0
220
0.0
230
1.0
  2
SOLID
 70
     1
 71
     0
 91
        1
 92
        1
 93
        3
 72
     1
 10
100.9324494667579
 20
326.5791832376904
 11
102.2657828634212
 21
326.5791832376904
 72
     1
 10
102.2657828634212
 20
326.5791832376904
 11
101.5991161650895
 21
330.5791834276802
 72
     1
 10
101.5991161650895
 20
330.5791834276802
 11
100.9324494667579
 21
326.5791832376904
 97
        0
 75
     0
 76
     1
 98
        0
  0
LWPOLYLINE
  5
398
330
393
100
AcDbEntity
  8
Default
  6
Continuous
 62
     7
 48
25.4
370
     9
100
AcDbPolyline
 90
        4
 70
     1
 43
0.0001
 10
100.9324494668
 20
326.5791832377
 10
101.5991161651
 20
330.5791834277
 10
102.2657828634
 20
326.5791832377
 10
100.9324494668
 20
326.5791832377
  0
LINE
  5
399
330
393
100
AcDbEntity
  8
Default
  6
Continuous
 62
     7
 48
25.4
100
AcDbLine
 10
162.5827702767
 20
256.1791831535
 30
0.0
 11
99.5991160701
 21
256.1791831535
 31
0.0
  0
LINE
  5
39A
330
393
100
AcDbEntity
  8
Default
  6
Continuous
 62
     7
 48
25.4
100
AcDbLine
 10
162.5827702767
 20
330.5791831535
 30
0.0
 11
99.5991160701
 21
330.5791831535
 31
0.0
  0
LINE
  5
39B
330
393
100
AcDbEntity
  8
Default
  6
Continuous
 62
     7
 48
25.4
100
AcDbLine
 10
101.5991161651
 20
256.1791831535
 30
0.0
 11
101.5991161651
 21
330.5791834277
 31
0.0
  0
TEXT
  5
39C
330
393
100
AcDbEntity
  8
Default
  6
Continuous
 62
     7
 48
25.4
100
AcDbText
 10
100.5991161651
 20
292.3642328711
 30
0.0
 40
4.0
  1
124
 50
90.0
  7
SEACAD_arial_ttf
 11
96.5991161651
 21
292.3642328711
 31
0.0
100
AcDbText
 73
     3
  0
TEXT
  5
39D
330
393
100
AcDbEntity
  8
Default
  6
Continuous
 62
     7
 48
25.4
100
AcDbText
 10
100.5991161651
 20
285.0028293623
 30
0.0
 40
4.0
  1
O
 50
90.0
  7
SEACAD_semeca1_ttf
 11
96.5991161651
 21
285.0028293623
 31
0.0
100
AcDbText
 73
     3
  0
ENDBLK
  5
39F
330
393
100
AcDbEntity
  8
0
100
AcDbBlockEnd
  0
BLOCK
  5
3AB
330
3A0
100
AcDbEntity
  8
0
100
AcDbBlockBegin
  2
GDimGGroup18
 70
     0
 71
     0
 10
0.0
 20
0.0
 30
0.0
  3
GDimGGroup18
  1

  0
HATCH
  5
3A2
330
3A0
100
AcDbEntity
  8
Default
  6
Continuous
 62
     7
 48
25.4
100
AcDbHatch
 10
0.0
 20
0.0
 30
0.0
210
0.0
220
0.0
230
1.0
  2
SOLID
 70
     1
 71
     0
 91
        1
 92
        1
 93
        3
 72
     1
 10
65.4013313638573
 20
243.0791833434887
 11
66.06799806218893
 21
239.0791831534989
 72
     1
 10
66.06799806218893
 20
239.0791831534989
 11
66.73466476052057
 21
243.0791833434887
 72
     1
 10
66.73466476052057
 20
243.0791833434887
 11
65.4013313638573
 21
243.0791833434887
 97
        0
 75
     0
 76
     1
 98
        0
  0
LWPOLYLINE
  5
3A3
330
3A0
100
AcDbEntity
  8
Default
  6
Continuous
 62
     7
 48
25.4
370
     9
100
AcDbPolyline
 90
        4
 70
     1
 43
0.0001
 10
65.4013313639
 20
243.0791833435
 10
66.0679980622
 20
239.0791831535
 10
66.7346647605
 20
243.0791833435
 10
65.4013313639
 20
243.0791833435
  0
HATCH
  5
3A4
330
3A0
100
AcDbEntity
  8
Default
  6
Continuous
 62
     7
 48
25.4
100
AcDbHatch
 10
0.0
 20
0.0
 30
0.0
210
0.0
220
0.0
230
1.0
  2
SOLID
 70
     1
 71
     0
 91
        1
 92
        1
 93
        3
 72
     1
 10
65.4013313638573
 20
343.6791810203976
 11
66.73466476052057
 21
343.6791810203976
 72
     1
 10
66.73466476052057
 20
343.6791810203976
 11
66.06799806218893
 21
347.6791812103874
 72
     1
 10
66.06799806218893
 20
347.6791812103874
 11
65.4013313638573
 21
343.6791810203976
 97
        0
 75
     0
 76
     1
 98
        0
  0
LWPOLYLINE
  5
3A5
330
3A0
100
AcDbEntity
  8
Default
  6
Continuous
 62
     7
 48
25.4
370
     9
100
AcDbPolyline
 90
        4
 70
     1
 43
0.0001
 10
65.4013313639
 20
343.6791810204
 10
66.0679980622
 20
347.6791812104
 10
66.7346647605
 20
343.6791810204
 10
65.4013313639
 20
343.6791810204
  0
LINE
  5
3A6
330
3A0
100
AcDbEntity
  8
Default
  6
Continuous
 62
     7
 48
25.4
100
AcDbLine
 10
186.4835440622
 20
239.0791831535
 30
0.0
 11
64.0679979672
 21
239.0791831535
 31
0.0
  0
LINE
  5
3A7
330
3A0
100
AcDbEntity
  8
Default
  6
Continuous
 62
     7
 48
25.4
100
AcDbLine
 10
176.3827702767
 20
347.6791831535
 30
0.0
 11
64.0679979672
 21
347.6791831535
 31
0.0
  0
LINE
  5
3A8
330
3A0
100
AcDbEntity
  8
Default
  6
Continuous
 62
     7
 48
25.4
100
AcDbLine
 10
66.0679980622
 20
239.0791831535
 30
0.0
 11
66.0679980622
 21
347.6791812104
 31
0.0
  0
TEXT
  5
3A9
330
3A0
100
AcDbEntity
  8
Default
  6
Continuous
 62
     7
 48
25.4
100
AcDbText
 10
65.0679980622
 20
292.3642317624
 30
0.0
 40
4.0
  1
181
 50
90.0
  7
SEACAD_arial_ttf
 11
61.0679980622
 21
292.3642317624
 31
0.0
100
AcDbText
 73
     3
  0
TEXT
  5
3AA
330
3A0
100
AcDbEntity
  8
Default
  6
Continuous
 62
     7
 48
25.4
100
AcDbText
 10
65.0679980622
 20
285.0028282536
 30
0.0
 40
4.0
  1
O
 50
90.0
  7
SEACAD_semeca1_ttf
 11
61.0679980622
 21
285.0028282536
 31
0.0
100
AcDbText
 73
     3
  0
ENDBLK
  5
3AC
330
3A0
100
AcDbEntity
  8
0
100
AcDbBlockEnd
  0
BLOCK
  5
3B6
330
3AD
100
AcDbEntity
  8
0
100
AcDbBlockBegin
  2
GDimGGroup19
 70
     0
 71
     0
 10
0.0
 20
0.0
 30
0.0
  3
GDimGGroup19
  1

  0
HATCH
  5
3AF
330
3AD
100
AcDbEntity
  8
Default
  6
Continuous
 62
     7
 48
25.4
100
AcDbHatch
 10
0.0
 20
0.0
 30
0.0
210
0.0
220
0.0
230
1.0
  2
SOLID
 70
     1
 71
     0
 91
        1
 92
        1
 93
        3
 72
     1
 10
204.3568542547752
 20
265.5791833434887
 11
205.0235209531068
 21
261.5791831534989
 72
     1
 10
205.0235209531068
 20
261.5791831534989
 11
205.6901876514384
 21
265.5791833434887
 72
     1
 10
205.6901876514384
 20
265.5791833434887
 11
204.3568542547752
 21
265.5791833434887
 97
        0
 75
     0
 76
     1
 98
        0
  0
LWPOLYLINE
  5
3B0
330
3AD
100
AcDbEntity
  8
Default
  6
Continuous
 62
     7
 48
25.4
370
     9
100
AcDbPolyline
 90
        4
 70
     1
 43
0.0001
 10
204.3568542548
 20
265.5791833435
 10
205.0235209531
 20
261.5791831535
 10
205.6901876514
 20
265.5791833435
 10
204.3568542548
 20
265.5791833435
  0
HATCH
  5
3B1
330
3AD
100
AcDbEntity
  8
Default
  6
Continuous
 62
     7
 48
25.4
100
AcDbHatch
 10
0.0
 20
0.0
 30
0.0
210
0.0
220
0.0
230
1.0
  2
SOLID
 70
     1
 71
     0
 91
        1
 92
        1
 93
        3
 72
     1
 10
204.3568542547752
 20
321.1791866828389
 11
205.6901876514384
 21
321.1791866828389
 72
     1
 10
205.6901876514384
 20
321.1791866828389
 11
205.0235209531068
 21
325.1791868728287
 72
     1
 10
205.0235209531068
 20
325.1791868728287
 11
204.3568542547752
 21
321.1791866828389
 97
        0
 75
     0
 76
     1
 98
        0
  0
LWPOLYLINE
  5
3B2
330
3AD
100
AcDbEntity
  8
Default
  6
Continuous
 62
     7
 48
25.4
370
     9
100
AcDbPolyline
 90
        4
 70
     1
 43
0.0001
 10
204.3568542548
 20
321.1791866828
 10
205.0235209531
 20
325.1791868728
 10
205.6901876514
 20
321.1791866828
 10
204.3568542548
 20
321.1791866828
  0
LINE
  5
3B3
330
3AD
100
AcDbEntity
  8
Default
  6
Continuous
 62
     7
 48
25.4
100
AcDbLine
 10
205.0235209531
 20
261.5791831535
 30
0.0
 11
205.0235209531
 21
325.1791868728
 31
0.0
  0
TEXT
  5
3B4
330
3AD
100
AcDbEntity
  8
Default
  6
Continuous
 62
     7
 48
25.4
100
AcDbText
 10
204.0235209531
 20
294.0993556054
 30
0.0
 40
4.0
  1
106
 50
90.0
  7
SEACAD_arial_ttf
 11
200.0235209531
 21
294.0993556054
 31
0.0
100
AcDbText
 73
     3
  0
TEXT
  5
3B5
330
3AD
100
AcDbEntity
  8
Default
  6
Continuous
 62
     7
 48
25.4
100
AcDbText
 10
204.0235209531
 20
286.7379520966
 30
0.0
 40
4.0
  1
O
 50
90.0
  7
SEACAD_semeca1_ttf
 11
200.0235209531
 21
286.7379520966
 31
0.0
100
AcDbText
 73
     3
  0
ENDBLK
  5
3B7
330
3AD
100
AcDbEntity
  8
0
100
AcDbBlockEnd
  0
BLOCK
  5
3C2
330
3B8
100
AcDbEntity
  8
0
100
AcDbBlockBegin
  2
GDimGGroup20
 70
     0
 71
     0
 10
0.0
 20
0.0
 30
0.0
  3
GDimGGroup20
  1

  0
HATCH
  5
3BA
330
3B8
100
AcDbEntity
  8
Default
  6
Continuous
 62
     7
 48
25.4
100
AcDbHatch
 10
0.0
 20
0.0
 30
0.0
210
0.0
220
0.0
230
1.0
  2
SOLID
 70
     1
 71
     0
 91
        1
 92
        1
 93
        3
 72
     1
 10
161.1827704667031
 20
184.6250596446929
 11
161.1827704667031
 21
185.9583930413561
 72
     1
 10
161.1827704667031
 20
185.9583930413561
 11
157.1827702767133
 21
185.2917263430245
 72
     1
 10
157.1827702767133
 20
185.2917263430245
 11
161.1827704667031
 21
184.6250596446929
 97
        0
 75
     0
 76
     1
 98
        0
  0
LWPOLYLINE
  5
3BB
330
3B8
100
AcDbEntity
  8
Default
  6
Continuous
 62
     7
 48
25.4
370
     9
100
AcDbPolyline
 90
        4
 70
     1
 43
0.0001
 10
161.1827704667
 20
184.6250596447
 10
157.1827702767
 20
185.291726343
 10
161.1827704667
 20
185.9583930414
 10
161.1827704667
 20
184.6250596447
  0
HATCH
  5
3BC
330
3B8
100
AcDbEntity
  8
Default
  6
Continuous
 62
     7
 48
25.4
100
AcDbHatch
 10
0.0
 20
0.0
 30
0.0
210
0.0
220
0.0
230
1.0
  2
SOLID
 70
     1
 71
     0
 91
        1
 92
        1
 93
        3
 72
     1
 10
149.5827700867234
 20
184.6250596446929
 11
153.5827702767132
 21
185.2917263430245
 72
     1
 10
153.5827702767132
 20
185.2917263430245
 11
149.5827700867234
 21
185.9583930413561
 72
     1
 10
149.5827700867234
 20
185.9583930413561
 11
149.5827700867234
 21
184.6250596446929
 97
        0
 75
     0
 76
     1
 98
        0
  0
LWPOLYLINE
  5
3BD
330
3B8
100
AcDbEntity
  8
Default
  6
Continuous
 62
     7
 48
25.4
370
     9
100
AcDbPolyline
 90
        4
 70
     1
 43
0.0001
 10
149.5827700867
 20
184.6250596447
 10
153.5827702767
 20
185.291726343
 10
149.5827700867
 20
185.9583930414
 10
149.5827700867
 20
184.6250596447
  0
LINE
  5
3BE
330
3B8
100
AcDbEntity
  8
Default
  6
Continuous
 62
     7
 48
25.4
100
AcDbLine
 10
157.1827702767
 20
210.5791831535
 30
0.0
 11
157.1827702767
 21
183.291726248
 31
0.0
  0
LINE
  5
3BF
330
3B8
100
AcDbEntity
  8
Default
  6
Continuous
 62
     7
 48
25.4
100
AcDbLine
 10
153.5827702767
 20
201.2791831535
 30
0.0
 11
153.5827702767
 21
183.291726248
 31
0.0
  0
LINE
  5
3C0
330
3B8
100
AcDbEntity
  8
Default
  6
Continuous
 62
     7
 48
25.4
100
AcDbLine
 10
167.1001570842
 20
185.291726343
 30
0.0
 11
145.5827704242
 21
185.291726343
 31
0.0
  0
TEXT
  5
3C1
330
3B8
100
AcDbEntity
  8
Default
  6
Continuous
 62
     7
 48
25.4
100
AcDbText
 10
162.5697221718
 20
186.291726343
 30
0.0
 40
4.0
  1
6
  7
SEACAD_arial_ttf
 11
162.5697221718
 21
190.291726343
 31
0.0
100
AcDbText
 73
     3
  0
ENDBLK
  5
3C3
330
3B8
100
AcDbEntity
  8
0
100
AcDbBlockEnd
  0
BLOCK
  5
3CE
330
3C4
100
AcDbEntity
  8
0
100
AcDbBlockBegin
  2
GDimGGroup21
 70
     0
 71
     0
 10
0.0
 20
0.0
 30
0.0
  3
GDimGGroup21
  1

  0
HATCH
  5
3C6
330
3C4
100
AcDbEntity
  8
Default
  6
Continuous
 62
     7
 48
25.4
100
AcDbHatch
 10
0.0
 20
0.0
 30
0.0
210
0.0
220
0.0
230
1.0
  2
SOLID
 70
     1
 71
     0
 91
        1
 92
        1
 93
        3
 72
     1
 10
133.3827700867234
 20
169.8803690774379
 11
137.3827702767133
 21
170.5470357757695
 72
     1
 10
137.3827702767133
 20
170.5470357757695
 11
133.3827700867234
 21
171.2137024741011
 72
     1
 10
133.3827700867234
 20
171.2137024741011
 11
133.3827700867234
 21
169.8803690774379
 97
        0
 75
     0
 76
     1
 98
        0
  0
LWPOLYLINE
  5
3C7
330
3C4
100
AcDbEntity
  8
Default
  6
Continuous
 62
     7
 48
25.4
370
     9
100
AcDbPolyline
 90
        4
 70
     1
 43
0.0001
 10
133.3827700867
 20
169.8803690774
 10
137.3827702767
 20
170.5470357758
 10
133.3827700867
 20
171.2137024741
 10
133.3827700867
 20
169.8803690774
  0
HATCH
  5
3C8
330
3C4
100
AcDbEntity
  8
Default
  6
Continuous
 62
     7
 48
25.4
100
AcDbHatch
 10
0.0
 20
0.0
 30
0.0
210
0.0
220
0.0
230
1.0
  2
SOLID
 70
     1
 71
     0
 91
        1
 92
        1
 93
        3
 72
     1
 10
126.9827707140623
 20
169.8803690774379
 11
126.9827707140623
 21
171.2137024741011
 72
     1
 10
126.9827707140623
 20
171.2137024741011
 11
122.9827705240725
 21
170.5470357757695
 72
     1
 10
122.9827705240725
 20
170.5470357757695
 11
126.9827707140623
 21
169.8803690774379
 97
        0
 75
     0
 76
     1
 98
        0
  0
LWPOLYLINE
  5
3C9
330
3C4
100
AcDbEntity
  8
Default
  6
Continuous
 62
     7
 48
25.4
370
     9
100
AcDbPolyline
 90
        4
 70
     1
 43
0.0001
 10
126.9827707141
 20
169.8803690774
 10
122.9827705241
 20
170.5470357758
 10
126.9827707141
 20
171.2137024741
 10
126.9827707141
 20
169.8803690774
  0
LINE
  5
3CA
330
3C4
100
AcDbEntity
  8
Default
  6
Continuous
 62
     7
 48
25.4
100
AcDbLine
 10
137.3827702767
 20
204.5791831535
 30
0.0
 11
137.3827702767
 21
168.5470356808
 31
0.0
  0
LINE
  5
3CB
330
3C4
100
AcDbEntity
  8
Default
  6
Continuous
 62
     7
 48
25.4
100
AcDbLine
 10
122.9827702767
 20
241.9591831535
 30
0.0
 11
122.9827702767
 21
168.5470356808
 31
0.0
  0
LINE
  5
3CC
330
3C4
100
AcDbEntity
  8
Default
  6
Continuous
 62
     7
 48
25.4
100
AcDbLine
 10
137.3827702767
 20
170.5470357758
 30
0.0
 11
122.9827705241
 21
170.5470357758
 31
0.0
  0
TEXT
  5
3CD
330
3C4
100
AcDbEntity
  8
Default
  6
Continuous
 62
     7
 48
25.4
100
AcDbText
 10
127.0523356178
 20
171.5470357758
 30
0.0
 40
4.0
  1
24
  7
SEACAD_arial_ttf
 11
127.0523356178
 21
175.5470357758
 31
0.0
100
AcDbText
 73
     3
  0
ENDBLK
  5
3CF
330
3C4
100
AcDbEntity
  8
0
100
AcDbBlockEnd
  0
BLOCK
  5
3DA
330
3D0
100
AcDbEntity
  8
0
100
AcDbBlockBegin
  2
GDimGGroup22
 70
     0
 71
     0
 10
0.0
 20
0.0
 30
0.0
  3
GDimGGroup22
  1

  0
HATCH
  5
3D2
330
3D0
100
AcDbEntity
  8
Default
  6
Continuous
 62
     7
 48
25.4
100
AcDbHatch
 10
0.0
 20
0.0
 30
0.0
210
0.0
220
0.0
230
1.0
  2
SOLID
 70
     1
 71
     0
 91
        1
 92
        1
 93
        3
 72
     1
 10
141.3827704667031
 20
169.8803690774379
 11
141.3827704667031
 21
171.2137024741011
 72
     1
 10
141.3827704667031
 20
171.2137024741011
 11
137.3827702767133
 21
170.5470357757695
 72
     1
 10
137.3827702767133
 20
170.5470357757695
 11
141.3827704667031
 21
169.8803690774379
 97
        0
 75
     0
 76
     1
 98
        0
  0
LWPOLYLINE
  5
3D3
330
3D0
100
AcDbEntity
  8
Default
  6
Continuous
 62
     7
 48
25.4
370
     9
100
AcDbPolyline
 90
        4
 70
     1
 43
0.0001
 10
141.3827704667
 20
169.8803690774
 10
137.3827702767
 20
170.5470357758
 10
141.3827704667
 20
171.2137024741
 10
141.3827704667
 20
169.8803690774
  0
HATCH
  5
3D4
330
3D0
100
AcDbEntity
  8
Default
  6
Continuous
 62
     7
 48
25.4
100
AcDbHatch
 10
0.0
 20
0.0
 30
0.0
210
0.0
220
0.0
230
1.0
  2
SOLID
 70
     1
 71
     0
 91
        1
 92
        1
 93
        3
 72
     1
 10
214.382770325142
 20
169.8803690774379
 11
218.3827705151318
 21
170.5470357757695
 72
     1
 10
218.3827705151318
 20
170.5470357757695
 11
214.382770325142
 21
171.2137024741011
 72
     1
 10
214.382770325142
 20
171.2137024741011
 11
214.382770325142
 21
169.8803690774379
 97
        0
 75
     0
 76
     1
 98
        0
  0
LWPOLYLINE
  5
3D5
330
3D0
100
AcDbEntity
  8
Default
  6
Continuous
 62
     7
 48
25.4
370
     9
100
AcDbPolyline
 90
        4
 70
     1
 43
0.0001
 10
214.3827703251
 20
169.8803690774
 10
218.3827705151
 20
170.5470357758
 10
214.3827703251
 20
171.2137024741
 10
214.3827703251
 20
169.8803690774
  0
LINE
  5
3D6
330
3D0
100
AcDbEntity
  8
Default
  6
Continuous
 62
     7
 48
25.4
100
AcDbLine
 10
137.3827702767
 20
204.5791831535
 30
0.0
 11
137.3827702767
 21
168.5470356808
 31
0.0
  0
LINE
  5
3D7
330
3D0
100
AcDbEntity
  8
Default
  6
Continuous
 62
     7
 48
25.4
100
AcDbLine
 10
218.3827702767
 20
201.2791831535
 30
0.0
 11
218.3827702767
 21
168.5470356808
 31
0.0
  0
LINE
  5
3D8
330
3D0
100
AcDbEntity
  8
Default
  6
Continuous
 62
     7
 48
25.4
100
AcDbLine
 10
137.3827702767
 20
170.5470357758
 30
0.0
 11
218.3827705151
 21
170.5470357758
 31
0.0
  0
TEXT
  5
3D9
330
3D0
100
AcDbEntity
  8
Default
  6
Continuous
 62
     7
 48
25.4
100
AcDbText
 10
173.187118222
 20
171.5470357758
 30
0.0
 40
4.0
  1
135
  7
SEACAD_arial_ttf
 11
173.187118222
 21
175.5470357758
 31
0.0
100
AcDbText
 73
     3
  0
ENDBLK
  5
3DB
330
3D0
100
AcDbEntity
  8
0
100
AcDbBlockEnd
  0
BLOCK
  5
3E6
330
3DC
100
AcDbEntity
  8
0
100
AcDbBlockBegin
  2
GDimGGroup23
 70
     0
 71
     0
 10
0.0
 20
0.0
 30
0.0
  3
GDimGGroup23
  1

  0
HATCH
  5
3DE
330
3DC
100
AcDbEntity
  8
Default
  6
Continuous
 62
     7
 48
25.4
100
AcDbHatch
 10
0.0
 20
0.0
 30
0.0
210
0.0
220
0.0
230
1.0
  2
SOLID
 70
     1
 71
     0
 91
        1
 92
        1
 93
        3
 72
     1
 10
82.91447388606555
 20
255.4634833434886
 11
83.58114058439719
 21
251.4634831534988
 72
     1
 10
83.58114058439719
 20
251.4634831534988
 11
84.24780728272883
 21
255.4634833434886
 72
     1
 10
84.24780728272883
 20
255.4634833434886
 11
82.91447388606555
 21
255.4634833434886
 97
        0
 75
     0
 76
     1
 98
        0
  0
LWPOLYLINE
  5
3DF
330
3DC
100
AcDbEntity
  8
Default
  6
Continuous
 62
     7
 48
25.4
370
     9
100
AcDbPolyline
 90
        4
 70
     1
 43
0.0001
 10
82.9144738861
 20
255.4634833435
 10
83.5811405844
 20
251.4634831535
 10
84.2478072827
 20
255.4634833435
 10
82.9144738861
 20
255.4634833435
  0
HATCH
  5
3E0
330
3DC
100
AcDbEntity
  8
Default
  6
Continuous
 62
     7
 48
25.4
100
AcDbHatch
 10
0.0
 20
0.0
 30
0.0
210
0.0
220
0.0
230
1.0
  2
SOLID
 70
     1
 71
     0
 91
        1
 92
        1
 93
        3
 72
     1
 10
82.91447388606555
 20
331.294882642693
 11
84.24780728272883
 21
331.294882642693
 72
     1
 10
84.24780728272883
 20
331.294882642693
 11
83.58114058439719
 21
335.2948828326828
 72
     1
 10
83.58114058439719
 20
335.2948828326828
 11
82.91447388606555
 21
331.294882642693
 97
        0
 75
     0
 76
     1
 98
        0
  0
LWPOLYLINE
  5
3E1
330
3DC
100
AcDbEntity
  8
Default
  6
Continuous
 62
     7
 48
25.4
370
     9
100
AcDbPolyline
 90
        4
 70
     1
 43
0.0001
 10
82.9144738861
 20
331.2948826427
 10
83.5811405844
 20
335.2948828327
 10
84.2478072827
 20
331.2948826427
 10
82.9144738861
 20
331.2948826427
  0
LINE
  5
3E2
330
3DC
100
AcDbEntity
  8
Default
  6
Continuous
 62
     7
 48
25.4
100
AcDbLine
 10
137.3827702767
 20
251.4634831535
 30
0.0
 11
81.5811404894
 21
251.4634831535
 31
0.0
  0
LINE
  5
3E3
330
3DC
100
AcDbEntity
  8
Default
  6
Continuous
 62
     7
 48
25.4
100
AcDbLine
 10
137.3827702767
 20
335.2948831535
 30
0.0
 11
81.5811404894
 21
335.2948831535
 31
0.0
  0
LINE
  5
3E4
330
3DC
100
AcDbEntity
  8
Default
  6
Continuous
 62
     7
 48
25.4
100
AcDbLine
 10
83.5811405844
 20
251.4634831535
 30
0.0
 11
83.5811405844
 21
335.2948828327
 31
0.0
  0
TEXT
  5
3E5
330
3DC
100
AcDbEntity
  8
Default
  6
Continuous
 62
     7
 48
25.4
100
AcDbText
 10
82.5811405844
 20
283.2052699496
 30
0.0
 40
4.0
  1
139.719
 50
90.0
  7
SEACAD_arial_ttf
 11
78.5811405844
 21
283.2052699496
 31
0.0
100
AcDbText
 73
     3
  0
ENDBLK
  5
3E7
330
3DC
100
AcDbEntity
  8
0
100
AcDbBlockEnd
  0
BLOCK
  5
3F2
330
3E8
100
AcDbEntity
  8
0
100
AcDbBlockBegin
  2
GDimGGroup24
 70
     0
 71
     0
 10
0.0
 20
0.0
 30
0.0
  3
GDimGGroup24
  1

  0
HATCH
  5
3EA
330
3E8
100
AcDbEntity
  8
Default
  6
Continuous
 62
     7
 48
25.4
100
AcDbHatch
 10
0.0
 20
0.0
 30
0.0
210
0.0
220
0.0
230
1.0
  2
SOLID
 70
     1
 71
     0
 91
        1
 92
        1
 93
        3
 72
     1
 10
157.9827700867235
 20
312.9623607588943
 11
161.9827702767133
 21
313.629027457226
 72
     1
 10
161.9827702767133
 20
313.629027457226
 11
157.9827700867235
 21
314.2956941555576
 72
     1
 10
157.9827700867235
 20
314.2956941555576
 11
157.9827700867235
 21
312.9623607588943
 97
        0
 75
     0
 76
     1
 98
        0
  0
LWPOLYLINE
  5
3EB
330
3E8
100
AcDbEntity
  8
Default
  6
Continuous
 62
     7
 48
25.4
370
     9
100
AcDbPolyline
 90
        4
 70
     1
 43
0.0001
 10
157.9827700867
 20
312.9623607589
 10
161.9827702767
 20
313.6290274572
 10
157.9827700867
 20
314.2956941556
 10
157.9827700867
 20
312.9623607589
  0
HATCH
  5
3EC
330
3E8
100
AcDbEntity
  8
Default
  6
Continuous
 62
     7
 48
25.4
100
AcDbHatch
 10
0.0
 20
0.0
 30
0.0
210
0.0
220
0.0
230
1.0
  2
SOLID
 70
     1
 71
     0
 91
        1
 92
        1
 93
        3
 72
     1
 10
141.3827704667031
 20
312.9623607588943
 11
141.3827704667031
 21
314.2956941555576
 72
     1
 10
141.3827704667031
 20
314.2956941555576
 11
137.3827702767133
 21
313.629027457226
 72
     1
 10
137.3827702767133
 20
313.629027457226
 11
141.3827704667031
 21
312.9623607588943
 97
        0
 75
     0
 76
     1
 98
        0
  0
LWPOLYLINE
  5
3ED
330
3E8
100
AcDbEntity
  8
Default
  6
Continuous
 62
     7
 48
25.4
370
     9
100
AcDbPolyline
 90
        4
 70
     1
 43
0.0001
 10
141.3827704667
 20
312.9623607589
 10
137.3827702767
 20
313.6290274572
 10
141.3827704667
 20
314.2956941556
 10
141.3827704667
 20
312.9623607589
  0
LINE
  5
3EE
330
3E8
100
AcDbEntity
  8
Default
  6
Continuous
 62
     7
 48
25.4
100
AcDbLine
 10
161.9827702767
 20
313.6290274572
 30
0.0
 11
112.7622157461
 21
313.6290274572
 31
0.0
  0
TEXT
  5
3EF
330
3E8
100
AcDbEntity
  8
Default
  6
Continuous
 62
     7
 48
25.4
100
AcDbText
 10
128.8752585213
 20
320.6290274572
 30
0.0
 40
4.0
  1
41
  7
SEACAD_arial_ttf
 11
128.8752585213
 21
324.6290274572
 31
0.0
100
AcDbText
 73
     3
  0
TEXT
  5
3F0
330
3E8
100
AcDbEntity
  8
Default
  6
Continuous
 62
     7
 48
25.4
100
AcDbText
 10
114.162215043
 20
320.6290274572
 30
0.0
 40
4.0
  1
MAX
  7
SEACAD_arial_ttf
 11
114.162215043
 21
324.6290274572
 31
0.0
100
AcDbText
 73
     3
  0
TEXT
  5
3F1
330
3E8
100
AcDbEntity
  8
Default
  6
Continuous
 62
     7
 48
25.4
100
AcDbText
 10
114.162215043
 20
314.6290274572
 30
0.0
 40
4.0
  1
MIN 18
  7
SEACAD_arial_ttf
 11
114.162215043
 21
318.6290274572
 31
0.0
100
AcDbText
 73
     3
  0
ENDBLK
  5
3F3
330
3E8
100
AcDbEntity
  8
0
100
AcDbBlockEnd
  0
BLOCK
  5
3FE
330
3F4
100
AcDbEntity
  8
0
100
AcDbBlockBegin
  2
GDimGGroup25
 70
     0
 71
     0
 10
0.0
 20
0.0
 30
0.0
  3
GDimGGroup25
  1

  0
HATCH
  5
3F6
330
3F4
100
AcDbEntity
  8
Default
  6
Continuous
 62
     7
 48
25.4
100
AcDbHatch
 10
0.0
 20
0.0
 30
0.0
210
0.0
220
0.0
230
1.0
  2
SOLID
 70
     1
 71
     0
 91
        1
 92
        1
 93
        3
 72
     1
 10
141.3827704667031
 20
184.639283786529
 11
141.3827704667031
 21
185.9726171831923
 72
     1
 10
141.3827704667031
 20
185.9726171831923
 11
137.3827702767133
 21
185.3059504848607
 72
     1
 10
137.3827702767133
 20
185.3059504848607
 11
141.3827704667031
 21
184.639283786529
 97
        0
 75
     0
 76
     1
 98
        0
  0
LWPOLYLINE
  5
3F7
330
3F4
100
AcDbEntity
  8
Default
  6
Continuous
 62
     7
 48
25.4
370
     9
100
AcDbPolyline
 90
        4
 70
     1
 43
0.0001
 10
141.3827704667
 20
184.6392837865
 10
137.3827702767
 20
185.3059504849
 10
141.3827704667
 20
185.9726171832
 10
141.3827704667
 20
184.6392837865
  0
HATCH
  5
3F8
330
3F4
100
AcDbEntity
  8
Default
  6
Continuous
 62
     7
 48
25.4
100
AcDbHatch
 10
0.0
 20
0.0
 30
0.0
210
0.0
220
0.0
230
1.0
  2
SOLID
 70
     1
 71
     0
 91
        1
 92
        1
 93
        3
 72
     1
 10
149.5827705069362
 20
184.639283786529
 11
153.582770696926
 21
185.3059504848607
 72
     1
 10
153.582770696926
 20
185.3059504848607
 11
149.5827705069362
 21
185.9726171831923
 72
     1
 10
149.5827705069362
 20
185.9726171831923
 11
149.5827705069362
 21
184.639283786529
 97
        0
 75
     0
 76
     1
 98
        0
  0
LWPOLYLINE
  5
3F9
330
3F4
100
AcDbEntity
  8
Default
  6
Continuous
 62
     7
 48
25.4
370
     9
100
AcDbPolyline
 90
        4
 70
     1
 43
0.0001
 10
149.5827705069
 20
184.6392837865
 10
153.5827706969
 20
185.3059504849
 10
149.5827705069
 20
185.9726171832
 10
149.5827705069
 20
184.6392837865
  0
LINE
  5
3FA
330
3F4
100
AcDbEntity
  8
Default
  6
Continuous
 62
     7
 48
25.4
100
AcDbLine
 10
137.3827702767
 20
204.5791831535
 30
0.0
 11
137.3827702767
 21
183.3059503899
 31
0.0
  0
LINE
  5
3FB
330
3F4
100
AcDbEntity
  8
Default
  6
Continuous
 62
     7
 48
25.4
100
AcDbLine
 10
153.5827702767
 20
201.2791831535
 30
0.0
 11
153.5827702767
 21
183.3059503899
 31
0.0
  0
LINE
  5
3FC
330
3F4
100
AcDbEntity
  8
Default
  6
Continuous
 62
     7
 48
25.4
100
AcDbLine
 10
137.3827702767
 20
185.3059504849
 30
0.0
 11
153.5827706969
 21
185.3059504849
 31
0.0
  0
TEXT
  5
3FD
330
3F4
100
AcDbEntity
  8
Default
  6
Continuous
 62
     7
 48
25.4
100
AcDbText
 10
142.3523357042
 20
186.3059504849
 30
0.0
 40
4.0
  1
27
  7
SEACAD_arial_ttf
 11
142.3523357042
 21
190.3059504849
 31
0.0
100
AcDbText
 73
     3
  0
ENDBLK
  5
3FF
330
3F4
100
AcDbEntity
  8
0
100
AcDbBlockEnd
  0
BLOCK
  5
40C
330
400
100
AcDbEntity
  8
0
100
AcDbBlockBegin
  2
GDimGGroup26
 70
     0
 71
     0
 10
0.0
 20
0.0
 30
0.0
  3
GDimGGroup26
  1

  0
HATCH
  5
402
330
400
100
AcDbEntity
  8
Default
  6
Continuous
 62
     7
 48
25.4
100
AcDbHatch
 10
0.0
 20
0.0
 30
0.0
210
0.0
220
0.0
230
1.0
  2
SOLID
 70
     1
 71
     0
 91
        1
 92
        1
 93
        3
 72
     1
 10
83.9087699977996
 20
345.9131723767233
 11
83.93241578581652
 21
341.8580661039738
 72
     1
 10
83.93241578581652
 20
341.8580661039738
 11
85.22521775047602
 21
345.7016463472829
 72
     1
 10
85.22521775047602
 20
345.7016463472829
 11
83.9087699977996
 21
345.9131723767233
 97
        0
 75
     0
 76
     1
 98
        0
  0
LWPOLYLINE
  5
403
330
400
100
AcDbEntity
  8
Default
  6
Continuous
 62
     7
 48
25.4
370
     9
100
AcDbPolyline
 90
        4
 70
     1
 43
0.0001
 10
83.9087699978
 20
345.9131723767
 10
83.9324157858
 20
341.858066104
 10
85.2252177505
 20
345.7016463473
 10
83.9087699978
 20
345.9131723767
  0
HATCH
  5
404
330
400
100
AcDbEntity
  8
Default
  6
Continuous
 62
     7
 48
25.4
100
AcDbHatch
 10
0.0
 20
0.0
 30
0.0
210
0.0
220
0.0
230
1.0
  2
SOLID
 70
     1
 71
     0
 91
        1
 92
        1
 93
        3
 72
     1
 10
84.34570454134078
 20
331.3223948746313
 11
83.5309758252381
 21
335.2948831534989
 72
     1
 10
83.5309758252381
 20
335.2948831534989
 11
83.01329057435115
 21
331.2728876304287
 72
     1
 10
83.01329057435116
 20
331.2728876304287
 11
84.34570454134079
 21
331.3223948746313
 97
        0
 75
     0
 76
     1
 98
        0
  0
LWPOLYLINE
  5
405
330
400
100
AcDbEntity
  8
Default
  6
Continuous
 62
     7
 48
25.4
370
     9
100
AcDbPolyline
 90
        4
 70
     1
 43
0.0001
 10
84.3457045413
 20
331.3223948746
 10
83.5309758252
 20
335.2948831535
 10
83.0132905744
 20
331.2728876304
 10
84.3457045413
 20
331.3223948746
  0
LINE
  5
406
330
400
100
AcDbEntity
  8
Default
  6
Continuous
 62
     7
 48
25.4
100
AcDbLine
 10
137.3827702767
 20
335.2948831535
 30
0.0
 11
81.9473245258
 21
342.1018159769
 31
0.0
  0
LINE
  5
407
330
400
100
AcDbEntity
  8
Default
  6
Continuous
 62
     7
 48
25.4
100
AcDbLine
 10
137.3827702767
 20
335.2948831535
 30
0.0
 11
81.5309754974
 21
335.2948831535
 31
0.0
  0
ARC
  5
408
330
400
100
AcDbEntity
  8
Default
  6
Continuous
 62
     7
 48
25.4
100
AcDbCircle
 10
137.3827702767
 20
335.2948831535
 30
0.0
 40
53.85179445147442
100
AcDbArc
 50
164.4880544933
 51
179.9999997871
  0
ARC
  5
409
330
400
100
AcDbEntity
  8
Default
  6
Continuous
 62
     7
 48
25.4
100
AcDbCircle
 10
137.3827702767
 20
335.2948831535
 30
0.0
 40
53.85179445146815
100
AcDbArc
 50
180.0
 51
188.5116237955
  0
TEXT
  5
40A
330
400
100
AcDbEntity
  8
Default
  6
Continuous
 62
     7
 48
25.4
100
AcDbText
 10
82.0036697382
 20
328.3498529969
 30
0.0
 40
4.0
  1
7°
 50
86.4998391444
  7
SEACAD_arial_ttf
 11
78.0111312301
 21
328.5940583639
 31
0.0
100
AcDbText
 73
     3
  0
TEXT
  5
40B
330
400
100
AcDbEntity
  8
Default
  6
Continuous
 62
     7
 48
25.4
100
AcDbText
 10
82.5037598594
 20
336.525877507
 30
0.0
 40
4.0
  1
7'30"
 50
86.4998391444
  7
SEACAD_arial_ttf
 11
78.5112213513
 21
336.770082874
 31
0.0
100
AcDbText
 73
     3
  0
ENDBLK
  5
40D
330
400
100
AcDbEntity
  8
0
100
AcDbBlockEnd
  0
ENDSEC
  0
SECTION
  2
ENTITIES
  0
INSERT
  5
2C
330
1F
100
AcDbEntity
  8
Default
100
AcDbBlockReference
  2
SEANNOT_GROUP
 10
0.0
 20
0.0
 30
0.0
  0
INSERT
  5
36
330
1F
100
AcDbEntity
  8
Default
100
AcDbBlockReference
  2
SEANNOT_GROUP1
 10
0.0
 20
0.0
 30
0.0
  0
INSERT
  5
40
330
1F
100
AcDbEntity
  8
Default
100
AcDbBlockReference
  2
SEANNOT_GROUP2
 10
0.0
 20
0.0
 30
0.0
  0
INSERT
  5
49
330
1F
100
AcDbEntity
  8
Default
100
AcDbBlockReference
  2
SEANNOT_GROUP3
 10
0.0
 20
0.0
 30
0.0
  0
INSERT
  5
52
330
1F
100
AcDbEntity
  8
Default
100
AcDbBlockReference
  2
SEANNOT_GROUP4
 10
0.0
 20
0.0
 30
0.0
  0
INSERT
  5
5D
330
1F
100
AcDbEntity
  8
Default
100
AcDbBlockReference
  2
SE
 10
0.0
 20
0.0
 30
0.0
  0
INSERT
  5
14E
330
1F
100
AcDbEntity
  8
Default
100
AcDbBlockReference
  2
SE1
 10
0.0
 20
0.0
 30
0.0
  0
INSERT
  5
20E
330
1F
100
AcDbEntity
  8
Default
100
AcDbBlockReference
  2
SE2
 10
0.0
 20
0.0
 30
0.0
  0
INSERT
  5
2C0
330
1F
100
AcDbEntity
  8
Default
100
AcDbBlockReference
  2
GDimGGroup
 10
0.0
 20
0.0
 30
0.0
  0
INSERT
  5
2CC
330
1F
100
AcDbEntity
  8
Default
100
AcDbBlockReference
  2
GDimGGroup1
 10
0.0
 20
0.0
 30
0.0
  0
INSERT
  5
2D9
330
1F
100
AcDbEntity
  8
Default
100
AcDbBlockReference
  2
GDimGGroup2
 10
0.0
 20
0.0
 30
0.0
  0
INSERT
  5
2E5
330
1F
100
AcDbEntity
  8
Default
100
AcDbBlockReference
  2
GDimGGroup3
 10
0.0
 20
0.0
 30
0.0
  0
INSERT
  5
2F1
330
1F
100
AcDbEntity
  8
Default
100
AcDbBlockReference
  2
GDimGGroup4
 10
0.0
 20
0.0
 30
0.0
  0
INSERT
  5
2FD
330
1F
100
AcDbEntity
  8
Default
100
AcDbBlockReference
  2
GDimGGroup5
 10
0.0
 20
0.0
 30
0.0
  0
INSERT
  5
30A
330
1F
100
AcDbEntity
  8
Default
100
AcDbBlockReference
  2
GDimGGroup6
 10
0.0
 20
0.0
 30
0.0
  0
INSERT
  5
318
330
1F
100
AcDbEntity
  8
Default
100
AcDbBlockReference
  2
GDimGGroup7
 10
0.0
 20
0.0
 30
0.0
  0
INSERT
  5
323
330
1F
100
AcDbEntity
  8
Default
100
AcDbBlockReference
  2
GDimGGroup8
 10
0.0
 20
0.0
 30
0.0
  0
INSERT
  5
32F
330
1F
100
AcDbEntity
  8
Default
100
AcDbBlockReference
  2
GDimGGroup9
 10
0.0
 20
0.0
 30
0.0
  0
INSERT
  5
33B
330
1F
100
AcDbEntity
  8
Default
100
AcDbBlockReference
  2
GDimGGroup10
 10
0.0
 20
0.0
 30
0.0
  0
INSERT
  5
347
330
1F
100
AcDbEntity
  8
Default
100
AcDbBlockReference
  2
GDimGGroup11
 10
0.0
 20
0.0
 30
0.0
  0
INSERT
  5
353
330
1F
100
AcDbEntity
  8
Default
100
AcDbBlockReference
  2
GDimGGroup12
 10
0.0
 20
0.0
 30
0.0
  0
INSERT
  5
361
330
1F
100
AcDbEntity
  8
Default
100
AcDbBlockReference
  2
GDimGGroup13
 10
0.0
 20
0.0
 30
0.0
  0
INSERT
  5
36F
330
1F
100
AcDbEntity
  8
Default
100
AcDbBlockReference
  2
GDimGGroup14
 10
0.0
 20
0.0
 30
0.0
  0
INSERT
  5
37B
330
1F
100
AcDbEntity
  8
Default
100
AcDbBlockReference
  2
GDimGGroup15
 10
0.0
 20
0.0
 30
0.0
  0
INSERT
  5
388
330
1F
100
AcDbEntity
  8
Default
100
AcDbBlockReference
  2
GDimGGroup16
 10
0.0
 20
0.0
 30
0.0
  0
INSERT
  5
394
330
1F
100
AcDbEntity
  8
Default
100
AcDbBlockReference
  2
GDimGGroup17
 10
0.0
 20
0.0
 30
0.0
  0
INSERT
  5
3A1
330
1F
100
AcDbEntity
  8
Default
100
AcDbBlockReference
  2
GDimGGroup18
 10
0.0
 20
0.0
 30
0.0
  0
INSERT
  5
3AE
330
1F
100
AcDbEntity
  8
Default
100
AcDbBlockReference
  2
GDimGGroup19
 10
0.0
 20
0.0
 30
0.0
  0
INSERT
  5
3B9
330
1F
100
AcDbEntity
  8
Default
100
AcDbBlockReference
  2
GDimGGroup20
 10
0.0
 20
0.0
 30
0.0
  0
INSERT
  5
3C5
330
1F
100
AcDbEntity
  8
Default
100
AcDbBlockReference
  2
GDimGGroup21
 10
0.0
 20
0.0
 30
0.0
  0
INSERT
  5
3D1
330
1F
100
AcDbEntity
  8
Default
100
AcDbBlockReference
  2
GDimGGroup22
 10
0.0
 20
0.0
 30
0.0
  0
INSERT
  5
3DD
330
1F
100
AcDbEntity
  8
Default
100
AcDbBlockReference
  2
GDimGGroup23
 10
0.0
 20
0.0
 30
0.0
  0
INSERT
  5
3E9
330
1F
100
AcDbEntity
  8
Default
100
AcDbBlockReference
  2
GDimGGroup24
 10
0.0
 20
0.0
 30
0.0
  0
INSERT
  5
3F5
330
1F
100
AcDbEntity
  8
Default
100
AcDbBlockReference
  2
GDimGGroup25
 10
0.0
 20
0.0
 30
0.0
  0
INSERT
  5
401
330
1F
100
AcDbEntity
  8
Default
100
AcDbBlockReference
  2
GDimGGroup26
 10
0.0
 20
0.0
 30
0.0
  0
LINE
  5
40F
330
1F
100
AcDbEntity
  8
BORDER
  6
Continuous
 62
     7
 48
25.4
100
AcDbLine
 10
6.2292620399
 20
410.0
 30
0.0
 11
586.2292620399
 21
410.0
 31
0.0
  0
LINE
  5
410
330
1F
100
AcDbEntity
  8
BORDER
  6
Continuous
 62
     7
 48
25.4
100
AcDbLine
 10
6.2292620399
 20
410.0
 30
0.0
 11
6.2292620399
 21
10.0
 31
0.0
  0
LINE
  5
411
330
1F
100
AcDbEntity
  8
BORDER
  6
Continuous
 62
     7
 48
25.4
100
AcDbLine
 10
6.2292620399
 20
10.0
 30
0.0
 11
586.2292620399
 21
10.0
 31
0.0
  0
LINE
  5
412
330
1F
100
AcDbEntity
  8
BORDER
  6
Continuous
 62
     7
 48
25.4
100
AcDbLine
 10
586.2292620399
 20
10.0
 30
0.0
 11
586.2292620399
 21
410.0
 31
0.0
  0
LINE
  5
413
330
1F
100
AcDbEntity
  8
Default
  6
Continuous
 62
     7
 48
25.4
100
AcDbLine
 10
3.7292620399
 20
412.5
 30
0.0
 11
588.7292620399
 21
412.5
 31
0.0
  0
LINE
  5
414
330
1F
100
AcDbEntity
  8
Default
  6
Continuous
 62
     7
 48
25.4
100
AcDbLine
 10
588.7292620399
 20
412.5
 30
0.0
 11
588.7292620399
 21
7.5
 31
0.0
  0
LINE
  5
415
330
1F
100
AcDbEntity
  8
Default
  6
Continuous
 62
     7
 48
25.4
100
AcDbLine
 10
588.7292620399
 20
7.5
 30
0.0
 11
3.7292620399
 21
7.5
 31
0.0
  0
LINE
  5
416
330
1F
100
AcDbEntity
  8
Default
  6
Continuous
 62
     7
 48
25.4
100
AcDbLine
 10
3.7292620399
 20
7.5
 30
0.0
 11
3.7292620399
 21
412.5
 31
0.0
  0
TEXT
  5
417
330
1F
100
AcDbEntity
  8
Default
  6
Continuous
 62
     7
 48
25.4
100
AcDbText
 10
473.5242219525
 20
28.1561611714
 30
0.0
 40
5.0
  1
TITLE :
  7
SEACAD_arial_ttf
 11
473.5242219525
 21
33.1561611714
 31
0.0
100
AcDbText
 73
     3
  0
TEXT
  5
418
330
1F
100
AcDbEntity
  8
Default
  6
Continuous
 62
     7
 48
25.4
100
AcDbText
 10
473.4498030642
 20
40.2710242694
 30
0.0
 40
5.0
  1
KITAGAWA EUROPE LIMITED
  7
SEACAD_arial_ttf
 11
473.4498030642
 21
45.2710242694
 31
0.0
100
AcDbText
 73
     3
  0
TEXT
  5
419
330
1F
100
AcDbEntity
  8
Default
  6
Continuous
 62
     7
 48
25.4
100
AcDbText
 10
474.0233693351
 20
14.6180387033
 30
0.0
 40
5.0
  1
www.kitagawaeurope.com
  7
SEACAD_arial_ttf
 11
474.0233693351
 21
19.6180387033
 31
0.0
100
AcDbText
 73
     3
  0
TEXT
  5
41A
330
1F
100
AcDbEntity
  8
Default
  6
Continuous
 62
     7
 48
25.4
100
AcDbText
 10
497.8463064412
 20
27.8559210467
 30
0.0
 40
5.0
  1
BB212A8 POWER CHUCK
  7
SEACAD_arial_ttf
 11
497.8463064412
 21
32.8559210467
 31
0.0
100
AcDbText
 73
     3
  0
LINE
  5
41B
330
1F
100
AcDbEntity
  8
Default
  6
Continuous
 62
     7
 48
25.4
100
AcDbLine
 10
471.5030858285
 20
50.0
 30
0.0
 11
586.2292620399
 21
50.0
 31
0.0
  0
LINE
  5
41C
330
1F
100
AcDbEntity
  8
Default
  6
Continuous
 62
     7
 48
25.4
100
AcDbLine
 10
471.5030858285
 20
36.7
 30
0.0
 11
586.2292620399
 21
36.7
 31
0.0
  0
LINE
  5
41D
330
1F
100
AcDbEntity
  8
Default
  6
Continuous
 62
     7
 48
25.4
100
AcDbLine
 10
586.2292620399
 20
23.4
 30
0.0
 11
471.5030858285
 21
23.4
 31
0.0
  0
LINE
  5
41E
330
1F
100
AcDbEntity
  8
Default
  6
Continuous
 62
     7
 48
25.4
100
AcDbLine
 10
471.5030858285
 20
50.0
 30
0.0
 11
471.5030858285
 21
10.0
 31
0.0
  0
ENDSEC
  0
SECTION
  2
OBJECTS
  0
DICTIONARY
  5
C
330
0
100
AcDbDictionary
281
     1
  3
ACAD_GROUP
350
D
  3
ACAD_LAYOUT
350
1A
  3
ACAD_MLINESTYLE
350
17
  3
ACAD_PLOTSETTINGS
350
19
  3
ACAD_PLOTSTYLENAME
350
E
  0
DICTIONARY
  5
D
102
{ACAD_REACTORS
330
C
102
}
330
C
100
AcDbDictionary
281
     1
  0
DICTIONARY
  5
1A
102
{ACAD_REACTORS
330
C
102
}
330
C
100
AcDbDictionary
281
     1
  3
Layout1
350
1E
  3
Model
350
22
  0
DICTIONARY
  5
17
102
{ACAD_REACTORS
330
C
102
}
330
C
100
AcDbDictionary
281
     1
  3
Standard
350
18
  0
DICTIONARY
  5
19
102
{ACAD_REACTORS
330
C
102
}
330
C
100
AcDbDictionary
281
     1
  0
ACDBDICTIONARYWDFLT
  5
E
102
{ACAD_REACTORS
330
C
102
}
330
C
100
AcDbDictionary
281
     1
  3
Normal
350
F
100
AcDbDictionaryWithDefault
340
F
  0
LAYOUT
  5
1E
102
{ACAD_REACTORS
330
1A
102
}
330
1A
100
AcDbPlotSettings
  1

  2

  4

  6

 40
0.0
 41
0.0
 42
0.0
 43
0.0
 44
0.0
 45
0.0
 46
0.0
 47
0.0
 48
0.0
 49
0.0
140
0.0
141
0.0
142
1.0
143
1.0
 70
   688
 72
     0
 73
     0
 74
     5
  7

 75
    16
147
1.0
148
0.0
149
0.0
100
AcDbLayout
  1
Layout1
 70
     1
 71
     1
 10
0.0
 20
0.0
 11
594.0
 21
420.0
 12
0.0
 22
0.0
 32
0.0
 14
0.0
 24
0.0
 34
0.0
 15
594.0
 25
420.0
 35
0.0
146
0.0
 13
0.0
 23
0.0
 33
0.0
 16
1.0
 26
0.0
 36
0.0
 17
0.0
 27
1.0
 37
0.0
 76
     0
330
1B
  0
LAYOUT
  5
22
102
{ACAD_REACTORS
330
1A
102
}
330
1A
100
AcDbPlotSettings
  1

  2

  4

  6

 40
0.0
 41
0.0
 42
0.0
 43
0.0
 44
0.0
 45
0.0
 46
0.0
 47
0.0
 48
0.0
 49
0.0
140
0.0
141
0.0
142
1.0
143
1.0
 70
  1712
 72
     0
 73
     0
 74
     0
  7

 75
     0
147
1.0
148
0.0
149
0.0
100
AcDbLayout
  1
Model
 70
     1
 71
     0
 10
0.0
 20
0.0
 11
594.0
 21
420.0
 12
0.0
 22
0.0
 32
0.0
 14
0.0
 24
0.0
 34
0.0
 15
594.0
 25
420.0
 35
0.0
146
0.0
 13
0.0
 23
0.0
 33
0.0
 16
1.0
 26
0.0
 36
0.0
 17
0.0
 27
1.0
 37
0.0
 76
     0
330
1F
  0
MLINESTYLE
  5
18
102
{ACAD_REACTORS
330
17
102
}
330
17
100
AcDbMlineStyle
  2
Standard
 70
     0
  3

 62
   256
 51
90.0
 52
90.0
 71
     2
 49
0.5
 62
   256
  6
BYLAYER
 49
-0.5
 62
   256
  6
BYLAYER
  0
ACDBPLACEHOLDER
  5
F
102
{ACAD_REACTORS
330
E
102
}
330
E
  0
ENDSEC
  0
EOF
