  0
SECTION
  2
HEADER
  9
$ACADVER
  1
AC1015
  9
$ACADMAINTVER
 70
     6
  9
$DWGCODEPAGE
  3
ANSI_1252
  9
$INSBASE
 10
0.0
 20
0.0
 30
0.0
  9
$EXTMIN
 10
0.0
 20
0.0
 30
0.0
  9
$EXTMAX
 10
594.0
 20
420.0
 30
0.0
  9
$LIMMIN
 10
0.0
 20
0.0
  9
$LIMMAX
 10
594.0
 20
420.0
  9
$ORTHOMODE
 70
     0
  9
$REGENMODE
 70
     1
  9
$FILLMODE
 70
     1
  9
$QTEXTMODE
 70
     0
  9
$MIRRTEXT
 70
     1
  9
$LTSCALE
 40
1.0
  9
$ATTMODE
 70
     1
  9
$TEXTSIZE
 40
0.2
  9
$TRACEWID
 40
0.05
  9
$TEXTSTYLE
  7
Standard
  9
$CLAYER
  8
0
  9
$CELTYPE
  6
ByLayer
  9
$CECOLOR
 62
   256
  9
$CELTSCALE
 40
25.4
  9
$DISPSILH
 70
     0
  9
$DIMSCALE
 40
1.0
  9
$DIMASZ
 40
0.18
  9
$DIMEXO
 40
0.0625
  9
$DIMDLI
 40
0.38
  9
$DIMRND
 40
0.0
  9
$DIMDLE
 40
0.0
  9
$DIMEXE
 40
0.18
  9
$DIMTP
 40
0.0
  9
$DIMTM
 40
0.0
  9
$DIMTXT
 40
0.18
  9
$DIMCEN
 40
0.09
  9
$DIMTSZ
 40
0.0
  9
$DIMTOL
 70
     0
  9
$DIMLIM
 70
     0
  9
$DIMTIH
 70
     1
  9
$DIMTOH
 70
     1
  9
$DIMSE1
 70
     0
  9
$DIMSE2
 70
     0
  9
$DIMTAD
 70
     0
  9
$DIMZIN
 70
     0
  9
$DIMBLK
  1

  9
$DIMASO
 70
     1
  9
$DIMSHO
 70
     1
  9
$DIMPOST
  1

  9
$DIMAPOST
  1

  9
$DIMALT
 70
     0
  9
$DIMALTD
 70
     2
  9
$DIMALTF
 40
25.4
  9
$DIMLFAC
 40
1.0
  9
$DIMTOFL
 70
     0
  9
$DIMTVP
 40
0.0
  9
$DIMTIX
 70
     0
  9
$DIMSOXD
 70
     0
  9
$DIMSAH
 70
     0
  9
$DIMBLK1
  1

  9
$DIMBLK2
  1

  9
$DIMSTYLE
  2
Standard
  9
$DIMCLRD
 70
     0
  9
$DIMCLRE
 70
     0
  9
$DIMCLRT
 70
     0
  9
$DIMTFAC
 40
1.0
  9
$DIMGAP
 40
0.09
  9
$DIMJUST
 70
     0
  9
$DIMSD1
 70
     0
  9
$DIMSD2
 70
     0
  9
$DIMTOLJ
 70
     1
  9
$DIMTZIN
 70
     0
  9
$DIMALTZ
 70
     0
  9
$DIMALTTZ
 70
     0
  9
$DIMUPT
 70
     0
  9
$DIMDEC
 70
     4
  9
$DIMTDEC
 70
     4
  9
$DIMALTU
 70
     2
  9
$DIMALTTD
 70
     2
  9
$DIMTXSTY
  7
Standard
  9
$DIMAUNIT
 70
     0
  9
$DIMADEC
 70
     0
  9
$DIMALTRND
 40
0.0
  9
$DIMAZIN
 70
     0
  9
$DIMDSEP
 70
    46
  9
$DIMATFIT
 70
     3
  9
$DIMFRAC
 70
     0
  9
$DIMLDRBLK
  1

  9
$DIMLUNIT
 70
     2
  9
$DIMLWD
 70
    -2
  9
$DIMLWE
 70
    -2
  9
$DIMTMOVE
 70
     0
  9
$LUNITS
 70
     2
  9
$LUPREC
 70
     4
  9
$SKETCHINC
 40
0.1
  9
$FILLETRAD
 40
0.5
  9
$AUNITS
 70
     0
  9
$AUPREC
 70
     0
  9
$MENU
  1
.
  9
$ELEVATION
 40
0.0
  9
$PELEVATION
 40
0.0
  9
$THICKNESS
 40
0.0
  9
$LIMCHECK
 70
     0
  9
$CHAMFERA
 40
0.5
  9
$CHAMFERB
 40
0.5
  9
$CHAMFERC
 40
1.0
  9
$CHAMFERD
 40
0.0
  9
$SKPOLY
 70
     0
  9
$TDCREATE
 40
2454910.38939515
  9
$TDUCREATE
 40
2454910.38939515
  9
$TDUPDATE
 40
2454910.389395162
  9
$TDUUPDATE
 40
2454910.389395162
  9
$TDINDWG
 40
0.0000000116
  9
$TDUSRTIMER
 40
0.0000000116
  9
$USRTIMER
 70
     1
  9
$ANGBASE
 50
0.0
  9
$ANGDIR
 70
     0
  9
$PDMODE
 70
     0
  9
$PDSIZE
 40
0.0
  9
$PLINEWID
 40
0.0
  9
$SPLFRAME
 70
     0
  9
$SPLINETYPE
 70
     6
  9
$SPLINESEGS
 70
     8
  9
$HANDSEED
  5
446
  9
$SURFTAB1
 70
     6
  9
$SURFTAB2
 70
     6
  9
$SURFTYPE
 70
     6
  9
$SURFU
 70
     6
  9
$SURFV
 70
     6
  9
$UCSBASE
  2

  9
$UCSNAME
  2

  9
$UCSORG
 10
0.0
 20
0.0
 30
0.0
  9
$UCSXDIR
 10
1.0
 20
0.0
 30
0.0
  9
$UCSYDIR
 10
0.0
 20
1.0
 30
0.0
  9
$UCSORTHOREF
  2

  9
$UCSORTHOVIEW
 70
     0
  9
$UCSORGTOP
 10
0.0
 20
0.0
 30
0.0
  9
$UCSORGBOTTOM
 10
0.0
 20
0.0
 30
0.0
  9
$UCSORGLEFT
 10
0.0
 20
0.0
 30
0.0
  9
$UCSORGRIGHT
 10
0.0
 20
0.0
 30
0.0
  9
$UCSORGFRONT
 10
0.0
 20
0.0
 30
0.0
  9
$UCSORGBACK
 10
0.0
 20
0.0
 30
0.0
  9
$PUCSBASE
  2

  9
$PUCSNAME
  2

  9
$PUCSORG
 10
0.0
 20
0.0
 30
0.0
  9
$PUCSXDIR
 10
1.0
 20
0.0
 30
0.0
  9
$PUCSYDIR
 10
0.0
 20
1.0
 30
0.0
  9
$PUCSORTHOREF
  2

  9
$PUCSORTHOVIEW
 70
     0
  9
$PUCSORGTOP
 10
0.0
 20
0.0
 30
0.0
  9
$PUCSORGBOTTOM
 10
0.0
 20
0.0
 30
0.0
  9
$PUCSORGLEFT
 10
0.0
 20
0.0
 30
0.0
  9
$PUCSORGRIGHT
 10
0.0
 20
0.0
 30
0.0
  9
$PUCSORGFRONT
 10
0.0
 20
0.0
 30
0.0
  9
$PUCSORGBACK
 10
0.0
 20
0.0
 30
0.0
  9
$USERI1
 70
     0
  9
$USERI2
 70
     0
  9
$USERI3
 70
     0
  9
$USERI4
 70
     0
  9
$USERI5
 70
     0
  9
$USERR1
 40
0.0
  9
$USERR2
 40
0.0
  9
$USERR3
 40
0.0
  9
$USERR4
 40
0.0
  9
$USERR5
 40
0.0
  9
$WORLDVIEW
 70
     1
  9
$SHADEDGE
 70
     3
  9
$SHADEDIF
 70
    70
  9
$TILEMODE
 70
     1
  9
$MAXACTVP
 70
    64
  9
$PINSBASE
 10
0.0
 20
0.0
 30
0.0
  9
$PLIMCHECK
 70
     0
  9
$PEXTMIN
 10
0.0
 20
0.0
 30
0.0
  9
$PEXTMAX
 10
594.0
 20
420.0
 30
0.0
  9
$PLIMMIN
 10
0.0
 20
0.0
  9
$PLIMMAX
 10
594.0
 20
420.0
  9
$UNITMODE
 70
     0
  9
$VISRETAIN
 70
     1
  9
$PLINEGEN
 70
     0
  9
$PSLTSCALE
 70
     1
  9
$TREEDEPTH
 70
  3020
  9
$CMLSTYLE
  2
Standard
  9
$CMLJUST
 70
     0
  9
$CMLSCALE
 40
1.0
  9
$PROXYGRAPHICS
 70
     1
  9
$MEASUREMENT
 70
     1
  9
$CELWEIGHT
370
    -1
  9
$ENDCAPS
280
     0
  9
$JOINSTYLE
280
     0
  9
$LWDISPLAY
290
     0
  9
$INSUNITS
 70
     1
  9
$HYPERLINKBASE
  1

  9
$STYLESHEET
  1

  9
$XEDIT
290
     1
  9
$CEPSNTYPE
380
     0
  9
$PSTYLEMODE
290
     1
  9
$FINGERPRINTGUID
  2
{E5548956-091F-4122-9E3B-AC1FB23FC0A2}
  9
$VERSIONGUID
  2
{FAEB1C32-E019-11D5-929B-00C0DF256EC4}
  9
$EXTNAMES
290
     1
  9
$PSVPSCALE
 40
0.0
  9
$OLESTARTUP
290
     0
  0
ENDSEC
  0
SECTION
  2
CLASSES
  0
CLASS
  1
ACDBDICTIONARYWDFLT
  2
AcDbDictionaryWithDefault
  3
ObjectDBX Classes
 90
        0
280
     0
281
     0
  0
CLASS
  1
ACDBPLACEHOLDER
  2
AcDbPlaceHolder
  3
ObjectDBX Classes
 90
        0
280
     0
281
     0
  0
CLASS
  1
LAYOUT
  2
AcDbLayout
  3
ObjectDBX Classes
 90
        0
280
     0
281
     0
  0
ENDSEC
  0
SECTION
  2
TABLES
  0
TABLE
  2
VPORT
  5
8
330
0
100
AcDbSymbolTable
 70
     1
  0
VPORT
  5
29
330
8
100
AcDbSymbolTableRecord
100
AcDbViewportTableRecord
  2
*Active
 70
     0
 10
0.0
 20
0.0
 11
1.0
 21
1.0
 12
10.4299065421
 22
4.5
 13
0.0
 23
0.0
 14
0.5
 24
0.5
 15
0.5
 25
0.5
 16
0.0
 26
0.0
 36
1.0
 17
0.0
 27
0.0
 37
0.0
 40
9.0
 41
1.9729729729
 42
50.0
 43
0.0
 44
0.0
 50
0.0
 51
0.0
 71
     0
 72
   100
 73
     1
 74
     3
 75
     0
 76
     0
 77
     0
 78
     0
281
     0
 65
     1
110
0.0
120
0.0
130
0.0
111
1.0
121
0.0
131
0.0
112
0.0
122
1.0
132
0.0
 79
     0
146
0.0
  0
ENDTAB
  0
TABLE
  2
LTYPE
  5
5
330
0
100
AcDbSymbolTable
 70
     3
  0
LTYPE
  5
14
330
5
100
AcDbSymbolTableRecord
100
AcDbLinetypeTableRecord
  2
ByBlock
 70
     0
  3

 72
    65
 73
     0
 40
0.0
  0
LTYPE
  5
15
330
5
100
AcDbSymbolTableRecord
100
AcDbLinetypeTableRecord
  2
ByLayer
 70
     0
  3

 72
    65
 73
     0
 40
0.0
  0
LTYPE
  5
16
330
5
100
AcDbSymbolTableRecord
100
AcDbLinetypeTableRecord
  2
Continuous
 70
     0
  3
Solid line
 72
    65
 73
     0
 40
0.0
  0
LTYPE
  5
5E
330
5
100
AcDbSymbolTableRecord
100
AcDbLinetypeTableRecord
  2
CENTER2
 70
     0
  3
___ _ ___ _ ___ _ ___ _ ___ _ ___ _ ___ _ ___ _
 72
    65
 73
     4
 40
1.125
 49
0.75
 74
     4
 75
     0
340
0
 46
0.0
 50
0.0
 44
0.0
 45
0.0
 49
-0.125
 74
     4
 75
     0
340
0
 46
0.0
 50
0.0
 44
0.0
 45
0.0
 49
0.125
 74
     4
 75
     0
340
0
 46
0.0
 50
0.0
 44
0.0
 45
0.0
 49
-0.125
 74
     4
 75
     0
340
0
 46
0.0
 50
0.0
 44
0.0
 45
0.0
  0
LTYPE
  5
15F
330
5
100
AcDbSymbolTableRecord
100
AcDbLinetypeTableRecord
  2
HIDDEN2
 70
     0
  3
_ _ _ _ _ _ _ _ _ _ _ _ _ _ _ _ _ _ _ _ _ _ _ _
 72
    65
 73
     2
 40
0.1875
 49
0.125
 74
     4
 75
     0
340
0
 46
0.0
 50
0.0
 44
0.0
 45
0.0
 49
-0.0625
 74
     4
 75
     0
340
0
 46
0.0
 50
0.0
 44
0.0
 45
0.0
  0
ENDTAB
  0
TABLE
  2
LAYER
  5
2
330
0
100
AcDbSymbolTable
 70
     6
  0
LAYER
  5
10
330
2
100
AcDbSymbolTableRecord
100
AcDbLayerTableRecord
  2
0
 70
     0
 62
     7
  6
Continuous
370
    -3
390
F
  0
LAYER
  5
2A
330
2
100
AcDbSymbolTableRecord
100
AcDbLayerTableRecord
  2
Default
 70
     0
 62
     7
  6
Continuous
370
    -3
390
F
  0
LAYER
  5
53
330
2
100
AcDbSymbolTableRecord
100
AcDbLayerTableRecord
  2
DV1_Default
 70
     0
 62
     7
  6
Continuous
370
    -3
390
F
  0
LAYER
  5
12F
330
2
100
AcDbSymbolTableRecord
100
AcDbLayerTableRecord
  2
DV2_Default
 70
     0
 62
     7
  6
Continuous
370
    -3
390
F
  0
LAYER
  5
216
330
2
100
AcDbSymbolTableRecord
100
AcDbLayerTableRecord
  2
DV3_Default
 70
     0
 62
     7
  6
Continuous
370
    -3
390
F
  0
LAYER
  5
435
330
2
100
AcDbSymbolTableRecord
100
AcDbLayerTableRecord
  2
BORDER
 70
     0
 62
     7
  6
Continuous
370
    -3
390
F
  0
ENDTAB
  0
TABLE
  2
STYLE
  5
3
330
0
100
AcDbSymbolTable
 70
     3
  0
STYLE
  5
11
330
3
100
AcDbSymbolTableRecord
100
AcDbTextStyleTableRecord
  2
Standard
 70
     0
 40
0.0
 41
1.0
 50
0.0
 71
     0
 42
0.2
  3
txt
  4

  0
STYLE
  5
31
330
3
100
AcDbSymbolTableRecord
100
AcDbTextStyleTableRecord
  2
SEACAD_arial_ttf
 70
     0
 40
0.2
 41
1.0
 50
0.0
 71
     0
 42
0.2
  3
arial.ttf
  4

  0
STYLE
  5
2DE
330
3
100
AcDbSymbolTableRecord
100
AcDbTextStyleTableRecord
  2
SEACAD_semeca1_ttf
 70
     0
 40
0.2
 41
1.0
 50
0.0
 71
     0
 42
0.2
  3
semeca1.ttf
  4

  0
ENDTAB
  0
TABLE
  2
VIEW
  5
6
330
0
100
AcDbSymbolTable
 70
     0
  0
ENDTAB
  0
TABLE
  2
UCS
  5
7
330
0
100
AcDbSymbolTable
 70
     0
  0
ENDTAB
  0
TABLE
  2
APPID
  5
9
330
0
100
AcDbSymbolTable
 70
     1
  0
APPID
  5
12
330
9
100
AcDbSymbolTableRecord
100
AcDbRegAppTableRecord
  2
ACAD
 70
     0
  0
ENDTAB
  0
TABLE
  2
DIMSTYLE
  5
A
330
0
100
AcDbSymbolTable
 70
     1
100
AcDbDimStyleTable
  0
DIMSTYLE
105
27
330
A
100
AcDbSymbolTableRecord
100
AcDbDimStyleTableRecord
  2
Standard
 70
     0
340
11
  0
ENDTAB
  0
TABLE
  2
BLOCK_RECORD
  5
1
330
0
100
AcDbSymbolTable
 70
    42
  0
BLOCK_RECORD
  5
1F
330
1
100
AcDbSymbolTableRecord
100
AcDbBlockTableRecord
  2
*Model_Space
340
22
  0
BLOCK_RECORD
  5
1B
330
1
100
AcDbSymbolTableRecord
100
AcDbBlockTableRecord
  2
*Paper_Space
340
1E
  0
BLOCK_RECORD
  5
2B
330
1
100
AcDbSymbolTableRecord
100
AcDbBlockTableRecord
  2
SEANNOT_GROUP
340
0
102
{BLKREFS
331
2C
102
}
  0
BLOCK_RECORD
  5
35
330
1
100
AcDbSymbolTableRecord
100
AcDbBlockTableRecord
  2
SEANNOT_GROUP1
340
0
102
{BLKREFS
331
36
102
}
  0
BLOCK_RECORD
  5
3F
330
1
100
AcDbSymbolTableRecord
100
AcDbBlockTableRecord
  2
SEANNOT_GROUP2
340
0
102
{BLKREFS
331
40
102
}
  0
BLOCK_RECORD
  5
48
330
1
100
AcDbSymbolTableRecord
100
AcDbBlockTableRecord
  2
SEANNOT_GROUP3
340
0
102
{BLKREFS
331
49
102
}
  0
BLOCK_RECORD
  5
51
330
1
100
AcDbSymbolTableRecord
100
AcDbBlockTableRecord
  2
SE
340
0
102
{BLKREFS
331
52
102
}
  0
BLOCK_RECORD
  5
12D
330
1
100
AcDbSymbolTableRecord
100
AcDbBlockTableRecord
  2
SE1
340
0
102
{BLKREFS
331
12E
102
}
  0
BLOCK_RECORD
  5
214
330
1
100
AcDbSymbolTableRecord
100
AcDbBlockTableRecord
  2
SE2
340
0
102
{BLKREFS
331
215
102
}
  0
BLOCK_RECORD
  5
297
330
1
100
AcDbSymbolTableRecord
100
AcDbBlockTableRecord
  2
GDimGGroup
340
0
102
{BLKREFS
331
298
102
}
  0
BLOCK_RECORD
  5
2A3
330
1
100
AcDbSymbolTableRecord
100
AcDbBlockTableRecord
  2
GDimGGroup1
340
0
102
{BLKREFS
331
2A4
102
}
  0
BLOCK_RECORD
  5
2AF
330
1
100
AcDbSymbolTableRecord
100
AcDbBlockTableRecord
  2
GDimGGroup2
340
0
102
{BLKREFS
331
2B0
102
}
  0
BLOCK_RECORD
  5
2BC
330
1
100
AcDbSymbolTableRecord
100
AcDbBlockTableRecord
  2
GDimGGroup3
340
0
102
{BLKREFS
331
2BD
102
}
  0
BLOCK_RECORD
  5
2C8
330
1
100
AcDbSymbolTableRecord
100
AcDbBlockTableRecord
  2
GDimGGroup4
340
0
102
{BLKREFS
331
2C9
102
}
  0
BLOCK_RECORD
  5
2D4
330
1
100
AcDbSymbolTableRecord
100
AcDbBlockTableRecord
  2
GDimGGroup5
340
0
102
{BLKREFS
331
2D5
102
}
  0
BLOCK_RECORD
  5
2E2
330
1
100
AcDbSymbolTableRecord
100
AcDbBlockTableRecord
  2
GDimGGroup6
340
0
102
{BLKREFS
331
2E3
102
}
  0
BLOCK_RECORD
  5
2F0
330
1
100
AcDbSymbolTableRecord
100
AcDbBlockTableRecord
  2
GDimGGroup7
340
0
102
{BLKREFS
331
2F1
102
}
  0
BLOCK_RECORD
  5
2FC
330
1
100
AcDbSymbolTableRecord
100
AcDbBlockTableRecord
  2
GDimGGroup8
340
0
102
{BLKREFS
331
2FD
102
}
  0
BLOCK_RECORD
  5
308
330
1
100
AcDbSymbolTableRecord
100
AcDbBlockTableRecord
  2
GDimGGroup9
340
0
102
{BLKREFS
331
309
102
}
  0
BLOCK_RECORD
  5
314
330
1
100
AcDbSymbolTableRecord
100
AcDbBlockTableRecord
  2
GDimGGroup10
340
0
102
{BLKREFS
331
315
102
}
  0
BLOCK_RECORD
  5
320
330
1
100
AcDbSymbolTableRecord
100
AcDbBlockTableRecord
  2
GDimGGroup11
340
0
102
{BLKREFS
331
321
102
}
  0
BLOCK_RECORD
  5
32C
330
1
100
AcDbSymbolTableRecord
100
AcDbBlockTableRecord
  2
GDimGGroup12
340
0
102
{BLKREFS
331
32D
102
}
  0
BLOCK_RECORD
  5
337
330
1
100
AcDbSymbolTableRecord
100
AcDbBlockTableRecord
  2
GDimGGroup13
340
0
102
{BLKREFS
331
338
102
}
  0
BLOCK_RECORD
  5
343
330
1
100
AcDbSymbolTableRecord
100
AcDbBlockTableRecord
  2
GDimGGroup14
340
0
102
{BLKREFS
331
344
102
}
  0
BLOCK_RECORD
  5
34E
330
1
100
AcDbSymbolTableRecord
100
AcDbBlockTableRecord
  2
GDimGGroup15
340
0
102
{BLKREFS
331
34F
102
}
  0
BLOCK_RECORD
  5
35B
330
1
100
AcDbSymbolTableRecord
100
AcDbBlockTableRecord
  2
GDimGGroup16
340
0
102
{BLKREFS
331
35C
102
}
  0
BLOCK_RECORD
  5
366
330
1
100
AcDbSymbolTableRecord
100
AcDbBlockTableRecord
  2
GDimGGroup17
340
0
102
{BLKREFS
331
367
102
}
  0
BLOCK_RECORD
  5
371
330
1
100
AcDbSymbolTableRecord
100
AcDbBlockTableRecord
  2
GDimGGroup18
340
0
102
{BLKREFS
331
372
102
}
  0
BLOCK_RECORD
  5
37E
330
1
100
AcDbSymbolTableRecord
100
AcDbBlockTableRecord
  2
GDimGGroup19
340
0
102
{BLKREFS
331
37F
102
}
  0
BLOCK_RECORD
  5
38C
330
1
100
AcDbSymbolTableRecord
100
AcDbBlockTableRecord
  2
GDimGGroup20
340
0
102
{BLKREFS
331
38D
102
}
  0
BLOCK_RECORD
  5
398
330
1
100
AcDbSymbolTableRecord
100
AcDbBlockTableRecord
  2
GDimGGroup21
340
0
102
{BLKREFS
331
399
102
}
  0
BLOCK_RECORD
  5
3A3
330
1
100
AcDbSymbolTableRecord
100
AcDbBlockTableRecord
  2
GDimGGroup22
340
0
102
{BLKREFS
331
3A4
102
}
  0
BLOCK_RECORD
  5
3AD
330
1
100
AcDbSymbolTableRecord
100
AcDbBlockTableRecord
  2
GDimGGroup23
340
0
102
{BLKREFS
331
3AE
102
}
  0
BLOCK_RECORD
  5
3B9
330
1
100
AcDbSymbolTableRecord
100
AcDbBlockTableRecord
  2
GDimGGroup24
340
0
102
{BLKREFS
331
3BA
102
}
  0
BLOCK_RECORD
  5
3C3
330
1
100
AcDbSymbolTableRecord
100
AcDbBlockTableRecord
  2
GDimGGroup25
340
0
102
{BLKREFS
331
3C4
102
}
  0
BLOCK_RECORD
  5
3D0
330
1
100
AcDbSymbolTableRecord
100
AcDbBlockTableRecord
  2
GDimGGroup26
340
0
102
{BLKREFS
331
3D1
102
}
  0
BLOCK_RECORD
  5
3DC
330
1
100
AcDbSymbolTableRecord
100
AcDbBlockTableRecord
  2
GDimGGroup27
340
0
102
{BLKREFS
331
3DD
102
}
  0
BLOCK_RECORD
  5
3E8
330
1
100
AcDbSymbolTableRecord
100
AcDbBlockTableRecord
  2
GDimGGroup28
340
0
102
{BLKREFS
331
3E9
102
}
  0
BLOCK_RECORD
  5
3F4
330
1
100
AcDbSymbolTableRecord
100
AcDbBlockTableRecord
  2
GDimGGroup29
340
0
102
{BLKREFS
331
3F5
102
}
  0
BLOCK_RECORD
  5
401
330
1
100
AcDbSymbolTableRecord
100
AcDbBlockTableRecord
  2
GDimGGroup30
340
0
102
{BLKREFS
331
402
102
}
  0
BLOCK_RECORD
  5
40F
330
1
100
AcDbSymbolTableRecord
100
AcDbBlockTableRecord
  2
GDimGGroup31
340
0
102
{BLKREFS
331
410
102
}
  0
BLOCK_RECORD
  5
41B
330
1
100
AcDbSymbolTableRecord
100
AcDbBlockTableRecord
  2
GDimGGroup32
340
0
102
{BLKREFS
331
41C
102
}
  0
BLOCK_RECORD
  5
427
330
1
100
AcDbSymbolTableRecord
100
AcDbBlockTableRecord
  2
GDimGGroup33
340
0
102
{BLKREFS
331
428
102
}
  0
ENDTAB
  0
ENDSEC
  0
SECTION
  2
BLOCKS
  0
BLOCK
  5
20
330
1F
100
AcDbEntity
  8
0
100
AcDbBlockBegin
  2
*Model_Space
 70
     0
 71
     0
 10
0.0
 20
0.0
 30
0.0
  3
*Model_Space
  1

  0
ENDBLK
  5
21
330
1F
100
AcDbEntity
  8
0
100
AcDbBlockEnd
  0
BLOCK
  5
1C
330
1B
100
AcDbEntity
 67
     1
  8
0
100
AcDbBlockBegin
  2
*Paper_Space
 70
     0
 71
     0
 10
0.0
 20
0.0
 30
0.0
  3
*Paper_Space
  1

  0
ENDBLK
  5
1D
330
1B
100
AcDbEntity
 67
     1
  8
0
100
AcDbBlockEnd
  0
BLOCK
  5
33
330
2B
100
AcDbEntity
  8
0
100
AcDbBlockBegin
  2
SEANNOT_GROUP
 70
     0
 71
     0
 10
0.0
 20
0.0
 30
0.0
  3
SEANNOT_GROUP
  1

  0
LWPOLYLINE
  5
2D
330
2B
100
AcDbEntity
  8
Default
  6
Continuous
 62
     7
 48
25.4
100
AcDbPolyline
 90
        2
 70
     0
 43
0.0
 10
98.7406054693
 20
218.5380997618
 10
120.4187107527
 20
238.4741217568
  0
HATCH
  5
2E
330
2B
100
AcDbEntity
  8
Default
  6
Continuous
 62
     7
 48
25.4
100
AcDbHatch
 10
0.0
 20
0.0
 30
0.0
210
0.0
220
0.0
230
1.0
  2
SOLID
 70
     1
 71
     0
 91
        1
 92
        1
 93
        3
 72
     1
 10
117.9257313935302
 20
235.2757628148592
 11
120.4187107527323
 21
238.4741217567504
 72
     1
 10
120.4187107527323
 20
238.4741217567504
 11
117.0231814317927
 21
236.2571809282161
 72
     1
 10
117.0231814317927
 20
236.2571809282161
 11
117.9257313935302
 21
235.2757628148592
 97
        0
 75
     0
 76
     1
 98
        0
  0
LWPOLYLINE
  5
2F
330
2B
100
AcDbEntity
  8
Default
  6
Continuous
 62
     7
 48
25.4
370
     9
100
AcDbPolyline
 90
        4
 70
     1
 43
0.0
 10
117.9257313935
 20
235.2757628149
 10
120.4187107527
 20
238.4741217568
 10
117.0231814318
 20
236.2571809282
 10
117.9257313935
 20
235.2757628149
  0
LINE
  5
30
330
2B
100
AcDbEntity
  8
Default
  6
Continuous
 62
     7
 48
25.4
100
AcDbLine
 10
98.7406054693
 20
218.5380997618
 30
0.0
 11
79.0697864316
 21
218.5380997618
 31
0.0
  0
TEXT
  5
32
330
2B
100
AcDbEntity
  8
Default
  6
Continuous
 62
     7
 48
25.4
100
AcDbText
 10
79.0697864316
 20
219.5380997618
 30
0.0
 40
4.0
  1
3 - M12
  7
SEACAD_arial_ttf
 11
79.0697864316
 21
223.5380997618
 31
0.0
100
AcDbText
 73
     3
  0
ENDBLK
  5
34
330
2B
100
AcDbEntity
  8
0
100
AcDbBlockEnd
  0
BLOCK
  5
3D
330
35
100
AcDbEntity
  8
0
100
AcDbBlockBegin
  2
SEANNOT_GROUP1
 70
     0
 71
     0
 10
0.0
 20
0.0
 30
0.0
  3
SEANNOT_GROUP1
  1

  0
LWPOLYLINE
  5
37
330
35
100
AcDbEntity
  8
Default
  6
Continuous
 62
     7
 48
25.4
100
AcDbPolyline
 90
        2
 70
     0
 43
0.0
 10
259.852894799
 20
394.4406815052
 10
222.4014833932
 20
371.8907901818
  0
HATCH
  5
38
330
35
100
AcDbEntity
  8
Default
  6
Continuous
 62
     7
 48
25.4
100
AcDbHatch
 10
0.0
 20
0.0
 30
0.0
210
0.0
220
0.0
230
1.0
  2
SOLID
 70
     1
 71
     0
 91
        1
 92
        1
 93
        3
 72
     1
 10
225.4843772103797
 20
374.5252183396245
 11
222.4014833932498
 21
371.8907901817722
 72
     1
 10
222.4014833932498
 20
371.8907901817722
 11
226.1721434336221
 21
373.382959363374
 72
     1
 10
226.1721434336221
 20
373.3829593633741
 11
225.4843772103797
 21
374.5252183396245
 97
        0
 75
     0
 76
     1
 98
        0
  0
LWPOLYLINE
  5
39
330
35
100
AcDbEntity
  8
Default
  6
Continuous
 62
     7
 48
25.4
370
     9
100
AcDbPolyline
 90
        4
 70
     1
 43
0.0
 10
225.4843772104
 20
374.5252183396
 10
222.4014833932
 20
371.8907901818
 10
226.1721434336
 20
373.3829593634
 10
225.4843772104
 20
374.5252183396
  0
LINE
  5
3A
330
35
100
AcDbEntity
  8
Default
  6
Continuous
 62
     7
 48
25.4
100
AcDbLine
 10
259.852894799
 20
394.4406815052
 30
0.0
 11
331.6934745091
 21
394.4406815052
 31
0.0
  0
TEXT
  5
3B
330
35
100
AcDbEntity
  8
Default
  6
Continuous
 62
     7
 48
25.4
100
AcDbText
 10
259.852894799
 20
395.4406815052
 30
0.0
 40
4.0
  1
SERRATION PITCH 1.5X60
  7
SEACAD_arial_ttf
 11
259.852894799
 21
399.4406815052
 31
0.0
100
AcDbText
 73
     3
  0
TEXT
  5
3C
330
35
100
AcDbEntity
  8
Default
  6
Continuous
 62
     7
 48
25.4
100
AcDbText
 10
330.0268078424
 20
395.4406815052
 30
0.0
 40
4.0
  1
°
  7
SEACAD_arial_ttf
 11
330.0268078424
 21
399.4406815052
 31
0.0
100
AcDbText
 73
     3
  0
ENDBLK
  5
3E
330
35
100
AcDbEntity
  8
0
100
AcDbBlockEnd
  0
BLOCK
  5
46
330
3F
100
AcDbEntity
  8
0
100
AcDbBlockBegin
  2
SEANNOT_GROUP2
 70
     0
 71
     0
 10
0.0
 20
0.0
 30
0.0
  3
SEANNOT_GROUP2
  1

  0
LWPOLYLINE
  5
41
330
3F
100
AcDbEntity
  8
Default
  6
Continuous
 62
     7
 48
25.4
100
AcDbPolyline
 90
        2
 70
     0
 43
0.0
 10
168.240352866
 20
341.7849206129
 10
155.2207530215
 20
319.1301157577
  0
HATCH
  5
42
330
3F
100
AcDbEntity
  8
Default
  6
Continuous
 62
     7
 48
25.4
100
AcDbHatch
 10
0.0
 20
0.0
 30
0.0
210
0.0
220
0.0
230
1.0
  2
SOLID
 70
     1
 71
     0
 91
        1
 92
        1
 93
        3
 72
     1
 10
156.6358284854691
 20
322.9303798850729
 11
155.2207530214528
 21
319.1301157577099
 72
     1
 10
155.2207530214528
 20
319.1301157577099
 11
157.7918560152076
 21
322.2660168087777
 72
     1
 10
157.7918560152076
 20
322.2660168087777
 11
156.6358284854691
 21
322.9303798850729
 97
        0
 75
     0
 76
     1
 98
        0
  0
LWPOLYLINE
  5
43
330
3F
100
AcDbEntity
  8
Default
  6
Continuous
 62
     7
 48
25.4
370
     9
100
AcDbPolyline
 90
        4
 70
     1
 43
0.0
 10
156.6358284855
 20
322.9303798851
 10
155.2207530215
 20
319.1301157577
 10
157.7918560152
 20
322.2660168088
 10
156.6358284855
 20
322.9303798851
  0
LINE
  5
44
330
3F
100
AcDbEntity
  8
Default
  6
Continuous
 62
     7
 48
25.4
100
AcDbLine
 10
168.240352866
 20
341.7849206129
 30
0.0
 11
203.9794833008
 21
341.7849206129
 31
0.0
  0
TEXT
  5
45
330
3F
100
AcDbEntity
  8
Default
  6
Continuous
 62
     7
 48
25.4
100
AcDbText
 10
168.240352866
 20
342.7849206129
 30
0.0
 40
4.0
  1
MAX M55X2.0
  7
SEACAD_arial_ttf
 11
168.240352866
 21
346.7849206129
 31
0.0
100
AcDbText
 73
     3
  0
ENDBLK
  5
47
330
3F
100
AcDbEntity
  8
0
100
AcDbBlockEnd
  0
BLOCK
  5
4F
330
48
100
AcDbEntity
  8
0
100
AcDbBlockBegin
  2
SEANNOT_GROUP3
 70
     0
 71
     0
 10
0.0
 20
0.0
 30
0.0
  3
SEANNOT_GROUP3
  1

  0
LWPOLYLINE
  5
4A
330
48
100
AcDbEntity
  8
Default
  6
Continuous
 62
     7
 48
25.4
100
AcDbPolyline
 90
        2
 70
     0
 43
0.0
 10
381.9645872682
 20
372.2158989585
 10
401.3881674404
 20
340.8772069628
  0
HATCH
  5
4B
330
48
100
AcDbEntity
  8
Default
  6
Continuous
 62
     7
 48
25.4
100
AcDbHatch
 10
0.0
 20
0.0
 30
0.0
210
0.0
220
0.0
230
1.0
  2
SOLID
 70
     1
 71
     0
 91
        1
 92
        1
 93
        3
 72
     1
 10
398.7142572107722
 20
343.9259198207238
 11
401.3881674404352
 21
340.8772069627644
 72
     1
 10
401.3881674404352
 20
340.8772069627645
 11
399.8475646365786
 21
344.6283386596437
 72
     1
 10
399.8475646365786
 20
344.6283386596437
 11
398.7142572107722
 21
343.9259198207238
 97
        0
 75
     0
 76
     1
 98
        0
  0
LWPOLYLINE
  5
4C
330
48
100
AcDbEntity
  8
Default
  6
Continuous
 62
     7
 48
25.4
370
     9
100
AcDbPolyline
 90
        4
 70
     1
 43
0.0
 10
398.7142572108
 20
343.9259198207
 10
401.3881674404
 20
340.8772069628
 10
399.8475646366
 20
344.6283386596
 10
398.7142572108
 20
343.9259198207
  0
LINE
  5
4D
330
48
100
AcDbEntity
  8
Default
  6
Continuous
 62
     7
 48
25.4
100
AcDbLine
 10
381.9645872682
 20
372.2158989585
 30
0.0
 11
369.2689350943
 21
372.2158989585
 31
0.0
  0
TEXT
  5
4E
330
48
100
AcDbEntity
  8
Default
  6
Continuous
 62
     7
 48
25.4
100
AcDbText
 10
369.2689350943
 20
373.2158989585
 30
0.0
 40
4.0
  1
3-M6
  7
SEACAD_arial_ttf
 11
369.2689350943
 21
377.2158989585
 31
0.0
100
AcDbText
 73
     3
  0
ENDBLK
  5
50
330
48
100
AcDbEntity
  8
0
100
AcDbBlockEnd
  0
BLOCK
  5
12B
330
51
100
AcDbEntity
  8
0
100
AcDbBlockBegin
  2
SE
 70
     0
 71
     0
 10
0.0
 20
0.0
 30
0.0
  3
SE
  1

  0
LINE
  5
54
330
51
100
AcDbEntity
  8
DV1_Default
  6
Continuous
 62
     7
 48
25.4
100
AcDbLine
 10
204.0192490569
 20
251.4741217568
 30
0.0
 11
216.92637653
 21
251.4741217568
 31
0.0
  0
LINE
  5
55
330
51
100
AcDbEntity
  8
DV1_Default
  6
Continuous
 62
     7
 48
25.4
100
AcDbLine
 10
144.8192490569
 20
249.8800068951
 30
0.0
 11
144.8192490569
 21
259.2341217568
 31
0.0
  0
LINE
  5
56
330
51
100
AcDbEntity
  8
DV1_Default
  6
Continuous
 62
     7
 48
25.4
100
AcDbLine
 10
204.0192490569
 20
250.5306665495
 30
0.0
 11
213.1573688416
 21
250.5306665495
 31
0.0
  0
LINE
  5
57
330
51
100
AcDbEntity
  8
DV1_Default
  6
Continuous
 62
     7
 48
25.4
100
AcDbLine
 10
204.0192490569
 20
236.2741217568
 30
0.0
 11
213.1573688416
 21
236.2741217568
 31
0.0
  0
LINE
  5
58
330
51
100
AcDbEntity
  8
DV1_Default
  6
Continuous
 62
     7
 48
25.4
100
AcDbLine
 10
213.6192490569
 20
237.0741217568
 30
0.0
 11
213.6192490569
 21
249.7306665495
 31
0.0
  0
LINE
  5
59
330
51
100
AcDbEntity
  8
DV1_Default
  6
Continuous
 62
     7
 48
25.4
100
AcDbLine
 10
213.1573688416
 20
236.2741217568
 30
0.0
 11
213.6192490569
 21
237.0741217568
 31
0.0
  0
LINE
  5
5A
330
51
100
AcDbEntity
  8
DV1_Default
  6
Continuous
 62
     7
 48
25.4
100
AcDbLine
 10
213.1573688416
 20
250.5306665495
 30
0.0
 11
213.6192490569
 21
249.7306665495
 31
0.0
  0
LINE
  5
5B
330
51
100
AcDbEntity
  8
DV1_Default
  6
Continuous
 62
     7
 48
25.4
100
AcDbLine
 10
213.1573688416
 20
250.5306665495
 30
0.0
 11
213.1573688416
 21
236.2741217568
 31
0.0
  0
LINE
  5
5C
330
51
100
AcDbEntity
  8
DV1_Default
  6
Continuous
 62
     7
 48
25.4
100
AcDbLine
 10
144.8192490569
 20
230.6730899591
 30
0.0
 11
144.8192490569
 21
238.0741217568
 31
0.0
  0
LINE
  5
5D
330
51
100
AcDbEntity
  8
DV1_Default
  6
Continuous
 62
     7
 48
25.4
100
AcDbLine
 10
152.5161126216
 20
243.4741217568
 30
0.0
 11
152.5161126216
 21
238.4741217568
 31
0.0
  0
LINE
  5
5F
330
51
100
AcDbEntity
  8
DV1_Default
  6
CENTER2
 62
     7
 48
25.4
100
AcDbLine
 10
118.390422468
 20
296.8341217568
 30
0.0
 11
275.706278761
 21
296.8341217568
 31
0.0
  0
LINE
  5
60
330
51
100
AcDbEntity
  8
DV1_Default
  6
Continuous
 62
     7
 48
25.4
100
AcDbLine
 10
220.8192490569
 20
262.8885641259
 30
0.0
 11
217.4141998544
 21
262.8885641259
 31
0.0
  0
LINE
  5
61
330
51
100
AcDbEntity
  8
DV1_Default
  6
Continuous
 62
     7
 48
25.4
100
AcDbLine
 10
217.4141998544
 20
262.8885641259
 30
0.0
 11
217.4141998544
 21
254.8885641259
 31
0.0
  0
LINE
  5
62
330
51
100
AcDbEntity
  8
DV1_Default
  6
Continuous
 62
     7
 48
25.4
100
AcDbLine
 10
217.4141998544
 20
254.8885641259
 30
0.0
 11
220.8192490569
 21
254.8885641259
 31
0.0
  0
LINE
  5
63
330
51
100
AcDbEntity
  8
DV1_Default
  6
CENTER2
 62
     7
 48
25.4
100
AcDbLine
 10
222.2490479059
 20
258.8885641259
 30
0.0
 11
206.7442625469
 21
258.8885641259
 31
0.0
  0
LINE
  5
64
330
51
100
AcDbEntity
  8
DV1_Default
  6
Continuous
 62
     7
 48
25.4
100
AcDbLine
 10
217.4141998544
 20
260.8829392238
 30
0.0
 11
208.6188250695
 21
260.8829392238
 31
0.0
  0
LINE
  5
65
330
51
100
AcDbEntity
  8
DV1_Default
  6
Continuous
 62
     7
 48
25.4
100
AcDbLine
 10
208.6188250695
 20
260.8829392238
 30
0.0
 11
208.6188250695
 21
256.8829392238
 31
0.0
  0
LINE
  5
66
330
51
100
AcDbEntity
  8
DV1_Default
  6
Continuous
 62
     7
 48
25.4
100
AcDbLine
 10
208.6188250695
 20
256.8829392238
 30
0.0
 11
217.4141998544
 21
256.8829392238
 31
0.0
  0
LINE
  5
67
330
51
100
AcDbEntity
  8
DV1_Default
  6
Continuous
 62
     7
 48
25.4
100
AcDbLine
 10
217.4141998544
 20
257.1521931724
 30
0.0
 11
208.6188250695
 21
257.1521931724
 31
0.0
  0
LINE
  5
68
330
51
100
AcDbEntity
  8
DV1_Default
  6
Continuous
 62
     7
 48
25.4
100
AcDbLine
 10
217.4141998544
 20
260.6359313685
 30
0.0
 11
208.6188250695
 21
260.6359313685
 31
0.0
  0
LINE
  5
69
330
51
100
AcDbEntity
  8
DV1_Default
  6
Continuous
 62
     7
 48
25.4
100
AcDbLine
 10
215.7284057199
 20
256.5915916236
 30
0.0
 11
215.7284057199
 21
254.4341217568
 31
0.0
  0
LINE
  5
6A
330
51
100
AcDbEntity
  8
DV1_Default
  6
Continuous
 62
     7
 48
25.4
100
AcDbLine
 10
217.4141998544
 20
261.1564899495
 30
0.0
 11
215.7284057199
 21
261.1564899495
 31
0.0
  0
LINE
  5
6B
330
51
100
AcDbEntity
  8
DV1_Default
  6
Continuous
 62
     7
 48
25.4
100
AcDbLine
 10
217.4141998544
 20
256.5915916236
 30
0.0
 11
215.7284057199
 21
256.5915916236
 31
0.0
  0
ARC
  5
6C
330
51
100
AcDbEntity
  8
DV1_Default
  6
Continuous
 62
     7
 48
25.4
100
AcDbCircle
 10
217.4141998544
 20
258.8779061253
 30
0.0
 40
3.967233603634168
100
AcDbArc
 50
55.2558056223
 51
90.0
  0
LINE
  5
6D
330
51
100
AcDbEntity
  8
DV1_Default
  6
Continuous
 62
     7
 48
25.4
100
AcDbLine
 10
221.6192490569
 20
386.0111799247
 30
0.0
 11
221.6192490569
 21
325.6836523492
 31
0.0
  0
LINE
  5
6E
330
51
100
AcDbEntity
  8
DV1_Default
  6
Continuous
 62
     7
 48
25.4
100
AcDbLine
 10
223.6192490569
 20
310.8341217568
 30
0.0
 11
252.0192490569
 21
310.8341217568
 31
0.0
  0
LINE
  5
6F
330
51
100
AcDbEntity
  8
DV1_Default
  6
Continuous
 62
     7
 48
25.4
100
AcDbLine
 10
252.0192490569
 20
310.8341217568
 30
0.0
 11
252.0192490569
 21
386.8341217568
 31
0.0
  0
LINE
  5
70
330
51
100
AcDbEntity
  8
DV1_Default
  6
Continuous
 62
     7
 48
25.4
100
AcDbLine
 10
252.0192490569
 20
386.8341217568
 30
0.0
 11
222.442190889
 21
386.8341217568
 31
0.0
  0
LINE
  5
71
330
51
100
AcDbEntity
  8
DV1_Default
  6
Continuous
 62
     7
 48
25.4
100
AcDbLine
 10
225.6192490569
 20
310.8341217568
 30
0.0
 11
225.6192490569
 21
341.789062384
 31
0.0
  0
LINE
  5
72
330
51
100
AcDbEntity
  8
DV1_Default
  6
Continuous
 62
     7
 48
25.4
100
AcDbLine
 10
225.6192490569
 20
310.8341217568
 30
0.0
 11
223.6192490569
 21
310.8341217568
 31
0.0
  0
LINE
  5
73
330
51
100
AcDbEntity
  8
DV1_Default
  6
Continuous
 62
     7
 48
25.4
100
AcDbLine
 10
223.6192490569
 20
310.8341217568
 30
0.0
 11
223.6192490569
 21
324.6262489444
 31
0.0
  0
ARC
  5
74
330
51
100
AcDbEntity
  8
DV1_Default
  6
Continuous
 62
     7
 48
25.4
100
AcDbCircle
 10
224.1087240036
 20
327.9721818755
 30
0.0
 40
3.381545933929019
100
AcDbArc
 50
222.5917679133
 51
261.6772630227
  0
LINE
  5
75
330
51
100
AcDbEntity
  8
DV1_Default
  6
Continuous
 62
     7
 48
25.4
100
AcDbLine
 10
222.4014833932
 20
325.053246727
 30
0.0
 11
222.4014833932
 21
386.8341217568
 31
0.0
  0
LINE
  5
76
330
51
100
AcDbEntity
  8
DV1_Default
  6
Continuous
 62
     7
 48
25.4
100
AcDbLine
 10
252.0192490569
 20
375.2341217568
 30
0.0
 11
233.6192490569
 21
375.2341217568
 31
0.0
  0
LINE
  5
77
330
51
100
AcDbEntity
  8
DV1_Default
  6
Continuous
 62
     7
 48
25.4
100
AcDbLine
 10
233.6192490569
 20
375.2341217568
 30
0.0
 11
233.6192490569
 21
360.0341217568
 31
0.0
  0
LINE
  5
78
330
51
100
AcDbEntity
  8
DV1_Default
  6
Continuous
 62
     7
 48
25.4
100
AcDbLine
 10
233.6192490569
 20
360.0341217568
 30
0.0
 11
252.0192490569
 21
360.0341217568
 31
0.0
  0
LINE
  5
79
330
51
100
AcDbEntity
  8
DV1_Default
  6
Continuous
 62
     7
 48
25.4
100
AcDbLine
 10
233.6192490569
 20
372.6394806504
 30
0.0
 11
224.8014833932
 21
372.6394806504
 31
0.0
  0
LINE
  5
7A
330
51
100
AcDbEntity
  8
DV1_Default
  6
Continuous
 62
     7
 48
25.4
100
AcDbLine
 10
224.8014833932
 20
362.2394806504
 30
0.0
 11
233.6192490569
 21
362.2394806504
 31
0.0
  0
LINE
  5
7B
330
51
100
AcDbEntity
  8
DV1_Default
  6
Continuous
 62
     7
 48
25.4
100
AcDbLine
 10
233.6192490569
 20
372.0606307224
 30
0.0
 11
224.8014833932
 21
372.0606307224
 31
0.0
  0
LINE
  5
7C
330
51
100
AcDbEntity
  8
DV1_Default
  6
Continuous
 62
     7
 48
25.4
100
AcDbLine
 10
233.6192490569
 20
362.8730708509
 30
0.0
 11
224.8014833932
 21
362.8730708509
 31
0.0
  0
LINE
  5
7D
330
51
100
AcDbEntity
  8
DV1_Default
  6
Continuous
 62
     7
 48
25.4
100
AcDbLine
 10
233.6192490569
 20
373.2856387053
 30
0.0
 11
225.6192490569
 21
373.2856387053
 31
0.0
  0
LINE
  5
7E
330
51
100
AcDbEntity
  8
DV1_Default
  6
Continuous
 62
     7
 48
25.4
100
AcDbLine
 10
225.6192490569
 20
361.6480628681
 30
0.0
 11
233.6192490569
 21
361.6480628681
 31
0.0
  0
LINE
  5
7F
330
51
100
AcDbEntity
  8
DV1_Default
  6
Continuous
 62
     7
 48
25.4
100
AcDbLine
 10
235.0787311501
 20
374.6701807364
 30
0.0
 11
242.4192490569
 21
374.6701807364
 31
0.0
  0
LINE
  5
80
330
51
100
AcDbEntity
  8
DV1_Default
  6
Continuous
 62
     7
 48
25.4
100
AcDbLine
 10
243.2192490569
 20
373.8701807364
 30
0.0
 11
243.2192490569
 21
361.3946405167
 31
0.0
  0
LINE
  5
81
330
51
100
AcDbEntity
  8
DV1_Default
  6
Continuous
 62
     7
 48
25.4
100
AcDbLine
 10
242.4192490569
 20
360.5946405167
 30
0.0
 11
235.0787311501
 21
360.5946405167
 31
0.0
  0
LINE
  5
82
330
51
100
AcDbEntity
  8
DV1_Default
  6
Continuous
 62
     7
 48
25.4
100
AcDbLine
 10
243.2192490569
 20
373.8701807364
 30
0.0
 11
242.4192490569
 21
374.6701807364
 31
0.0
  0
LINE
  5
83
330
51
100
AcDbEntity
  8
DV1_Default
  6
Continuous
 62
     7
 48
25.4
100
AcDbLine
 10
242.4192490569
 20
360.5946405167
 30
0.0
 11
243.2192490569
 21
361.3946405167
 31
0.0
  0
LINE
  5
84
330
51
100
AcDbEntity
  8
DV1_Default
  6
Continuous
 62
     7
 48
25.4
100
AcDbLine
 10
242.4192490569
 20
374.6701807364
 30
0.0
 11
242.4192490569
 21
360.5946405167
 31
0.0
  0
LINE
  5
85
330
51
100
AcDbEntity
  8
DV1_Default
  6
Continuous
 62
     7
 48
25.4
100
AcDbLine
 10
252.0192490569
 20
340.0341217568
 30
0.0
 11
233.6192490569
 21
340.0341217568
 31
0.0
  0
LINE
  5
86
330
51
100
AcDbEntity
  8
DV1_Default
  6
Continuous
 62
     7
 48
25.4
100
AcDbLine
 10
233.6192490569
 20
340.0341217568
 30
0.0
 11
233.6192490569
 21
355.2341217568
 31
0.0
  0
LINE
  5
87
330
51
100
AcDbEntity
  8
DV1_Default
  6
Continuous
 62
     7
 48
25.4
100
AcDbLine
 10
233.6192490569
 20
355.2341217568
 30
0.0
 11
252.0192490569
 21
355.2341217568
 31
0.0
  0
LINE
  5
88
330
51
100
AcDbEntity
  8
DV1_Default
  6
Continuous
 62
     7
 48
25.4
100
AcDbLine
 10
233.6192490569
 20
342.6287628631
 30
0.0
 11
224.8014833932
 21
342.6287628631
 31
0.0
  0
LINE
  5
89
330
51
100
AcDbEntity
  8
DV1_Default
  6
Continuous
 62
     7
 48
25.4
100
AcDbLine
 10
224.8014833932
 20
353.0287628631
 30
0.0
 11
233.6192490569
 21
353.0287628631
 31
0.0
  0
LINE
  5
8A
330
51
100
AcDbEntity
  8
DV1_Default
  6
Continuous
 62
     7
 48
25.4
100
AcDbLine
 10
233.6192490569
 20
343.2076127911
 30
0.0
 11
224.8014833932
 21
343.2076127911
 31
0.0
  0
LINE
  5
8B
330
51
100
AcDbEntity
  8
DV1_Default
  6
Continuous
 62
     7
 48
25.4
100
AcDbLine
 10
233.6192490569
 20
352.3951726626
 30
0.0
 11
224.8014833932
 21
352.3951726626
 31
0.0
  0
LINE
  5
8C
330
51
100
AcDbEntity
  8
DV1_Default
  6
Continuous
 62
     7
 48
25.4
100
AcDbLine
 10
233.6192490569
 20
341.9826048082
 30
0.0
 11
225.6192490569
 21
341.9826048082
 31
0.0
  0
LINE
  5
8D
330
51
100
AcDbEntity
  8
DV1_Default
  6
Continuous
 62
     7
 48
25.4
100
AcDbLine
 10
225.6192490569
 20
353.6201806454
 30
0.0
 11
233.6192490569
 21
353.6201806454
 31
0.0
  0
LINE
  5
8E
330
51
100
AcDbEntity
  8
DV1_Default
  6
Continuous
 62
     7
 48
25.4
100
AcDbLine
 10
235.0787311501
 20
340.5980627771
 30
0.0
 11
242.4192490569
 21
340.5980627771
 31
0.0
  0
LINE
  5
8F
330
51
100
AcDbEntity
  8
DV1_Default
  6
Continuous
 62
     7
 48
25.4
100
AcDbLine
 10
243.2192490569
 20
341.3980627771
 30
0.0
 11
243.2192490569
 21
353.8736029968
 31
0.0
  0
LINE
  5
90
330
51
100
AcDbEntity
  8
DV1_Default
  6
Continuous
 62
     7
 48
25.4
100
AcDbLine
 10
242.4192490569
 20
354.6736029968
 30
0.0
 11
235.0787311501
 21
354.6736029968
 31
0.0
  0
LINE
  5
91
330
51
100
AcDbEntity
  8
DV1_Default
  6
Continuous
 62
     7
 48
25.4
100
AcDbLine
 10
243.2192490569
 20
341.3980627771
 30
0.0
 11
242.4192490569
 21
340.5980627771
 31
0.0
  0
LINE
  5
92
330
51
100
AcDbEntity
  8
DV1_Default
  6
Continuous
 62
     7
 48
25.4
100
AcDbLine
 10
242.4192490569
 20
354.6736029968
 30
0.0
 11
243.2192490569
 21
353.8736029968
 31
0.0
  0
LINE
  5
93
330
51
100
AcDbEntity
  8
DV1_Default
  6
Continuous
 62
     7
 48
25.4
100
AcDbLine
 10
242.4192490569
 20
340.5980627771
 30
0.0
 11
242.4192490569
 21
354.6736029968
 31
0.0
  0
LINE
  5
94
330
51
100
AcDbEntity
  8
DV1_Default
  6
Continuous
 62
     7
 48
25.4
100
AcDbLine
 10
225.6192490569
 20
353.6201806454
 30
0.0
 11
225.6192490569
 21
361.6480628681
 31
0.0
  0
LINE
  5
95
330
51
100
AcDbEntity
  8
DV1_Default
  6
Continuous
 62
     7
 48
25.4
100
AcDbLine
 10
222.442190889
 20
386.8341217568
 30
0.0
 11
221.6192490569
 21
386.0111799247
 31
0.0
  0
LINE
  5
96
330
51
100
AcDbEntity
  8
DV1_Default
  6
Continuous
 62
     7
 48
25.4
100
AcDbLine
 10
184.3268303351
 20
278.8341217568
 30
0.0
 11
218.8192490569
 21
278.8341217568
 31
0.0
  0
LINE
  5
97
330
51
100
AcDbEntity
  8
DV1_Default
  6
Continuous
 62
     7
 48
25.4
100
AcDbLine
 10
144.0192490569
 20
229.8730899591
 30
0.0
 11
132.0192490569
 21
229.8730899591
 31
0.0
  0
LINE
  5
98
330
51
100
AcDbEntity
  8
DV1_Default
  6
Continuous
 62
     7
 48
25.4
100
AcDbLine
 10
131.2192490569
 20
249.8800068951
 30
0.0
 11
131.2192490569
 21
365.0730899591
 31
0.0
  0
LINE
  5
99
330
51
100
AcDbEntity
  8
DV1_Default
  6
Continuous
 62
     7
 48
25.4
100
AcDbLine
 10
132.0192490569
 20
365.8730899591
 30
0.0
 11
144.0192490569
 21
365.8730899591
 31
0.0
  0
LINE
  5
9A
330
51
100
AcDbEntity
  8
DV1_Default
  6
Continuous
 62
     7
 48
25.4
100
AcDbLine
 10
131.2192490569
 20
230.6730899591
 30
0.0
 11
131.2192490569
 21
238.0741217568
 31
0.0
  0
LINE
  5
9B
330
51
100
AcDbEntity
  8
DV1_Default
  6
Continuous
 62
     7
 48
25.4
100
AcDbLine
 10
131.2192490569
 20
365.0730899591
 30
0.0
 11
132.0192490569
 21
365.8730899591
 31
0.0
  0
LINE
  5
9C
330
51
100
AcDbEntity
  8
DV1_Default
  6
Continuous
 62
     7
 48
25.4
100
AcDbLine
 10
131.2192490569
 20
230.6730899591
 30
0.0
 11
132.0192490569
 21
229.8730899591
 31
0.0
  0
LINE
  5
9D
330
51
100
AcDbEntity
  8
DV1_Default
  6
Continuous
 62
     7
 48
25.4
100
AcDbLine
 10
136.022323835
 20
361.7299044141
 30
0.0
 11
131.222323835
 21
361.7299044141
 31
0.0
  0
LINE
  5
9E
330
51
100
AcDbEntity
  8
DV1_Default
  6
Continuous
 62
     7
 48
25.4
100
AcDbLine
 10
136.022323835
 20
359.2192472144
 30
0.0
 11
151.222323835
 21
359.2192472144
 31
0.0
  0
LINE
  5
9F
330
51
100
AcDbEntity
  8
DV1_Default
  6
Continuous
 62
     7
 48
25.4
100
AcDbLine
 10
151.222323835
 20
359.2192472144
 30
0.0
 11
151.222323835
 21
354.4192472144
 31
0.0
  0
LINE
  5
A0
330
51
100
AcDbEntity
  8
DV1_Default
  6
Continuous
 62
     7
 48
25.4
100
AcDbLine
 10
151.222323835
 20
354.4192472144
 30
0.0
 11
136.022323835
 21
354.4192472144
 31
0.0
  0
LINE
  5
A1
330
51
100
AcDbEntity
  8
DV1_Default
  6
Continuous
 62
     7
 48
25.4
100
AcDbLine
 10
136.022323835
 20
358.8705038232
 30
0.0
 11
151.222323835
 21
358.8705038232
 31
0.0
  0
LINE
  5
A2
330
51
100
AcDbEntity
  8
DV1_Default
  6
Continuous
 62
     7
 48
25.4
100
AcDbLine
 10
136.022323835
 20
354.7153942823
 30
0.0
 11
151.222323835
 21
354.7153942823
 31
0.0
  0
LINE
  5
A3
330
51
100
AcDbEntity
  8
DV1_Default
  6
Continuous
 62
     7
 48
25.4
100
AcDbLine
 10
136.022323835
 20
361.2192472144
 30
0.0
 11
131.8282912047
 21
361.2192472144
 31
0.0
  0
LINE
  5
A4
330
51
100
AcDbEntity
  8
DV1_Default
  6
Continuous
 62
     7
 48
25.4
100
AcDbLine
 10
131.8282912047
 20
352.4192472144
 30
0.0
 11
136.022323835
 21
352.4192472144
 31
0.0
  0
LINE
  5
A5
330
51
100
AcDbEntity
  8
DV1_Default
  6
Continuous
 62
     7
 48
25.4
100
AcDbLine
 10
131.597351097
 20
360.8192472144
 30
0.0
 11
131.597351097
 21
352.8192472144
 31
0.0
  0
LINE
  5
A6
330
51
100
AcDbEntity
  8
DV1_Default
  6
Continuous
 62
     7
 48
25.4
100
AcDbLine
 10
131.8282912047
 20
361.2192472144
 30
0.0
 11
131.597351097
 21
360.8192472144
 31
0.0
  0
LINE
  5
A7
330
51
100
AcDbEntity
  8
DV1_Default
  6
Continuous
 62
     7
 48
25.4
100
AcDbLine
 10
131.8282912047
 20
352.4192472144
 30
0.0
 11
131.597351097
 21
352.8192472144
 31
0.0
  0
LINE
  5
A8
330
51
100
AcDbEntity
  8
DV1_Default
  6
Continuous
 62
     7
 48
25.4
100
AcDbLine
 10
131.8282912047
 20
361.2192472144
 30
0.0
 11
131.8282912047
 21
352.4192472144
 31
0.0
  0
LINE
  5
A9
330
51
100
AcDbEntity
  8
DV1_Default
  6
Continuous
 62
     7
 48
25.4
100
AcDbLine
 10
136.022323835
 20
361.7299044141
 30
0.0
 11
136.022323835
 21
351.9374567396
 31
0.0
  0
LINE
  5
AA
330
51
100
AcDbEntity
  8
DV1_Default
  6
Continuous
 62
     7
 48
25.4
100
AcDbLine
 10
136.022323835
 20
351.9374567396
 30
0.0
 11
131.222323835
 21
351.9374567396
 31
0.0
  0
LINE
  5
AB
330
51
100
AcDbEntity
  8
DV1_Default
  6
Continuous
 62
     7
 48
25.4
100
AcDbLine
 10
131.222323835
 20
361.7299044141
 30
0.0
 11
131.222323835
 21
351.9374567396
 31
0.0
  0
LINE
  5
AC
330
51
100
AcDbEntity
  8
DV1_Default
  6
CENTER2
 62
     7
 48
25.4
100
AcDbLine
 10
128.422323835
 20
356.8336805768
 30
0.0
 11
158.1713703455
 21
356.8336805768
 31
0.0
  0
LINE
  5
AD
330
51
100
AcDbEntity
  8
DV1_Default
  6
Continuous
 62
     7
 48
25.4
100
AcDbLine
 10
136.022323835
 20
354.0316420794
 30
0.0
 11
144.8192490569
 21
354.0316420794
 31
0.0
  0
LINE
  5
AE
330
51
100
AcDbEntity
  8
DV1_Default
  6
Continuous
 62
     7
 48
25.4
100
AcDbLine
 10
136.0224303669
 20
359.5515166343
 30
0.0
 11
144.8192490569
 21
359.5515166343
 31
0.0
  0
LINE
  5
AF
330
51
100
AcDbEntity
  8
DV1_Default
  6
Continuous
 62
     7
 48
25.4
100
AcDbLine
 10
131.2192490569
 20
339.3841217568
 30
0.0
 11
140.8191554356
 21
338.2054014673
 31
0.0
  0
LINE
  5
B0
330
51
100
AcDbEntity
  8
DV1_Default
  6
Continuous
 62
     7
 48
25.4
100
AcDbLine
 10
140.8191554356
 20
338.2054014673
 30
0.0
 11
144.8191554356
 21
338.2054014673
 31
0.0
  0
LINE
  5
B1
330
51
100
AcDbEntity
  8
DV1_Default
  6
Continuous
 62
     7
 48
25.4
100
AcDbLine
 10
131.2192490569
 20
254.2841217568
 30
0.0
 11
140.8191554356
 21
255.4628420462
 31
0.0
  0
LINE
  5
B2
330
51
100
AcDbEntity
  8
DV1_Default
  6
Continuous
 62
     7
 48
25.4
100
AcDbLine
 10
140.8191554356
 20
255.4628420462
 30
0.0
 11
144.8191554356
 21
255.4628420462
 31
0.0
  0
LINE
  5
B3
330
51
100
AcDbEntity
  8
DV1_Default
  6
Continuous
 62
     7
 48
25.4
100
AcDbLine
 10
140.8191554356
 20
338.2054014673
 30
0.0
 11
140.8191554356
 21
255.4628420462
 31
0.0
  0
LINE
  5
B4
330
51
100
AcDbEntity
  8
DV1_Default
  6
Continuous
 62
     7
 48
25.4
100
AcDbLine
 10
218.4192490569
 20
210.8341217568
 30
0.0
 11
143.2191554356
 21
210.8341217568
 31
0.0
  0
LINE
  5
B5
330
51
100
AcDbEntity
  8
DV1_Default
  6
Continuous
 62
     7
 48
25.4
100
AcDbLine
 10
140.8191554356
 20
229.8730899591
 30
0.0
 11
140.8191554356
 21
213.2341217568
 31
0.0
  0
LINE
  5
B6
330
51
100
AcDbEntity
  8
DV1_Default
  6
Continuous
 62
     7
 48
25.4
100
AcDbLine
 10
140.8191554356
 20
213.2341217568
 30
0.0
 11
143.2191554356
 21
210.8341217568
 31
0.0
  0
LINE
  5
B7
330
51
100
AcDbEntity
  8
DV1_Default
  6
Continuous
 62
     7
 48
25.4
100
AcDbLine
 10
220.8192490569
 20
213.2341217568
 30
0.0
 11
218.4192490569
 21
210.8341217568
 31
0.0
  0
LINE
  5
B8
330
51
100
AcDbEntity
  8
DV1_Default
  6
Continuous
 62
     7
 48
25.4
100
AcDbLine
 10
144.0192490569
 20
229.8730899591
 30
0.0
 11
144.8192490569
 21
230.6730899591
 31
0.0
  0
LINE
  5
B9
330
51
100
AcDbEntity
  8
DV1_Default
  6
Continuous
 62
     7
 48
25.4
100
AcDbLine
 10
144.0192490569
 20
365.8730899591
 30
0.0
 11
144.8192490569
 21
365.0730899591
 31
0.0
  0
LINE
  5
BA
330
51
100
AcDbEntity
  8
DV1_Default
  6
Continuous
 62
     7
 48
25.4
100
AcDbLine
 10
140.8191554356
 20
365.8730899591
 30
0.0
 11
140.8191554356
 21
380.4341217568
 31
0.0
  0
LINE
  5
BB
330
51
100
AcDbEntity
  8
DV1_Default
  6
Continuous
 62
     7
 48
25.4
100
AcDbLine
 10
218.4192490569
 20
382.8341217568
 30
0.0
 11
143.2191554356
 21
382.8341217568
 31
0.0
  0
LINE
  5
BC
330
51
100
AcDbEntity
  8
DV1_Default
  6
Continuous
 62
     7
 48
25.4
100
AcDbLine
 10
140.8191554356
 20
380.4341217568
 30
0.0
 11
143.2191554356
 21
382.8341217568
 31
0.0
  0
LINE
  5
BD
330
51
100
AcDbEntity
  8
DV1_Default
  6
Continuous
 62
     7
 48
25.4
100
AcDbLine
 10
220.8192490569
 20
380.4341217568
 30
0.0
 11
218.4192490569
 21
382.8341217568
 31
0.0
  0
LINE
  5
BE
330
51
100
AcDbEntity
  8
DV1_Default
  6
Continuous
 62
     7
 48
25.4
100
AcDbLine
 10
220.8192490569
 20
296.8341217568
 30
0.0
 11
220.8192490569
 21
380.4341217568
 31
0.0
  0
LINE
  5
BF
330
51
100
AcDbEntity
  8
DV1_Default
  6
Continuous
 62
     7
 48
25.4
100
AcDbLine
 10
144.8192490569
 20
359.5515166343
 30
0.0
 11
144.8192490569
 21
365.0730899591
 31
0.0
  0
LINE
  5
C0
330
51
100
AcDbEntity
  8
DV1_Default
  6
Continuous
 62
     7
 48
25.4
100
AcDbLine
 10
235.0787311501
 20
374.6701807364
 30
0.0
 11
233.6192490569
 21
374.6701807364
 31
0.0
  0
LINE
  5
C1
330
51
100
AcDbEntity
  8
DV1_Default
  6
Continuous
 62
     7
 48
25.4
100
AcDbLine
 10
235.1396211351
 20
360.5946405167
 30
0.0
 11
233.6192490569
 21
360.5946405167
 31
0.0
  0
LINE
  5
C2
330
51
100
AcDbEntity
  8
DV1_Default
  6
Continuous
 62
     7
 48
25.4
100
AcDbLine
 10
235.0787311501
 20
354.6736029968
 30
0.0
 11
233.6192490569
 21
354.6736029968
 31
0.0
  0
LINE
  5
C3
330
51
100
AcDbEntity
  8
DV1_Default
  6
Continuous
 62
     7
 48
25.4
100
AcDbLine
 10
235.0787311501
 20
340.5980627771
 30
0.0
 11
233.6192490569
 21
340.5980627771
 31
0.0
  0
LINE
  5
C4
330
51
100
AcDbEntity
  8
DV1_Default
  6
Continuous
 62
     7
 48
25.4
100
AcDbLine
 10
218.4192490569
 20
384.8341217568
 30
0.0
 11
192.2212851547
 21
384.8341217568
 31
0.0
  0
LINE
  5
C5
330
51
100
AcDbEntity
  8
DV1_Default
  6
Continuous
 62
     7
 48
25.4
100
AcDbLine
 10
218.4192490569
 20
384.8341217568
 30
0.0
 11
221.6192490569
 21
384.8341217568
 31
0.0
  0
LINE
  5
C6
330
51
100
AcDbEntity
  8
DV1_Default
  6
Continuous
 62
     7
 48
25.4
100
AcDbLine
 10
221.6192490569
 20
384.8341217568
 30
0.0
 11
222.4014833932
 21
384.0518874204
 31
0.0
  0
LINE
  5
C7
330
51
100
AcDbEntity
  8
DV1_Default
  6
Continuous
 62
     7
 48
25.4
100
AcDbLine
 10
192.2212851547
 20
384.8341217568
 30
0.0
 11
192.2212851547
 21
382.8341217568
 31
0.0
  0
LINE
  5
C8
330
51
100
AcDbEntity
  8
DV1_Default
  6
Continuous
 62
     7
 48
25.4
100
AcDbLine
 10
147.2192490569
 20
272.4341217568
 30
0.0
 11
147.2192490569
 21
296.8341217568
 31
0.0
  0
LINE
  5
C9
330
51
100
AcDbEntity
  8
DV1_Default
  6
Continuous
 62
     7
 48
25.4
100
AcDbLine
 10
147.2192490569
 20
284.8341217568
 30
0.0
 11
169.6192490569
 21
284.8341217568
 31
0.0
  0
LINE
  5
CA
330
51
100
AcDbEntity
  8
DV1_Default
  6
Continuous
 62
     7
 48
25.4
100
AcDbLine
 10
169.8592490569
 20
274.4341217568
 30
0.0
 11
172.5792490569
 21
274.4341217568
 31
0.0
  0
LINE
  5
CB
330
51
100
AcDbEntity
  8
DV1_Default
  6
Continuous
 62
     7
 48
25.4
100
AcDbLine
 10
172.8192490569
 20
274.6741217568
 30
0.0
 11
172.8192490569
 21
296.8341217568
 31
0.0
  0
LINE
  5
CC
330
51
100
AcDbEntity
  8
DV1_Default
  6
Continuous
 62
     7
 48
25.4
100
AcDbLine
 10
169.6192490569
 20
296.8341217568
 30
0.0
 11
169.6192490569
 21
274.6741217568
 31
0.0
  0
LINE
  5
CD
330
51
100
AcDbEntity
  8
DV1_Default
  6
Continuous
 62
     7
 48
25.4
100
AcDbLine
 10
169.6192490569
 20
274.8341217568
 30
0.0
 11
147.2192490569
 21
274.8341217568
 31
0.0
  0
LINE
  5
CE
330
51
100
AcDbEntity
  8
DV1_Default
  6
Continuous
 62
     7
 48
25.4
100
AcDbLine
 10
147.2192490569
 20
276.4341217568
 30
0.0
 11
169.6192490569
 21
276.4341217568
 31
0.0
  0
LINE
  5
CF
330
51
100
AcDbEntity
  8
DV1_Default
  6
Continuous
 62
     7
 48
25.4
100
AcDbLine
 10
169.6192490569
 20
274.6741217568
 30
0.0
 11
169.8592490569
 21
274.4341217568
 31
0.0
  0
LINE
  5
D0
330
51
100
AcDbEntity
  8
DV1_Default
  6
Continuous
 62
     7
 48
25.4
100
AcDbLine
 10
172.5792490569
 20
274.4341217568
 30
0.0
 11
172.8192490569
 21
274.6741217568
 31
0.0
  0
LINE
  5
D1
330
51
100
AcDbEntity
  8
DV1_Default
  6
Continuous
 62
     7
 48
25.4
100
AcDbLine
 10
148.0192490569
 20
271.6341217568
 30
0.0
 11
188.8192490569
 21
271.6341217568
 31
0.0
  0
LINE
  5
D2
330
51
100
AcDbEntity
  8
DV1_Default
  6
Continuous
 62
     7
 48
25.4
100
AcDbLine
 10
188.8192490569
 20
271.6341217568
 30
0.0
 11
188.8192490569
 21
269.2341217568
 31
0.0
  0
LINE
  5
D3
330
51
100
AcDbEntity
  8
DV1_Default
  6
Continuous
 62
     7
 48
25.4
100
AcDbLine
 10
188.8192490569
 20
269.2341217568
 30
0.0
 11
196.0192490569
 21
269.2341217568
 31
0.0
  0
LINE
  5
D4
330
51
100
AcDbEntity
  8
DV1_Default
  6
Continuous
 62
     7
 48
25.4
100
AcDbLine
 10
215.7284057199
 20
277.2245641361
 30
0.0
 11
172.8192490569
 21
277.2245641361
 31
0.0
  0
LINE
  5
D5
330
51
100
AcDbEntity
  8
DV1_Default
  6
Continuous
 62
     7
 48
25.4
100
AcDbLine
 10
184.3268303351
 20
278.8341217568
 30
0.0
 11
179.2192490569
 21
278.8341217568
 31
0.0
  0
LINE
  5
D6
330
51
100
AcDbEntity
  8
DV1_Default
  6
Continuous
 62
     7
 48
25.4
100
AcDbLine
 10
179.2192490569
 20
296.8341217568
 30
0.0
 11
179.2192490569
 21
277.2245641361
 31
0.0
  0
LINE
  5
D7
330
51
100
AcDbEntity
  8
DV1_Default
  6
Continuous
 62
     7
 48
25.4
100
AcDbLine
 10
196.0192490569
 20
277.2245641361
 30
0.0
 11
196.0192490569
 21
267.6245641361
 31
0.0
  0
LINE
  5
D8
330
51
100
AcDbEntity
  8
DV1_Default
  6
Continuous
 62
     7
 48
25.4
100
AcDbLine
 10
196.0192490569
 20
266.0245641361
 30
0.0
 11
200.0192490569
 21
266.0245641361
 31
0.0
  0
LINE
  5
D9
330
51
100
AcDbEntity
  8
DV1_Default
  6
Continuous
 62
     7
 48
25.4
100
AcDbLine
 10
200.0192490569
 20
266.0245641361
 30
0.0
 11
200.0192490569
 21
267.6245641361
 31
0.0
  0
LINE
  5
DA
330
51
100
AcDbEntity
  8
DV1_Default
  6
Continuous
 62
     7
 48
25.4
100
AcDbLine
 10
200.0192490569
 20
267.6245641361
 30
0.0
 11
206.4192490569
 21
267.6245641361
 31
0.0
  0
LINE
  5
DB
330
51
100
AcDbEntity
  8
DV1_Default
  6
Continuous
 62
     7
 48
25.4
100
AcDbLine
 10
145.6192490569
 20
260.0341217568
 30
0.0
 11
188.8192490569
 21
260.0341217568
 31
0.0
  0
LINE
  5
DC
330
51
100
AcDbEntity
  8
DV1_Default
  6
Continuous
 62
     7
 48
25.4
100
AcDbLine
 10
188.8192490569
 20
260.0341217568
 30
0.0
 11
188.8192490569
 21
262.4341217568
 31
0.0
  0
LINE
  5
DD
330
51
100
AcDbEntity
  8
DV1_Default
  6
Continuous
 62
     7
 48
25.4
100
AcDbLine
 10
188.8192490569
 20
262.4341217568
 30
0.0
 11
205.6192490569
 21
262.4341217568
 31
0.0
  0
LINE
  5
DE
330
51
100
AcDbEntity
  8
DV1_Default
  6
Continuous
 62
     7
 48
25.4
100
AcDbLine
 10
206.4192490569
 20
263.2341217568
 30
0.0
 11
206.4192490569
 21
277.2245641361
 31
0.0
  0
LINE
  5
DF
330
51
100
AcDbEntity
  8
DV1_Default
  6
Continuous
 62
     7
 48
25.4
100
AcDbLine
 10
220.8192490569
 20
276.8341217568
 30
0.0
 11
218.8192490569
 21
278.8341217568
 31
0.0
  0
LINE
  5
E0
330
51
100
AcDbEntity
  8
DV1_Default
  6
Continuous
 62
     7
 48
25.4
100
AcDbLine
 10
218.8192490569
 20
278.8341217568
 30
0.0
 11
218.8192490569
 21
296.8341217568
 31
0.0
  0
LINE
  5
E1
330
51
100
AcDbEntity
  8
DV1_Default
  6
Continuous
 62
     7
 48
25.4
100
AcDbLine
 10
220.8192490569
 20
213.2341217568
 30
0.0
 11
220.8192490569
 21
296.8341217568
 31
0.0
  0
LINE
  5
E2
330
51
100
AcDbEntity
  8
DV1_Default
  6
Continuous
 62
     7
 48
25.4
100
AcDbLine
 10
205.6192490569
 20
262.4341217568
 30
0.0
 11
206.4192490569
 21
263.2341217568
 31
0.0
  0
LINE
  5
E3
330
51
100
AcDbEntity
  8
DV1_Default
  6
Continuous
 62
     7
 48
25.4
100
AcDbLine
 10
144.8192490569
 20
259.2341217568
 30
0.0
 11
145.6192490569
 21
260.0341217568
 31
0.0
  0
LINE
  5
E4
330
51
100
AcDbEntity
  8
DV1_Default
  6
Continuous
 62
     7
 48
25.4
100
AcDbLine
 10
144.8192490569
 20
259.2341217568
 30
0.0
 11
144.8192490569
 21
354.0316420794
 31
0.0
  0
LINE
  5
E5
330
51
100
AcDbEntity
  8
DV1_Default
  6
Continuous
 62
     7
 48
25.4
100
AcDbLine
 10
147.2192490569
 20
272.4341217568
 30
0.0
 11
148.0192490569
 21
271.6341217568
 31
0.0
  0
LINE
  5
E6
330
51
100
AcDbEntity
  8
DV1_Default
  6
Continuous
 62
     7
 48
25.4
100
AcDbLine
 10
206.4192490569
 20
266.8245641361
 30
0.0
 11
196.8192490569
 21
266.8245641361
 31
0.0
  0
LINE
  5
E7
330
51
100
AcDbEntity
  8
DV1_Default
  6
Continuous
 62
     7
 48
25.4
100
AcDbLine
 10
196.0192490569
 20
267.6245641361
 30
0.0
 11
196.8192490569
 21
266.8245641361
 31
0.0
  0
LINE
  5
E8
330
51
100
AcDbEntity
  8
DV1_Default
  6
Continuous
 62
     7
 48
25.4
100
AcDbLine
 10
196.0192490569
 20
266.0245641361
 30
0.0
 11
196.0192490569
 21
267.6245641361
 31
0.0
  0
LINE
  5
E9
330
51
100
AcDbEntity
  8
DV1_Default
  6
Continuous
 62
     7
 48
25.4
100
AcDbLine
 10
196.0192490569
 20
267.6245641361
 30
0.0
 11
200.0192490569
 21
267.6245641361
 31
0.0
  0
LINE
  5
EA
330
51
100
AcDbEntity
  8
DV1_Default
  6
Continuous
 62
     7
 48
25.4
100
AcDbLine
 10
206.4192490569
 20
276.4245641361
 30
0.0
 11
196.0192490569
 21
276.4245641361
 31
0.0
  0
LINE
  5
EB
330
51
100
AcDbEntity
  8
DV1_Default
  6
Continuous
 62
     7
 48
25.4
100
AcDbLine
 10
160.0192490569
 20
260.0341217568
 30
0.0
 11
160.0192490569
 21
271.6341217568
 31
0.0
  0
LINE
  5
EC
330
51
100
AcDbEntity
  8
DV1_Default
  6
Continuous
 62
     7
 48
25.4
100
AcDbLine
 10
215.7284057199
 20
261.1564899495
 30
0.0
 11
215.7284057199
 21
277.2245641361
 31
0.0
  0
LINE
  5
ED
330
51
100
AcDbEntity
  8
DV1_Default
  6
Continuous
 62
     7
 48
25.4
100
AcDbLine
 10
215.7284057199
 20
254.4341217568
 30
0.0
 11
220.8192490569
 21
254.4341217568
 31
0.0
  0
LINE
  5
EE
330
51
100
AcDbEntity
  8
DV1_Default
  6
Continuous
 62
     7
 48
25.4
100
AcDbLine
 10
220.0192490569
 20
261.4804368315
 30
0.0
 11
220.0192490569
 21
256.2753754191
 31
0.0
  0
ARC
  5
EF
330
51
100
AcDbEntity
  8
DV1_Default
  6
Continuous
 62
     7
 48
25.4
100
AcDbCircle
 10
217.4141998544
 20
258.8779061253
 30
0.0
 40
3.967233603634168
100
AcDbArc
 50
270.0
 51
304.7441943777
  0
ARC
  5
F0
330
51
100
AcDbEntity
  8
DV1_Default
  6
Continuous
 62
     7
 48
25.4
100
AcDbCircle
 10
219.2192490569
 20
261.4804368315
 30
0.0
 40
0.8000000000000008
100
AcDbArc
 50
0.0
 51
55.2558056223
  0
ARC
  5
F1
330
51
100
AcDbEntity
  8
DV1_Default
  6
Continuous
 62
     7
 48
25.4
100
AcDbCircle
 10
219.2192490569
 20
256.2753754191
 30
0.0
 40
0.7999999999999986
100
AcDbArc
 50
304.7441943777
 51
360.0
  0
LINE
  5
F2
330
51
100
AcDbEntity
  8
DV1_Default
  6
Continuous
 62
     7
 48
25.4
100
AcDbLine
 10
184.3268303351
 20
314.8341217568
 30
0.0
 11
218.8192490569
 21
314.8341217568
 31
0.0
  0
LINE
  5
F3
330
51
100
AcDbEntity
  8
DV1_Default
  6
Continuous
 62
     7
 48
25.4
100
AcDbLine
 10
147.2192490569
 20
321.2341217568
 30
0.0
 11
147.2192490569
 21
296.8341217568
 31
0.0
  0
LINE
  5
F4
330
51
100
AcDbEntity
  8
DV1_Default
  6
Continuous
 62
     7
 48
25.4
100
AcDbLine
 10
147.2192490569
 20
308.8341217568
 30
0.0
 11
169.6192490569
 21
308.8341217568
 31
0.0
  0
LINE
  5
F5
330
51
100
AcDbEntity
  8
DV1_Default
  6
Continuous
 62
     7
 48
25.4
100
AcDbLine
 10
169.8592490569
 20
319.2341217568
 30
0.0
 11
172.5792490569
 21
319.2341217568
 31
0.0
  0
LINE
  5
F6
330
51
100
AcDbEntity
  8
DV1_Default
  6
Continuous
 62
     7
 48
25.4
100
AcDbLine
 10
172.8192490569
 20
318.9941217568
 30
0.0
 11
172.8192490569
 21
296.8341217568
 31
0.0
  0
LINE
  5
F7
330
51
100
AcDbEntity
  8
DV1_Default
  6
Continuous
 62
     7
 48
25.4
100
AcDbLine
 10
169.6192490569
 20
296.8341217568
 30
0.0
 11
169.6192490569
 21
318.9941217568
 31
0.0
  0
LINE
  5
F8
330
51
100
AcDbEntity
  8
DV1_Default
  6
Continuous
 62
     7
 48
25.4
100
AcDbLine
 10
169.6192490569
 20
318.8341217568
 30
0.0
 11
147.2192490569
 21
318.8341217568
 31
0.0
  0
LINE
  5
F9
330
51
100
AcDbEntity
  8
DV1_Default
  6
Continuous
 62
     7
 48
25.4
100
AcDbLine
 10
147.2192490569
 20
317.2341217568
 30
0.0
 11
169.6192490569
 21
317.2341217568
 31
0.0
  0
LINE
  5
FA
330
51
100
AcDbEntity
  8
DV1_Default
  6
Continuous
 62
     7
 48
25.4
100
AcDbLine
 10
169.6192490569
 20
318.9941217568
 30
0.0
 11
169.8592490569
 21
319.2341217568
 31
0.0
  0
LINE
  5
FB
330
51
100
AcDbEntity
  8
DV1_Default
  6
Continuous
 62
     7
 48
25.4
100
AcDbLine
 10
172.5792490569
 20
319.2341217568
 30
0.0
 11
172.8192490569
 21
318.9941217568
 31
0.0
  0
LINE
  5
FC
330
51
100
AcDbEntity
  8
DV1_Default
  6
Continuous
 62
     7
 48
25.4
100
AcDbLine
 10
148.0192490569
 20
322.0341217568
 30
0.0
 11
180.5247874354
 21
322.0341217568
 31
0.0
  0
LINE
  5
FD
330
51
100
AcDbEntity
  8
DV1_Default
  6
Continuous
 62
     7
 48
25.4
100
AcDbLine
 10
215.7284057199
 20
316.4436793774
 30
0.0
 11
172.8192490569
 21
316.4436793774
 31
0.0
  0
LINE
  5
FE
330
51
100
AcDbEntity
  8
DV1_Default
  6
Continuous
 62
     7
 48
25.4
100
AcDbLine
 10
184.3268303351
 20
314.8341217568
 30
0.0
 11
179.2192490569
 21
314.8341217568
 31
0.0
  0
LINE
  5
FF
330
51
100
AcDbEntity
  8
DV1_Default
  6
Continuous
 62
     7
 48
25.4
100
AcDbLine
 10
179.2192490569
 20
296.8341217568
 30
0.0
 11
179.2192490569
 21
316.4436793774
 31
0.0
  0
LINE
  5
100
330
51
100
AcDbEntity
  8
DV1_Default
  6
Continuous
 62
     7
 48
25.4
100
AcDbLine
 10
145.6192490569
 20
333.6341217568
 30
0.0
 11
170.5215124568
 21
333.6341217568
 31
0.0
  0
LINE
  5
101
330
51
100
AcDbEntity
  8
DV1_Default
  6
Continuous
 62
     7
 48
25.4
100
AcDbLine
 10
220.8192490569
 20
316.8341217568
 30
0.0
 11
218.8192490569
 21
314.8341217568
 31
0.0
  0
LINE
  5
102
330
51
100
AcDbEntity
  8
DV1_Default
  6
Continuous
 62
     7
 48
25.4
100
AcDbLine
 10
218.8192490569
 20
314.8341217568
 30
0.0
 11
218.8192490569
 21
296.8341217568
 31
0.0
  0
LINE
  5
103
330
51
100
AcDbEntity
  8
DV1_Default
  6
Continuous
 62
     7
 48
25.4
100
AcDbLine
 10
144.8192490569
 20
334.4341217568
 30
0.0
 11
145.6192490569
 21
333.6341217568
 31
0.0
  0
LINE
  5
104
330
51
100
AcDbEntity
  8
DV1_Default
  6
Continuous
 62
     7
 48
25.4
100
AcDbLine
 10
147.2192490569
 20
321.2341217568
 30
0.0
 11
148.0192490569
 21
322.0341217568
 31
0.0
  0
LINE
  5
105
330
51
100
AcDbEntity
  8
DV1_Default
  6
Continuous
 62
     7
 48
25.4
100
AcDbLine
 10
160.0192490569
 20
333.6341217568
 30
0.0
 11
160.0192490569
 21
322.0341217568
 31
0.0
  0
LINE
  5
106
330
51
100
AcDbEntity
  8
DV1_Default
  6
Continuous
 62
     7
 48
25.4
100
AcDbLine
 10
220.8192490569
 20
296.8341217568
 30
0.0
 11
220.8192490569
 21
339.2341217568
 31
0.0
  0
LINE
  5
107
330
51
100
AcDbEntity
  8
DV1_Default
  6
Continuous
 62
     7
 48
25.4
100
AcDbLine
 10
215.7284057199
 20
339.2341217568
 30
0.0
 11
220.8192490569
 21
339.2341217568
 31
0.0
  0
SPLINE
  5
108
330
51
100
AcDbEntity
  8
DV1_Default
  6
Continuous
 62
     7
 48
25.4
100
AcDbSpline
210
0.0
220
0.0
230
1.0
 70
     8
 71
     3
 72
    15
 73
    11
 74
     0
 42
0.0000000001
 43
0.0000000001
 40
0.0
 40
0.0
 40
0.0
 40
0.0
 40
0.1092674078896865
 40
0.1750997065629781
 40
0.4777139312830559
 40
0.6275115158857203
 40
0.690461573224145
 40
0.803320049860721
 40
0.9368122394986248
 40
1.0
 40
1.0
 40
1.0
 40
1.0
 10
140.8191554355956
 20
372.2107022892233
 30
0.0
 10
144.0868127297524
 20
371.593450024175
 30
0.0
 10
148.9674148136242
 20
370.3682166820407
 30
0.0
 10
155.6620023126515
 20
358.3461177215046
 30
0.0
 10
154.6853060135585
 20
341.0902833218063
 30
0.0
 10
171.4417511512684
 20
335.1556299682563
 30
0.0
 10
172.4332530245603
 20
326.8574602881837
 30
0.0
 10
179.9422181264327
 20
320.2777896966557
 30
0.0
 10
189.9727520353509
 20
322.6497180948298
 30
0.0
 10
193.1518201703694
 20
318.0054882508356
 30
0.0
 10
194.2738273884177
 20
316.4436793773729
 30
0.0
  0
LINE
  5
109
330
51
100
AcDbEntity
  8
DV1_Default
  6
Continuous
 62
     7
 48
25.4
100
AcDbLine
 10
215.7284057199
 20
316.4436793774
 30
0.0
 11
215.7284057199
 21
339.2341217568
 31
0.0
  0
LINE
  5
10A
330
51
100
AcDbEntity
  8
DV1_Default
  6
Continuous
 62
     7
 48
25.4
100
AcDbLine
 10
222.4014833932
 20
339.8228144823
 30
0.0
 11
224.8014833932
 21
339.8228144823
 31
0.0
  0
LINE
  5
10B
330
51
100
AcDbEntity
  8
DV1_Default
  6
Continuous
 62
     7
 48
25.4
100
AcDbLine
 10
224.8014833932
 20
339.8228144823
 30
0.0
 11
224.8014833932
 21
377.0228144823
 31
0.0
  0
LINE
  5
10C
330
51
100
AcDbEntity
  8
DV1_Default
  6
Continuous
 62
     7
 48
25.4
100
AcDbLine
 10
224.8014833932
 20
377.0228144823
 30
0.0
 11
222.4014833932
 21
377.0228144823
 31
0.0
  0
LINE
  5
10D
330
51
100
AcDbEntity
  8
DV1_Default
  6
Continuous
 62
     7
 48
25.4
100
AcDbLine
 10
215.7284057199
 20
327.8389005671
 30
0.0
 11
216.5284057199
 21
327.8389005671
 31
0.0
  0
LINE
  5
10E
330
51
100
AcDbEntity
  8
DV1_Default
  6
Continuous
 62
     7
 48
25.4
100
AcDbLine
 10
216.5284057199
 20
327.8389005671
 30
0.0
 11
220.8192490569
 21
325.3615810114
 31
0.0
  0
LINE
  5
10F
330
51
100
AcDbEntity
  8
DV1_Default
  6
CENTER2
 62
     7
 48
25.4
100
AcDbLine
 10
236.2200862872
 20
243.4741217568
 30
0.0
 11
106.7022807676
 21
243.4741217568
 31
0.0
  0
LINE
  5
110
330
51
100
AcDbEntity
  8
DV1_Default
  6
Continuous
 62
     7
 48
25.4
100
AcDbLine
 10
116.0184244898
 20
238.4741217568
 30
0.0
 11
116.0184244898
 21
243.4741217568
 31
0.0
  0
LINE
  5
111
330
51
100
AcDbEntity
  8
DV1_Default
  6
Continuous
 62
     7
 48
25.4
100
AcDbLine
 10
116.0184244898
 20
238.6741217568
 30
0.0
 11
152.5161126216
 21
238.6741217568
 31
0.0
  0
LINE
  5
112
330
51
100
AcDbEntity
  8
DV1_Default
  6
Continuous
 62
     7
 48
25.4
100
AcDbLine
 10
204.0192490569
 20
238.4741217568
 30
0.0
 11
116.0681885342
 21
238.4741217568
 31
0.0
  0
LINE
  5
113
330
51
100
AcDbEntity
  8
DV1_Default
  6
Continuous
 62
     7
 48
25.4
100
AcDbLine
 10
116.0681885342
 20
238.4741217568
 30
0.0
 11
116.0184244898
 21
238.4741217568
 31
0.0
  0
LINE
  5
114
330
51
100
AcDbEntity
  8
DV1_Default
  6
Continuous
 62
     7
 48
25.4
100
AcDbLine
 10
204.0192490569
 20
238.0741217568
 30
0.0
 11
144.8192490569
 21
238.0741217568
 31
0.0
  0
LINE
  5
115
330
51
100
AcDbEntity
  8
DV1_Default
  6
Continuous
 62
     7
 48
25.4
100
AcDbLine
 10
152.5161126216
 20
243.4741217568
 30
0.0
 11
152.5161126216
 21
248.4741217568
 31
0.0
  0
LINE
  5
116
330
51
100
AcDbEntity
  8
DV1_Default
  6
Continuous
 62
     7
 48
25.4
100
AcDbLine
 10
116.0184244898
 20
248.4741217568
 30
0.0
 11
116.0184244898
 21
243.4741217568
 31
0.0
  0
LINE
  5
117
330
51
100
AcDbEntity
  8
DV1_Default
  6
Continuous
 62
     7
 48
25.4
100
AcDbLine
 10
116.0184244898
 20
248.2741217568
 30
0.0
 11
152.5161126216
 21
248.2741217568
 31
0.0
  0
LINE
  5
118
330
51
100
AcDbEntity
  8
DV1_Default
  6
Continuous
 62
     7
 48
25.4
100
AcDbLine
 10
204.0192490569
 20
248.4741217568
 30
0.0
 11
116.0681885342
 21
248.4741217568
 31
0.0
  0
LINE
  5
119
330
51
100
AcDbEntity
  8
DV1_Default
  6
Continuous
 62
     7
 48
25.4
100
AcDbLine
 10
116.0681885342
 20
248.4741217568
 30
0.0
 11
116.0184244898
 21
248.4741217568
 31
0.0
  0
LINE
  5
11A
330
51
100
AcDbEntity
  8
DV1_Default
  6
Continuous
 62
     7
 48
25.4
100
AcDbLine
 10
204.0192490569
 20
248.8741217568
 30
0.0
 11
144.8192490569
 21
248.8741217568
 31
0.0
  0
LINE
  5
11B
330
51
100
AcDbEntity
  8
DV1_Default
  6
Continuous
 62
     7
 48
25.4
100
AcDbLine
 10
131.2192490569
 20
238.0741217568
 30
0.0
 11
131.2192490569
 21
238.4741217568
 31
0.0
  0
LINE
  5
11C
330
51
100
AcDbEntity
  8
DV1_Default
  6
Continuous
 62
     7
 48
25.4
100
AcDbLine
 10
144.8192490569
 20
249.8800068951
 30
0.0
 11
144.8192490569
 21
248.8741217568
 31
0.0
  0
LINE
  5
11D
330
51
100
AcDbEntity
  8
DV1_Default
  6
Continuous
 62
     7
 48
25.4
100
AcDbLine
 10
131.2192490569
 20
249.8800068951
 30
0.0
 11
131.2192490569
 21
248.4741217568
 31
0.0
  0
LINE
  5
11E
330
51
100
AcDbEntity
  8
DV1_Default
  6
Continuous
 62
     7
 48
25.4
100
AcDbLine
 10
204.0192490569
 20
235.4741217568
 30
0.0
 11
216.92637653
 21
235.4741217568
 31
0.0
  0
LINE
  5
11F
330
51
100
AcDbEntity
  8
DV1_Default
  6
Continuous
 62
     7
 48
25.4
100
AcDbLine
 10
204.0192490569
 20
251.4741217568
 30
0.0
 11
204.0192490569
 21
235.4741217568
 31
0.0
  0
LINE
  5
120
330
51
100
AcDbEntity
  8
DV1_Default
  6
Continuous
 62
     7
 48
25.4
100
AcDbLine
 10
216.92637653
 20
251.4741217568
 30
0.0
 11
220.8192490569
 21
251.4741217568
 31
0.0
  0
LINE
  5
121
330
51
100
AcDbEntity
  8
DV1_Default
  6
Continuous
 62
     7
 48
25.4
100
AcDbLine
 10
216.92637653
 20
235.4741217568
 30
0.0
 11
220.8192490569
 21
235.4741217568
 31
0.0
  0
LINE
  5
122
330
51
100
AcDbEntity
  8
DV1_Default
  6
CENTER2
 62
     7
 48
25.4
100
AcDbLine
 10
257.4065787702
 20
367.6341217568
 30
0.0
 11
215.1313181391
 21
367.6341217568
 31
0.0
  0
LINE
  5
123
330
51
100
AcDbEntity
  8
DV1_Default
  6
CENTER2
 62
     7
 48
25.4
100
AcDbLine
 10
215.1313181391
 20
347.6341217568
 30
0.0
 11
257.6750679085
 21
347.6341217568
 31
0.0
  0
LINE
  5
124
330
51
100
AcDbEntity
  8
DV1_Default
  6
Continuous
 62
     7
 48
25.4
100
AcDbLine
 10
225.6192490569
 20
373.2856387053
 30
0.0
 11
225.6192490569
 21
386.8341217568
 31
0.0
  0
LINE
  5
125
330
51
100
AcDbEntity
  8
DV1_Default
  6
Continuous
 62
     7
 48
25.4
100
AcDbLine
 10
225.6192490569
 20
341.789062384
 30
0.0
 11
225.6192490569
 21
341.9826048082
 31
0.0
  0
LINE
  5
126
330
51
100
AcDbEntity
  8
DV1_Default
  6
Continuous
 62
     7
 48
25.4
100
AcDbLine
 10
220.8192490569
 20
339.2341217568
 30
0.0
 11
221.6192490569
 21
339.2341217568
 31
0.0
  0
LINE
  5
127
330
51
100
AcDbEntity
  8
DV1_Default
  6
Continuous
 62
     7
 48
25.4
100
AcDbLine
 10
221.6192490569
 20
339.2341217568
 30
0.0
 11
222.4014833932
 21
339.8228144823
 31
0.0
  0
LINE
  5
128
330
51
100
AcDbEntity
  8
DV1_Default
  6
Continuous
 62
     7
 48
25.4
100
AcDbLine
 10
215.7284057199
 20
262.0915142695
 30
0.0
 11
192.5931612377
 21
262.0915142695
 31
0.0
  0
LINE
  5
129
330
51
100
AcDbEntity
  8
DV1_Default
  6
Continuous
 62
     7
 48
25.4
100
AcDbLine
 10
144.8192490569
 20
238.0741217568
 30
0.0
 11
144.8192490569
 21
238.4741217568
 31
0.0
  0
LINE
  5
12A
330
51
100
AcDbEntity
  8
DV1_Default
  6
Continuous
 62
     7
 48
25.4
100
AcDbLine
 10
144.8192490569
 20
248.8741217568
 30
0.0
 11
144.8192490569
 21
248.4741217568
 31
0.0
  0
ENDBLK
  5
12C
330
51
100
AcDbEntity
  8
0
100
AcDbBlockEnd
  0
BLOCK
  5
212
330
12D
100
AcDbEntity
  8
0
100
AcDbBlockBegin
  2
SE1
 70
     0
 71
     0
 10
0.0
 20
0.0
 30
0.0
  3
SE1
  1

  0
LINE
  5
130
330
12D
100
AcDbEntity
  8
DV2_Default
  6
Continuous
 62
     7
 48
25.4
100
AcDbLine
 10
460.3115286611
 20
330.8031849016
 30
0.0
 11
460.3115286611
 21
383.681070875
 31
0.0
  0
LINE
  5
131
330
12D
100
AcDbEntity
  8
DV2_Default
  6
Continuous
 62
     7
 48
25.4
100
AcDbLine
 10
460.3115286611
 20
328.1951591367
 30
0.0
 11
460.3115286611
 21
330.266305339
 31
0.0
  0
LINE
  5
132
330
12D
100
AcDbEntity
  8
DV2_Default
  6
Continuous
 62
     7
 48
25.4
100
AcDbLine
 10
460.3115286611
 20
330.266305339
 30
0.0
 11
460.3115286611
 21
330.8031849016
 31
0.0
  0
CIRCLE
  5
133
330
12D
100
AcDbEntity
  8
DV2_Default
  6
Continuous
 62
     7
 48
25.4
100
AcDbCircle
 10
445.5118422986
 20
348.1533111384
 30
0.0
 40
7.6
  0
CIRCLE
  5
134
330
12D
100
AcDbEntity
  8
DV2_Default
  6
Continuous
 62
     7
 48
25.4
100
AcDbCircle
 10
445.5118422986
 20
368.1533111384
 30
0.0
 40
7.6
  0
LINE
  5
135
330
12D
100
AcDbEntity
  8
DV2_Default
  6
Continuous
 62
     7
 48
25.4
100
AcDbLine
 10
440.7118422986
 20
311.3533111384
 30
0.0
 11
450.3118422986
 21
311.3533111384
 31
0.0
  0
LINE
  5
136
330
12D
100
AcDbEntity
  8
DV2_Default
  6
Continuous
 62
     7
 48
25.4
100
AcDbLine
 10
431.5118422986
 20
317.2484562651
 30
0.0
 11
431.5118422986
 21
387.3533111384
 31
0.0
  0
LINE
  5
137
330
12D
100
AcDbEntity
  8
DV2_Default
  6
Continuous
 62
     7
 48
25.4
100
AcDbLine
 10
459.5118422986
 20
387.3533111384
 30
0.0
 11
459.5118422986
 21
317.2437678946
 31
0.0
  0
CIRCLE
  5
138
330
12D
100
AcDbEntity
  8
DV2_Default
  6
Continuous
 62
     7
 48
25.4
100
AcDbCircle
 10
445.5118422986
 20
348.1533111384
 30
0.0
 40
7.311999999999999
  0
CIRCLE
  5
139
330
12D
100
AcDbEntity
  8
DV2_Default
  6
Continuous
 62
     7
 48
25.4
100
AcDbCircle
 10
445.5118422986
 20
368.1533111384
 30
0.0
 40
7.311999999999999
  0
LINE
  5
13A
330
12D
100
AcDbEntity
  8
DV2_Default
  6
Continuous
 62
     7
 48
25.4
100
AcDbLine
 10
447.2432487115
 20
259.1499487567
 30
0.0
 11
445.5111979039
 21
258.1499487567
 31
0.0
  0
LINE
  5
13B
330
12D
100
AcDbEntity
  8
DV2_Default
  6
Continuous
 62
     7
 48
25.4
100
AcDbLine
 10
445.5111979039
 20
258.1499487567
 30
0.0
 11
443.7791470964
 21
259.1499487567
 31
0.0
  0
LINE
  5
13C
330
12D
100
AcDbEntity
  8
DV2_Default
  6
Continuous
 62
     7
 48
25.4
100
AcDbLine
 10
443.7791470964
 20
259.1499487567
 30
0.0
 11
443.7791470964
 21
261.1499487567
 31
0.0
  0
CIRCLE
  5
13D
330
12D
100
AcDbEntity
  8
DV2_Default
  6
Continuous
 62
     7
 48
25.4
100
AcDbCircle
 10
445.5111979039
 20
260.1533111384
 30
0.0
 40
4.320000000000001
  0
CIRCLE
  5
13E
330
12D
100
AcDbEntity
  8
DV2_Default
  6
Continuous
 62
     7
 48
25.4
100
AcDbCircle
 10
445.5111979039
 20
260.1533111384
 30
0.0
 40
4.0
  0
LINE
  5
13F
330
12D
100
AcDbEntity
  8
DV2_Default
  6
Continuous
 62
     7
 48
25.4
100
AcDbLine
 10
423.0355286611
 20
382.6954104599
 30
0.0
 11
422.7155286611
 21
382.6096667183
 31
0.0
  0
LINE
  5
140
330
12D
100
AcDbEntity
  8
DV2_Default
  6
Continuous
 62
     7
 48
25.4
100
AcDbLine
 10
468.3153559361
 20
382.6096667183
 30
0.0
 11
467.9953559361
 21
382.6954104599
 31
0.0
  0
LINE
  5
141
330
12D
100
AcDbEntity
  8
DV2_Default
  6
Continuous
 62
     7
 48
25.4
100
AcDbLine
 10
461.3294079134
 20
384.4815458493
 30
0.0
 11
461.016900113
 21
384.5652820621
 31
0.0
  0
LINE
  5
142
330
12D
100
AcDbEntity
  8
DV2_Default
  6
Continuous
 62
     7
 48
25.4
100
AcDbLine
 10
461.016900113
 20
384.5652820621
 30
0.0
 11
460.3151660468
 21
384.7533111384
 31
0.0
  0
LINE
  5
143
330
12D
100
AcDbEntity
  8
DV2_Default
  6
Continuous
 62
     7
 48
25.4
100
AcDbLine
 10
467.9953559361
 20
382.6954104599
 30
0.0
 11
461.3294079134
 21
384.4815458493
 31
0.0
  0
LINE
  5
144
330
12D
100
AcDbEntity
  8
DV2_Default
  6
Continuous
 62
     7
 48
25.4
100
AcDbLine
 10
430.7157185504
 20
384.7533111384
 30
0.0
 11
430.0139844842
 21
384.5652820621
 31
0.0
  0
LINE
  5
145
330
12D
100
AcDbEntity
  8
DV2_Default
  6
Continuous
 62
     7
 48
25.4
100
AcDbLine
 10
430.0139844842
 20
384.5652820621
 30
0.0
 11
429.7014766839
 21
384.4815458493
 31
0.0
  0
LINE
  5
146
330
12D
100
AcDbEntity
  8
DV2_Default
  6
Continuous
 62
     7
 48
25.4
100
AcDbLine
 10
429.7014766839
 20
384.4815458493
 30
0.0
 11
423.0355286611
 21
382.6954104599
 31
0.0
  0
LINE
  5
147
330
12D
100
AcDbEntity
  8
DV2_Default
  6
Continuous
 62
     7
 48
25.4
100
AcDbLine
 10
459.5118422986
 20
384.7533111384
 30
0.0
 11
460.3151660468
 21
384.7533111384
 31
0.0
  0
LINE
  5
148
330
12D
100
AcDbEntity
  8
DV2_Default
  6
Continuous
 62
     7
 48
25.4
100
AcDbLine
 10
459.5118422986
 20
384.753237117
 30
0.0
 11
460.3154422986
 21
384.753237117
 31
0.0
  0
LINE
  5
149
330
12D
100
AcDbEntity
  8
DV2_Default
  6
Continuous
 62
     7
 48
25.4
100
AcDbLine
 10
460.3154422986
 20
384.753237117
 30
0.0
 11
460.3154422986
 21
384.153237117
 31
0.0
  0
LINE
  5
14A
330
12D
100
AcDbEntity
  8
DV2_Default
  6
Continuous
 62
     7
 48
25.4
100
AcDbLine
 10
460.3154422986
 20
384.153237117
 30
0.0
 11
460.3154422986
 21
383.6803702751
 31
0.0
  0
LINE
  5
14B
330
12D
100
AcDbEntity
  8
DV2_Default
  6
Continuous
 62
     7
 48
25.4
100
AcDbLine
 10
460.3151660468
 20
384.7533111384
 30
0.0
 11
460.3154422986
 21
384.753237117
 31
0.0
  0
LINE
  5
14C
330
12D
100
AcDbEntity
  8
DV2_Default
  6
Continuous
 62
     7
 48
25.4
100
AcDbLine
 10
430.7157185504
 20
384.7533111384
 30
0.0
 11
431.5118422986
 21
384.7533111384
 31
0.0
  0
LINE
  5
14D
330
12D
100
AcDbEntity
  8
DV2_Default
  6
Continuous
 62
     7
 48
25.4
100
AcDbLine
 10
430.7115286611
 20
330.266305339
 30
0.0
 11
430.7115286611
 21
328.1951591367
 31
0.0
  0
LINE
  5
14E
330
12D
100
AcDbEntity
  8
DV2_Default
  6
Continuous
 62
     7
 48
25.4
100
AcDbLine
 10
430.7115286611
 20
330.266305339
 30
0.0
 11
430.7157185504
 21
384.7533111384
 31
0.0
  0
LINE
  5
14F
330
12D
100
AcDbEntity
  8
DV2_Default
  6
Continuous
 62
     7
 48
25.4
100
AcDbLine
 10
431.5118422986
 20
387.3533111384
 30
0.0
 11
459.5118422986
 21
387.3533111384
 31
0.0
  0
LINE
  5
150
330
12D
100
AcDbEntity
  8
DV2_Default
  6
Continuous
 62
     7
 48
25.4
100
AcDbLine
 10
422.7155286611
 20
382.6096667183
 30
0.0
 11
422.7155286611
 21
379.6771163078
 31
0.0
  0
LINE
  5
151
330
12D
100
AcDbEntity
  8
DV2_Default
  6
Continuous
 62
     7
 48
25.4
100
AcDbLine
 10
468.3153559361
 20
382.6096667183
 30
0.0
 11
468.3153559361
 21
379.674782281
 31
0.0
  0
ARC
  5
152
330
12D
100
AcDbEntity
  8
DV2_Default
  6
Continuous
 62
     7
 48
25.4
100
AcDbCircle
 10
445.5111979039
 20
296.7533111384
 30
0.0
 40
86.0
100
AcDbArc
 50
219.9066475133
 51
320.0902421003
  0
LINE
  5
153
330
12D
100
AcDbEntity
  8
DV2_Default
  6
Continuous
 62
     7
 48
25.4
100
AcDbLine
 10
440.7118422986
 20
311.3533111384
 30
0.0
 11
431.5118422986
 21
316.664933615
 31
0.0
  0
LINE
  5
154
330
12D
100
AcDbEntity
  8
DV2_Default
  6
Continuous
 62
     7
 48
25.4
100
AcDbLine
 10
450.3118422986
 20
311.3533111384
 30
0.0
 11
459.5118422986
 21
316.664933615
 31
0.0
  0
LINE
  5
155
330
12D
100
AcDbEntity
  8
DV2_Default
  6
Continuous
 62
     7
 48
25.4
100
AcDbLine
 10
431.5118422986
 20
317.2484562651
 30
0.0
 11
431.5118422986
 21
316.664933615
 31
0.0
  0
LINE
  5
156
330
12D
100
AcDbEntity
  8
DV2_Default
  6
Continuous
 62
     7
 48
25.4
100
AcDbLine
 10
459.5118422986
 20
317.2437678946
 30
0.0
 11
459.5118422986
 21
316.664933615
 31
0.0
  0
LINE
  5
157
330
12D
100
AcDbEntity
  8
DV2_Default
  6
Continuous
 62
     7
 48
25.4
100
AcDbLine
 10
430.7115286611
 20
328.1951591367
 30
0.0
 11
431.5118422986
 21
328.1951591367
 31
0.0
  0
LINE
  5
158
330
12D
100
AcDbEntity
  8
DV2_Default
  6
Continuous
 62
     7
 48
25.4
100
AcDbLine
 10
460.3115286611
 20
328.1951591367
 30
0.0
 11
459.5118422986
 21
328.1951591367
 31
0.0
  0
CIRCLE
  5
159
330
12D
100
AcDbEntity
  8
DV2_Default
  6
Continuous
 62
     7
 48
25.4
100
AcDbCircle
 10
445.5111979039
 20
296.7533111384
 30
0.0
 40
12.0
  0
CIRCLE
  5
15A
330
12D
100
AcDbEntity
  8
DV2_Default
  6
Continuous
 62
     7
 48
25.4
100
AcDbCircle
 10
445.4958106519
 20
243.448480909
 30
0.0
 40
8.0
  0
CIRCLE
  5
15B
330
12D
100
AcDbEntity
  8
DV2_Default
  6
Continuous
 62
     7
 48
25.4
100
AcDbCircle
 10
445.4958106519
 20
243.448480909
 30
0.0
 40
5.4
  0
ARC
  5
15C
330
12D
100
AcDbEntity
  8
DV2_Default
  6
CENTER2
 62
     7
 48
25.4
100
AcDbCircle
 10
445.5111979039
 20
296.7533111384
 30
0.0
 40
53.36000000000001
100
AcDbArc
 50
261.3810716627
 51
278.5858497373
  0
LINE
  5
15D
330
12D
100
AcDbEntity
  8
DV2_Default
  6
CENTER2
 62
     7
 48
25.4
100
AcDbLine
 10
436.7524010739
 20
368.1533111384
 30
0.0
 11
454.4665677074
 21
368.1533111384
 31
0.0
  0
LINE
  5
15E
330
12D
100
AcDbEntity
  8
DV2_Default
  6
CENTER2
 62
     7
 48
25.4
100
AcDbLine
 10
436.9357775401
 20
348.1533111384
 30
0.0
 11
453.9897888953
 21
348.1533111384
 31
0.0
  0
CIRCLE
  5
160
330
12D
100
AcDbEntity
  8
DV2_Default
  6
HIDDEN2
 62
     7
 48
25.4
100
AcDbCircle
 10
429.9820551978
 20
238.7977615611
 30
0.0
 40
2.4
  0
CIRCLE
  5
161
330
12D
100
AcDbEntity
  8
DV2_Default
  6
HIDDEN2
 62
     7
 48
25.4
100
AcDbCircle
 10
429.9820551978
 20
238.7977615611
 30
0.0
 40
2.0
  0
LINE
  5
162
330
12D
100
AcDbEntity
  8
DV2_Default
  6
CENTER2
 62
     7
 48
25.4
100
AcDbLine
 10
430.603220906
 20
241.1159835442
 30
0.0
 11
429.3608894895
 21
236.479539578
 31
0.0
  0
ARC
  5
163
330
12D
100
AcDbEntity
  8
DV2_Default
  6
CENTER2
 62
     7
 48
25.4
100
AcDbCircle
 10
445.5111979039
 20
296.7533111384
 30
0.0
 40
60.0
100
AcDbArc
 50
252.7080160032
 51
257.2919839968
  0
ARC
  5
164
330
12D
100
AcDbEntity
  8
DV2_Default
  6
CENTER2
 62
     7
 48
25.4
100
AcDbCircle
 10
445.5111979039
 20
296.7533111384
 30
0.0
 40
36.6
100
AcDbArc
 50
263.2332875812
 51
276.7667124188
  0
LINE
  5
165
330
12D
100
AcDbEntity
  8
DV2_Default
  6
Continuous
 62
     7
 48
25.4
100
AcDbLine
 10
459.5118422986
 20
317.2437678946
 30
0.0
 11
459.5118422986
 21
316.664933615
 31
0.0
  0
LINE
  5
166
330
12D
100
AcDbEntity
  8
DV2_Default
  6
Continuous
 62
     7
 48
25.4
100
AcDbLine
 10
431.5118422986
 20
317.2484562651
 30
0.0
 11
431.5118422986
 21
316.664933615
 31
0.0
  0
ARC
  5
167
330
12D
100
AcDbEntity
  8
DV2_Default
  6
Continuous
 62
     7
 48
25.4
100
AcDbCircle
 10
445.5111979039
 20
296.7533111384
 30
0.0
 40
42.4
100
AcDbArc
 50
350.4284569319
 51
69.5698993956
  0
ARC
  5
168
330
12D
100
AcDbEntity
  8
DV2_Default
  6
Continuous
 62
     7
 48
25.4
100
AcDbCircle
 10
445.5111979039
 20
296.7533111384
 30
0.0
 40
18.0
100
AcDbArc
 50
355.3106013225
 51
64.6869041288
  0
ARC
  5
169
330
12D
100
AcDbEntity
  8
DV2_Default
  6
Continuous
 62
     7
 48
25.4
100
AcDbCircle
 10
445.5111979039
 20
296.7533111384
 30
0.0
 40
18.0
100
AcDbArc
 50
115.3106013225
 51
184.6869041288
  0
ARC
  5
16A
330
12D
100
AcDbEntity
  8
DV2_Default
  6
Continuous
 62
     7
 48
25.4
100
AcDbCircle
 10
445.5111979039
 20
296.7533111384
 30
0.0
 40
18.0
100
AcDbArc
 50
235.3106013225
 51
304.6869041288
  0
ARC
  5
16B
330
12D
100
AcDbEntity
  8
DV2_Default
  6
Continuous
 62
     7
 48
25.4
100
AcDbCircle
 10
445.5111979039
 20
296.7533111384
 30
0.0
 40
42.4
100
AcDbArc
 50
110.4284569319
 51
189.5698993956
  0
ARC
  5
16C
330
12D
100
AcDbEntity
  8
DV2_Default
  6
Continuous
 62
     7
 48
25.4
100
AcDbCircle
 10
445.5111979039
 20
296.7533111384
 30
0.0
 40
42.4
100
AcDbArc
 50
230.4284569319
 51
309.5698993956
  0
ARC
  5
16D
330
12D
100
AcDbEntity
  8
DV2_Default
  6
Continuous
 62
     7
 48
25.4
100
AcDbCircle
 10
445.5111979039
 20
296.7533111384
 30
0.0
 40
86.0
100
AcDbArc
 50
99.9066475133
 51
200.0902421003
  0
ARC
  5
16E
330
12D
100
AcDbEntity
  8
DV2_Default
  6
Continuous
 62
     7
 48
25.4
100
AcDbCircle
 10
445.5111979039
 20
296.7533111384
 30
0.0
 40
86.0
100
AcDbArc
 50
339.9066475133
 51
80.0902421003
  0
LINE
  5
16F
330
12D
100
AcDbEntity
  8
DV2_Default
  6
CENTER2
 62
     7
 48
25.4
100
AcDbLine
 10
445.5118422986
 20
392.2413901275
 30
0.0
 11
445.5118422986
 21
205.5767942038
 31
0.0
  0
LINE
  5
170
330
12D
100
AcDbEntity
  8
DV2_Default
  6
CENTER2
 62
     7
 48
25.4
100
AcDbLine
 10
346.0152437974
 20
296.7533111384
 30
0.0
 11
543.9814205248
 21
296.7533111384
 31
0.0
  0
LINE
  5
171
330
12D
100
AcDbEntity
  8
DV2_Default
  6
Continuous
 62
     7
 48
25.4
100
AcDbLine
 10
475.4787780562
 20
316.0546984642
 30
0.0
 11
477.2108386698
 21
317.0546814794
 31
0.0
  0
LINE
  5
172
330
12D
100
AcDbEntity
  8
DV2_Default
  6
Continuous
 62
     7
 48
25.4
100
AcDbLine
 10
477.2108386698
 20
317.0546814794
 30
0.0
 11
478.9428796712
 21
316.0546644947
 31
0.0
  0
LINE
  5
173
330
12D
100
AcDbEntity
  8
DV2_Default
  6
Continuous
 62
     7
 48
25.4
100
AcDbLine
 10
478.9428796712
 20
316.0546644947
 30
0.0
 11
478.9428600589
 21
314.0546644948
 31
0.0
  0
LINE
  5
174
330
12D
100
AcDbEntity
  8
DV2_Default
  6
Continuous
 62
     7
 48
25.4
100
AcDbLine
 10
478.9428600589
 20
314.0546644948
 30
0.0
 11
477.2107994453
 21
313.0546814796
 31
0.0
  0
LINE
  5
175
330
12D
100
AcDbEntity
  8
DV2_Default
  6
Continuous
 62
     7
 48
25.4
100
AcDbLine
 10
477.2107994453
 20
313.0546814796
 30
0.0
 11
475.4787584439
 21
314.0546984643
 31
0.0
  0
LINE
  5
176
330
12D
100
AcDbEntity
  8
DV2_Default
  6
Continuous
 62
     7
 48
25.4
100
AcDbLine
 10
475.4787584439
 20
314.0546984643
 30
0.0
 11
475.4787780562
 21
316.0546984642
 31
0.0
  0
CIRCLE
  5
177
330
12D
100
AcDbEntity
  8
DV2_Default
  6
Continuous
 62
     7
 48
25.4
100
AcDbCircle
 10
477.2079071331
 20
315.0530003172
 30
0.0
 40
4.320000000000001
  0
CIRCLE
  5
178
330
12D
100
AcDbEntity
  8
DV2_Default
  6
Continuous
 62
     7
 48
25.4
100
AcDbCircle
 10
477.2079071331
 20
315.0530003172
 30
0.0
 40
4.0
  0
CIRCLE
  5
179
330
12D
100
AcDbEntity
  8
DV2_Default
  6
Continuous
 62
     7
 48
25.4
100
AcDbCircle
 10
491.6824898772
 20
323.3919477415
 30
0.0
 40
8.0
  0
CIRCLE
  5
17A
330
12D
100
AcDbEntity
  8
DV2_Default
  6
Continuous
 62
     7
 48
25.4
100
AcDbCircle
 10
491.6824898772
 20
323.3919477415
 30
0.0
 40
5.4
  0
ARC
  5
17B
330
12D
100
AcDbEntity
  8
DV2_Default
  6
CENTER2
 62
     7
 48
25.4
100
AcDbCircle
 10
445.5111979039
 20
296.7533111384
 30
0.0
 40
53.36000000000001
100
AcDbArc
 50
21.3805098128
 51
38.5852878875
  0
LINE
  5
17C
330
12D
100
AcDbEntity
  8
DV2_Default
  6
CENTER2
 62
     7
 48
25.4
100
AcDbLine
 10
484.7465667429
 20
319.4053489061
 30
0.0
 11
498.6030260208
 21
327.4051982302
 31
0.0
  0
LINE
  5
17D
330
12D
100
AcDbEntity
  8
DV2_Default
  6
Continuous
 62
     7
 48
25.4
100
AcDbLine
 10
459.51204323
 20
317.2436306015
 30
0.0
 11
459.5120375539
 21
316.6647963219
 31
0.0
  0
CIRCLE
  5
17E
330
12D
100
AcDbEntity
  8
DV2_Default
  6
HIDDEN2
 62
     7
 48
25.4
100
AcDbCircle
 10
503.4668997593
 20
312.2818855241
 30
0.0
 40
2.4
  0
CIRCLE
  5
17F
330
12D
100
AcDbEntity
  8
DV2_Default
  6
HIDDEN2
 62
     7
 48
25.4
100
AcDbCircle
 10
503.4668997593
 20
312.2818855241
 30
0.0
 40
2.0
  0
LINE
  5
180
330
12D
100
AcDbEntity
  8
DV2_Default
  6
CENTER2
 62
     7
 48
25.4
100
AcDbLine
 10
501.1486716851
 20
311.6607425487
 30
0.0
 11
505.7851278335
 21
312.9030284996
 31
0.0
  0
LINE
  5
181
330
12D
100
AcDbEntity
  8
DV2_Default
  6
CENTER2
 62
     7
 48
25.4
100
AcDbLine
 10
473.4666562077
 20
312.8930370043
 30
0.0
 11
480.9491580585
 21
317.2129636301
 31
0.0
  0
ARC
  5
182
330
12D
100
AcDbEntity
  8
DV2_Default
  6
CENTER2
 62
     7
 48
25.4
100
AcDbCircle
 10
445.5111979039
 20
296.7533111384
 30
0.0
 40
60.0
100
AcDbArc
 50
12.7074541533
 51
17.2914221469
  0
ARC
  5
183
330
12D
100
AcDbEntity
  8
DV2_Default
  6
CENTER2
 62
     7
 48
25.4
100
AcDbCircle
 10
445.5111979039
 20
296.7533111384
 30
0.0
 40
36.6
100
AcDbArc
 50
23.2327257313
 51
36.7661505689
  0
LINE
  5
184
330
12D
100
AcDbEntity
  8
DV2_Default
  6
Continuous
 62
     7
 48
25.4
100
AcDbLine
 10
413.8119160754
 20
313.0553031773
 30
0.0
 11
412.079875074
 21
314.055320162
 31
0.0
  0
LINE
  5
185
330
12D
100
AcDbEntity
  8
DV2_Default
  6
Continuous
 62
     7
 48
25.4
100
AcDbLine
 10
412.079875074
 20
314.055320162
 30
0.0
 11
412.0798946863
 21
316.0553201619
 31
0.0
  0
LINE
  5
186
330
12D
100
AcDbEntity
  8
DV2_Default
  6
Continuous
 62
     7
 48
25.4
100
AcDbLine
 10
412.0798946863
 20
316.0553201619
 30
0.0
 11
413.8119552999
 21
317.0553031771
 31
0.0
  0
LINE
  5
187
330
12D
100
AcDbEntity
  8
DV2_Default
  6
Continuous
 62
     7
 48
25.4
100
AcDbLine
 10
413.8119552999
 20
317.0553031771
 30
0.0
 11
415.5439963013
 21
316.0552861925
 31
0.0
  0
LINE
  5
188
330
12D
100
AcDbEntity
  8
DV2_Default
  6
Continuous
 62
     7
 48
25.4
100
AcDbLine
 10
415.5439963013
 20
316.0552861925
 30
0.0
 11
415.543976689
 21
314.0552861926
 31
0.0
  0
LINE
  5
189
330
12D
100
AcDbEntity
  8
DV2_Default
  6
Continuous
 62
     7
 48
25.4
100
AcDbLine
 10
415.543976689
 20
314.0552861926
 30
0.0
 11
413.8119160754
 21
313.0553031773
 31
0.0
  0
CIRCLE
  5
18A
330
12D
100
AcDbEntity
  8
DV2_Default
  6
Continuous
 62
     7
 48
25.4
100
AcDbCircle
 10
413.8148475791
 20
315.0536219578
 30
0.0
 40
4.320000000000001
  0
CIRCLE
  5
18B
330
12D
100
AcDbEntity
  8
DV2_Default
  6
Continuous
 62
     7
 48
25.4
100
AcDbCircle
 10
413.8148475791
 20
315.0536219578
 30
0.0
 40
4.0
  0
CIRCLE
  5
18C
330
12D
100
AcDbEntity
  8
DV2_Default
  6
Continuous
 62
     7
 48
25.4
100
AcDbCircle
 10
399.3558158968
 20
323.4195046113
 30
0.0
 40
8.0
  0
CIRCLE
  5
18D
330
12D
100
AcDbEntity
  8
DV2_Default
  6
Continuous
 62
     7
 48
25.4
100
AcDbCircle
 10
399.3558158968
 20
323.4195046113
 30
0.0
 40
5.4
  0
ARC
  5
18E
330
12D
100
AcDbEntity
  8
DV2_Default
  6
CENTER2
 62
     7
 48
25.4
100
AcDbCircle
 10
445.5111979039
 20
296.7533111384
 30
0.0
 40
53.36000000000001
100
AcDbArc
 50
141.3805098128
 51
158.5852878875
  0
LINE
  5
18F
330
12D
100
AcDbEntity
  8
DV2_Default
  6
CENTER2
 62
     7
 48
25.4
100
AcDbLine
 10
406.2762733302
 20
319.406118396
 30
0.0
 11
392.41997095
 21
327.4062394751
 31
0.0
  0
LINE
  5
190
330
12D
100
AcDbEntity
  8
DV2_Default
  6
Continuous
 62
     7
 48
25.4
100
AcDbLine
 10
431.5120432773
 20
317.2485935436
 30
0.0
 11
431.5120375552
 21
316.6650708935
 31
0.0
  0
CIRCLE
  5
191
330
12D
100
AcDbEntity
  8
DV2_Default
  6
HIDDEN2
 62
     7
 48
25.4
100
AcDbCircle
 10
403.0852070736
 20
339.1801340464
 30
0.0
 40
2.4
  0
CIRCLE
  5
192
330
12D
100
AcDbEntity
  8
DV2_Default
  6
HIDDEN2
 62
     7
 48
25.4
100
AcDbCircle
 10
403.0852070736
 20
339.1801340464
 30
0.0
 40
2.0
  0
LINE
  5
193
330
12D
100
AcDbEntity
  8
DV2_Default
  6
CENTER2
 62
     7
 48
25.4
100
AcDbLine
 10
404.7822467069
 20
337.4830611301
 30
0.0
 11
401.3881674404
 21
340.8772069628
 31
0.0
  0
LINE
  5
194
330
12D
100
AcDbEntity
  8
DV2_Default
  6
CENTER2
 62
     7
 48
25.4
100
AcDbLine
 10
417.556056142
 20
312.893585271
 30
0.0
 11
410.0736390162
 21
317.2136586447
 31
0.0
  0
ARC
  5
195
330
12D
100
AcDbEntity
  8
DV2_Default
  6
CENTER2
 62
     7
 48
25.4
100
AcDbCircle
 10
445.5111979039
 20
296.7533111384
 30
0.0
 40
60.0
100
AcDbArc
 50
132.7074541533
 51
137.2914221469
  0
ARC
  5
196
330
12D
100
AcDbEntity
  8
DV2_Default
  6
CENTER2
 62
     7
 48
25.4
100
AcDbCircle
 10
445.5111979039
 20
296.7533111384
 30
0.0
 40
36.6
100
AcDbArc
 50
143.2327257313
 51
156.7661505689
  0
LINE
  5
197
330
12D
100
AcDbEntity
  8
DV2_Default
  6
CENTER2
 62
     7
 48
25.4
100
AcDbLine
 10
445.5111979039
 20
296.7533111384
 30
0.0
 11
532.1137382824
 21
246.7533111384
 31
0.0
  0
LINE
  5
198
330
12D
100
AcDbEntity
  8
DV2_Default
  6
CENTER2
 62
     7
 48
25.4
100
AcDbLine
 10
445.5111979039
 20
296.7533111384
 30
0.0
 11
358.9048129297
 21
246.7599707649
 31
0.0
  0
LINE
  5
199
330
12D
100
AcDbEntity
  8
DV2_Default
  6
Continuous
 62
     7
 48
25.4
100
AcDbLine
 10
441.3551038221
 20
370.5534001115
 30
0.0
 11
441.3551019316
 21
365.753431693
 31
0.0
  0
LINE
  5
19A
330
12D
100
AcDbEntity
  8
DV2_Default
  6
Continuous
 62
     7
 48
25.4
100
AcDbLine
 10
445.5118397771
 20
372.9528831578
 30
0.0
 11
449.6683804865
 21
370.5522861176
 31
0.0
  0
LINE
  5
19B
330
12D
100
AcDbEntity
  8
DV2_Default
  6
Continuous
 62
     7
 48
25.4
100
AcDbLine
 10
449.6683804865
 20
370.5522861176
 30
0.0
 11
449.6676709249
 21
365.75228617
 31
0.0
  0
LINE
  5
19C
330
12D
100
AcDbEntity
  8
DV2_Default
  6
Continuous
 62
     7
 48
25.4
100
AcDbLine
 10
449.6676709249
 20
365.75228617
 30
0.0
 11
445.5118422986
 21
363.3535365231
 31
0.0
  0
LINE
  5
19D
330
12D
100
AcDbEntity
  8
DV2_Default
  6
Continuous
 62
     7
 48
25.4
100
AcDbLine
 10
441.3551019316
 20
365.753431693
 30
0.0
 11
445.5118422986
 21
363.3535365231
 31
0.0
  0
LINE
  5
19E
330
12D
100
AcDbEntity
  8
DV2_Default
  6
Continuous
 62
     7
 48
25.4
100
AcDbLine
 10
441.3551038221
 20
370.5534001115
 30
0.0
 11
445.5118397771
 21
372.9528831578
 31
0.0
  0
LINE
  5
19F
330
12D
100
AcDbEntity
  8
DV2_Default
  6
Continuous
 62
     7
 48
25.4
100
AcDbLine
 10
441.3551038221
 20
345.7532221653
 30
0.0
 11
441.3551019316
 21
350.5531905838
 31
0.0
  0
LINE
  5
1A0
330
12D
100
AcDbEntity
  8
DV2_Default
  6
Continuous
 62
     7
 48
25.4
100
AcDbLine
 10
445.5118397771
 20
343.353739119
 30
0.0
 11
449.6683804865
 21
345.7543361592
 31
0.0
  0
LINE
  5
1A1
330
12D
100
AcDbEntity
  8
DV2_Default
  6
Continuous
 62
     7
 48
25.4
100
AcDbLine
 10
449.6683804865
 20
345.7543361592
 30
0.0
 11
449.6676709249
 21
350.5543361068
 31
0.0
  0
LINE
  5
1A2
330
12D
100
AcDbEntity
  8
DV2_Default
  6
Continuous
 62
     7
 48
25.4
100
AcDbLine
 10
449.6676709249
 20
350.5543361068
 30
0.0
 11
445.5118422986
 21
352.9530857537
 31
0.0
  0
LINE
  5
1A3
330
12D
100
AcDbEntity
  8
DV2_Default
  6
Continuous
 62
     7
 48
25.4
100
AcDbLine
 10
441.3551019316
 20
350.5531905838
 30
0.0
 11
445.5118422986
 21
352.9530857537
 31
0.0
  0
LINE
  5
1A4
330
12D
100
AcDbEntity
  8
DV2_Default
  6
Continuous
 62
     7
 48
25.4
100
AcDbLine
 10
441.3551038221
 20
345.7532221653
 30
0.0
 11
445.5118397771
 21
343.353739119
 31
0.0
  0
LINE
  5
1A5
330
12D
100
AcDbEntity
  8
DV2_Default
  6
Continuous
 62
     7
 48
25.4
100
AcDbLine
 10
408.6226817931
 20
292.5484243446
 30
0.0
 11
362.8272346993
 21
266.1126937796
 31
0.0
  0
LINE
  5
1A6
330
12D
100
AcDbEntity
  8
DV2_Default
  6
Continuous
 62
     7
 48
25.4
100
AcDbLine
 10
410.8813898283
 20
293.852278785
 30
0.0
 11
409.0876519625
 21
292.8168315095
 31
0.0
  0
LINE
  5
1A7
330
12D
100
AcDbEntity
  8
DV2_Default
  6
Continuous
 62
     7
 48
25.4
100
AcDbLine
 10
409.0876519625
 20
292.8168315095
 30
0.0
 11
408.6226817931
 21
292.5484243446
 31
0.0
  0
CIRCLE
  5
1A8
330
12D
100
AcDbEntity
  8
DV2_Default
  6
Continuous
 62
     7
 48
25.4
100
AcDbCircle
 10
400.9953672816
 20
271.0569918608
 30
0.0
 40
7.6
  0
CIRCLE
  5
1A9
330
12D
100
AcDbEntity
  8
DV2_Default
  6
Continuous
 62
     7
 48
25.4
100
AcDbCircle
 10
383.6741577624
 20
261.0582068949
 30
0.0
 40
7.6
  0
LINE
  5
1AA
330
12D
100
AcDbEntity
  8
DV2_Default
  6
Continuous
 62
     7
 48
25.4
100
AcDbLine
 10
435.2661011886
 20
285.2976659135
 30
0.0
 11
430.4666844049
 21
293.6118464827
 31
0.0
  0
LINE
  5
1AB
330
12D
100
AcDbEntity
  8
DV2_Default
  6
Continuous
 62
     7
 48
25.4
100
AcDbLine
 10
434.7599900786
 20
274.3826951114
 30
0.0
 11
374.0449461002
 21
239.3345266642
 31
0.0
  0
LINE
  5
1AC
330
12D
100
AcDbEntity
  8
DV2_Default
  6
Continuous
 62
     7
 48
25.4
100
AcDbLine
 10
360.0466471479
 20
263.584219991
 30
0.0
 11
420.7657515388
 21
298.6347323386
 31
0.0
  0
CIRCLE
  5
1AD
330
12D
100
AcDbEntity
  8
DV2_Default
  6
Continuous
 62
     7
 48
25.4
100
AcDbCircle
 10
400.9953672816
 20
271.0569918608
 30
0.0
 40
7.311999999999999
  0
CIRCLE
  5
1AE
330
12D
100
AcDbEntity
  8
DV2_Default
  6
Continuous
 62
     7
 48
25.4
100
AcDbCircle
 10
383.6741577624
 20
261.0582068949
 30
0.0
 40
7.311999999999999
  0
LINE
  5
1AF
330
12D
100
AcDbEntity
  8
DV2_Default
  6
Continuous
 62
     7
 48
25.4
100
AcDbLine
 10
382.3166116471
 20
234.3221938049
 30
0.0
 11
382.5508514722
 21
234.0879211143
 31
0.0
  0
LINE
  5
1B0
330
12D
100
AcDbEntity
  8
DV2_Default
  6
Continuous
 62
     7
 48
25.4
100
AcDbLine
 10
359.7537081019
 20
273.5801292275
 30
0.0
 11
359.8394293957
 21
273.2601232135
 31
0.0
  0
LINE
  5
1B1
330
12D
100
AcDbEntity
  8
DV2_Default
  6
Continuous
 62
     7
 48
25.4
100
AcDbLine
 10
361.6250971739
 20
266.5940499123
 30
0.0
 11
361.7088114644
 21
266.2815362388
 31
0.0
  0
LINE
  5
1B2
330
12D
100
AcDbEntity
  8
DV2_Default
  6
Continuous
 62
     7
 48
25.4
100
AcDbLine
 10
361.7088114644
 20
266.2815362388
 30
0.0
 11
361.8967913146
 21
265.5797889843
 31
0.0
  0
LINE
  5
1B3
330
12D
100
AcDbEntity
  8
DV2_Default
  6
Continuous
 62
     7
 48
25.4
100
AcDbLine
 10
359.8394293957
 20
273.2601232135
 30
0.0
 11
361.6250971739
 21
266.5940499123
 31
0.0
  0
LINE
  5
1B4
330
12D
100
AcDbEntity
  8
DV2_Default
  6
Continuous
 62
     7
 48
25.4
100
AcDbLine
 10
376.6947168459
 20
239.9448773975
 30
0.0
 11
377.2083857989
 21
239.4311363732
 31
0.0
  0
LINE
  5
1B5
330
12D
100
AcDbEntity
  8
DV2_Default
  6
Continuous
 62
     7
 48
25.4
100
AcDbLine
 10
377.2083857989
 20
239.4311363732
 30
0.0
 11
377.4371413379
 21
239.2023487382
 31
0.0
  0
LINE
  5
1B6
330
12D
100
AcDbEntity
  8
DV2_Default
  6
Continuous
 62
     7
 48
25.4
100
AcDbLine
 10
377.4371413379
 20
239.2023487382
 30
0.0
 11
382.3166116471
 21
234.3221938049
 31
0.0
  0
LINE
  5
1B7
330
12D
100
AcDbEntity
  8
DV2_Default
  6
Continuous
 62
     7
 48
25.4
100
AcDbLine
 10
362.2984043854
 20
264.8840620366
 30
0.0
 11
361.8967913146
 21
265.5797889843
 31
0.0
  0
LINE
  5
1B8
330
12D
100
AcDbEntity
  8
DV2_Default
  6
Continuous
 62
     7
 48
25.4
100
AcDbLine
 10
362.2984684925
 20
264.8840990428
 30
0.0
 11
361.8967173125
 21
265.5800652413
 31
0.0
  0
LINE
  5
1B9
330
12D
100
AcDbEntity
  8
DV2_Default
  6
Continuous
 62
     7
 48
25.4
100
AcDbLine
 10
361.8967173125
 20
265.5800652413
 30
0.0
 11
362.4163535981
 21
265.8800287903
 31
0.0
  0
LINE
  5
1BA
330
12D
100
AcDbEntity
  8
DV2_Default
  6
Continuous
 62
     7
 48
25.4
100
AcDbLine
 10
362.4163535981
 20
265.8800287903
 30
0.0
 11
362.8258848802
 21
266.1164334837
 31
0.0
  0
LINE
  5
1BB
330
12D
100
AcDbEntity
  8
DV2_Default
  6
Continuous
 62
     7
 48
25.4
100
AcDbLine
 10
361.8967913146
 20
265.5797889843
 30
0.0
 11
361.8967173125
 21
265.5800652413
 31
0.0
  0
LINE
  5
1BC
330
12D
100
AcDbEntity
  8
DV2_Default
  6
Continuous
 62
     7
 48
25.4
100
AcDbLine
 10
376.6947168459
 20
239.9448773975
 30
0.0
 11
376.2967033377
 21
240.6343687098
 31
0.0
  0
LINE
  5
1BD
330
12D
100
AcDbEntity
  8
DV2_Default
  6
Continuous
 62
     7
 48
25.4
100
AcDbLine
 10
423.8858537121
 20
267.1814414212
 30
0.0
 11
425.6795915779
 21
268.2168886967
 31
0.0
  0
LINE
  5
1BE
330
12D
100
AcDbEntity
  8
DV2_Default
  6
Continuous
 62
     7
 48
25.4
100
AcDbLine
 10
423.8858537121
 20
267.1814414212
 30
0.0
 11
376.6947168459
 21
239.9448773975
 31
0.0
  0
LINE
  5
1BF
330
12D
100
AcDbEntity
  8
DV2_Default
  6
Continuous
 62
     7
 48
25.4
100
AcDbLine
 10
374.0449461002
 20
239.3345266642
 30
0.0
 11
360.0466471479
 21
263.584219991
 31
0.0
  0
LINE
  5
1C0
330
12D
100
AcDbEntity
  8
DV2_Default
  6
Continuous
 62
     7
 48
25.4
100
AcDbLine
 10
382.5508514722
 20
234.0879211143
 30
0.0
 11
385.0906174764
 21
235.5540181621
 31
0.0
  0
LINE
  5
1C1
330
12D
100
AcDbEntity
  8
DV2_Default
  6
Continuous
 62
     7
 48
25.4
100
AcDbLine
 10
359.7537081019
 20
273.5801292275
 30
0.0
 11
362.2954955146
 21
275.047393147
 31
0.0
  0
LINE
  5
1C2
330
12D
100
AcDbEntity
  8
DV2_Default
  6
Continuous
 62
     7
 48
25.4
100
AcDbLine
 10
435.2661011886
 20
285.2976659135
 30
0.0
 11
435.2653559828
 21
274.6744209865
 31
0.0
  0
LINE
  5
1C3
330
12D
100
AcDbEntity
  8
DV2_Default
  6
Continuous
 62
     7
 48
25.4
100
AcDbLine
 10
430.4666844049
 20
293.6118464827
 30
0.0
 11
421.2670570305
 21
298.9241143133
 31
0.0
  0
LINE
  5
1C4
330
12D
100
AcDbEntity
  8
DV2_Default
  6
Continuous
 62
     7
 48
25.4
100
AcDbLine
 10
434.7599900786
 20
274.3826951114
 30
0.0
 11
435.2653559828
 21
274.6744209865
 31
0.0
  0
LINE
  5
1C5
330
12D
100
AcDbEntity
  8
DV2_Default
  6
Continuous
 62
     7
 48
25.4
100
AcDbLine
 10
420.7657515388
 20
298.6347323386
 30
0.0
 11
421.2670570305
 21
298.9241143133
 31
0.0
  0
LINE
  5
1C6
330
12D
100
AcDbEntity
  8
DV2_Default
  6
Continuous
 62
     7
 48
25.4
100
AcDbLine
 10
425.6795915779
 20
268.2168886967
 30
0.0
 11
425.2794833795
 21
268.9100087065
 31
0.0
  0
LINE
  5
1C7
330
12D
100
AcDbEntity
  8
DV2_Default
  6
Continuous
 62
     7
 48
25.4
100
AcDbLine
 10
410.8813898283
 20
293.852278785
 30
0.0
 11
411.2811844273
 21
293.1597020333
 31
0.0
  0
LINE
  5
1C8
330
12D
100
AcDbEntity
  8
DV2_Default
  6
CENTER2
 62
     7
 48
25.4
100
AcDbLine
 10
388.0533462238
 20
253.4720010587
 30
0.0
 11
379.1973390729
 21
268.8135406445
 31
0.0
  0
LINE
  5
1C9
330
12D
100
AcDbEntity
  8
DV2_Default
  6
CENTER2
 62
     7
 48
25.4
100
AcDbLine
 10
405.2828786503
 20
263.6296011342
 30
0.0
 11
396.7569090329
 21
278.3994063255
 31
0.0
  0
LINE
  5
1CA
330
12D
100
AcDbEntity
  8
DV2_Default
  6
Continuous
 62
     7
 48
25.4
100
AcDbLine
 10
420.7657515388
 20
298.6347323386
 30
0.0
 11
421.2670570305
 21
298.9241143133
 31
0.0
  0
LINE
  5
1CB
330
12D
100
AcDbEntity
  8
DV2_Default
  6
Continuous
 62
     7
 48
25.4
100
AcDbLine
 10
434.7599900786
 20
274.3826951114
 30
0.0
 11
435.2653559828
 21
274.6744209865
 31
0.0
  0
LINE
  5
1CC
330
12D
100
AcDbEntity
  8
DV2_Default
  6
Continuous
 62
     7
 48
25.4
100
AcDbLine
 10
420.7657699894
 20
298.6349749956
 30
0.0
 11
421.2670783188
 21
298.9243520544
 31
0.0
  0
LINE
  5
1CD
330
12D
100
AcDbEntity
  8
DV2_Default
  6
Continuous
 62
     7
 48
25.4
100
AcDbLine
 10
434.75977071
 20
274.3828005403
 30
0.0
 11
435.2651394748
 21
274.6745214596
 31
0.0
  0
LINE
  5
1CE
330
12D
100
AcDbEntity
  8
DV2_Default
  6
Continuous
 62
     7
 48
25.4
100
AcDbLine
 10
383.6736522734
 20
256.2583213144
 30
0.0
 11
387.8307161516
 21
258.6580122801
 31
0.0
  0
LINE
  5
1CF
330
12D
100
AcDbEntity
  8
DV2_Default
  6
Continuous
 62
     7
 48
25.4
100
AcDbLine
 10
379.5174393955
 20
258.6587102836
 30
0.0
 11
379.518483773
 21
263.4586785885
 31
0.0
  0
LINE
  5
1D0
330
12D
100
AcDbEntity
  8
DV2_Default
  6
Continuous
 62
     7
 48
25.4
100
AcDbLine
 10
379.518483773
 20
263.4586785885
 30
0.0
 11
383.6759287499
 21
265.8577724308
 31
0.0
  0
LINE
  5
1D1
330
12D
100
AcDbEntity
  8
DV2_Default
  6
Continuous
 62
     7
 48
25.4
100
AcDbLine
 10
383.6759287499
 20
265.8577724308
 30
0.0
 11
387.8310528502
 21
263.457802608
 31
0.0
  0
LINE
  5
1D2
330
12D
100
AcDbEntity
  8
DV2_Default
  6
Continuous
 62
     7
 48
25.4
100
AcDbLine
 10
387.8307161516
 20
258.6580122801
 30
0.0
 11
387.8310528502
 21
263.457802608
 31
0.0
  0
LINE
  5
1D3
330
12D
100
AcDbEntity
  8
DV2_Default
  6
Continuous
 62
     7
 48
25.4
100
AcDbLine
 10
383.6736522734
 20
256.2583213144
 30
0.0
 11
379.5174393955
 21
258.6587102836
 31
0.0
  0
LINE
  5
1D4
330
12D
100
AcDbEntity
  8
DV2_Default
  6
Continuous
 62
     7
 48
25.4
100
AcDbLine
 10
405.1521061893
 20
268.6569036344
 30
0.0
 11
400.9950442013
 21
266.2572093941
 31
0.0
  0
LINE
  5
1D5
330
12D
100
AcDbEntity
  8
DV2_Default
  6
Continuous
 62
     7
 48
25.4
100
AcDbLine
 10
405.1520881697
 20
273.4564841046
 30
0.0
 11
400.9950081166
 21
275.8561470499
 31
0.0
  0
LINE
  5
1D6
330
12D
100
AcDbEntity
  8
DV2_Default
  6
Continuous
 62
     7
 48
25.4
100
AcDbLine
 10
400.9950081166
 20
275.8561470499
 30
0.0
 11
396.8382726152
 21
273.4558241611
 31
0.0
  0
LINE
  5
1D7
330
12D
100
AcDbEntity
  8
DV2_Default
  6
Continuous
 62
     7
 48
25.4
100
AcDbLine
 10
396.8382726152
 20
273.4558241611
 30
0.0
 11
396.8384721938
 21
268.6573961476
 31
0.0
  0
LINE
  5
1D8
330
12D
100
AcDbEntity
  8
DV2_Default
  6
Continuous
 62
     7
 48
25.4
100
AcDbLine
 10
400.9950442013
 20
266.2572093941
 30
0.0
 11
396.8384721938
 21
268.6573961476
 31
0.0
  0
LINE
  5
1D9
330
12D
100
AcDbEntity
  8
DV2_Default
  6
Continuous
 62
     7
 48
25.4
100
AcDbLine
 10
405.1521061893
 20
268.6569036344
 30
0.0
 11
405.1520881697
 21
273.4564841046
 31
0.0
  0
LINE
  5
1DA
330
12D
100
AcDbEntity
  8
DV2_Default
  6
Continuous
 62
     7
 48
25.4
100
AcDbLine
 10
467.5992895887
 20
266.911060896
 30
0.0
 11
513.3930605605
 21
240.4724269447
 31
0.0
  0
LINE
  5
1DB
330
12D
100
AcDbEntity
  8
DV2_Default
  6
Continuous
 62
     7
 48
25.4
100
AcDbLine
 10
465.3406642226
 20
268.2150585363
 30
0.0
 11
467.1343364373
 21
267.1794975395
 31
0.0
  0
LINE
  5
1DC
330
12D
100
AcDbEntity
  8
DV2_Default
  6
Continuous
 62
     7
 48
25.4
100
AcDbLine
 10
467.1343364373
 20
267.1794975395
 30
0.0
 11
467.5992895887
 21
266.911060896
 31
0.0
  0
CIRCLE
  5
1DD
330
12D
100
AcDbEntity
  8
DV2_Default
  6
Continuous
 62
     7
 48
25.4
100
AcDbCircle
 10
490.0247548985
 20
271.0530534723
 30
0.0
 40
7.6
  0
CIRCLE
  5
1DE
330
12D
100
AcDbEntity
  8
DV2_Default
  6
Continuous
 62
     7
 48
25.4
100
AcDbCircle
 10
507.3453304581
 20
261.0531703588
 30
0.0
 40
7.6
  0
LINE
  5
1DF
330
12D
100
AcDbEntity
  8
DV2_Default
  6
Continuous
 62
     7
 48
25.4
100
AcDbLine
 10
460.5548678161
 20
293.6097765355
 30
0.0
 11
455.7549239216
 21
285.2959002669
 31
0.0
  0
LINE
  5
1E0
330
12D
100
AcDbEntity
  8
DV2_Default
  6
Continuous
 62
     7
 48
25.4
100
AcDbLine
 10
470.2601793784
 20
298.6297031827
 30
0.0
 11
530.9730011748
 21
263.5776854615
 31
0.0
  0
LINE
  5
1E1
330
12D
100
AcDbEntity
  8
DV2_Default
  6
Continuous
 62
     7
 48
25.4
100
AcDbLine
 10
516.9731648159
 20
239.3288796781
 30
0.0
 11
456.2562827557
 21
274.3832415571
 31
0.0
  0
CIRCLE
  5
1E2
330
12D
100
AcDbEntity
  8
DV2_Default
  6
Continuous
 62
     7
 48
25.4
100
AcDbCircle
 10
490.0247548985
 20
271.0530534723
 30
0.0
 40
7.311999999999999
  0
CIRCLE
  5
1E3
330
12D
100
AcDbEntity
  8
DV2_Default
  6
Continuous
 62
     7
 48
25.4
100
AcDbCircle
 10
507.3453304581
 20
261.0531703588
 30
0.0
 40
7.311999999999999
  0
LINE
  5
1E4
330
12D
100
AcDbEntity
  8
DV2_Default
  6
Continuous
 62
     7
 48
25.4
100
AcDbLine
 10
531.1772324226
 20
273.2473401198
 30
0.0
 11
531.2629740047
 21
273.5673406984
 31
0.0
  0
LINE
  5
1E5
330
12D
100
AcDbEntity
  8
DV2_Default
  6
Continuous
 62
     7
 48
25.4
100
AcDbLine
 10
508.4633268674
 20
234.0765780074
 30
0.0
 11
508.6975815449
 21
234.3108358466
 31
0.0
  0
LINE
  5
1E6
330
12D
100
AcDbEntity
  8
DV2_Default
  6
Continuous
 62
     7
 48
25.4
100
AcDbLine
 10
513.577361247
 20
239.1906814109
 30
0.0
 11
513.8061312907
 21
239.4194545423
 31
0.0
  0
LINE
  5
1E7
330
12D
100
AcDbEntity
  8
DV2_Default
  6
Continuous
 62
     7
 48
25.4
100
AcDbLine
 10
513.8061312907
 20
239.4194545423
 30
0.0
 11
514.3198328139
 21
239.9331629989
 31
0.0
  0
LINE
  5
1E8
330
12D
100
AcDbEntity
  8
DV2_Default
  6
Continuous
 62
     7
 48
25.4
100
AcDbLine
 10
508.6975815449
 20
234.3108358466
 30
0.0
 11
513.577361247
 21
239.1906814109
 31
0.0
  0
LINE
  5
1E9
330
12D
100
AcDbEntity
  8
DV2_Default
  6
Continuous
 62
     7
 48
25.4
100
AcDbLine
 10
529.1193835734
 20
265.5671363431
 30
0.0
 11
529.3074079141
 21
266.2688716782
 31
0.0
  0
LINE
  5
1EA
330
12D
100
AcDbEntity
  8
DV2_Default
  6
Continuous
 62
     7
 48
25.4
100
AcDbLine
 10
529.3074079141
 20
266.2688716782
 30
0.0
 11
529.3911420179
 21
266.5813800436
 31
0.0
  0
LINE
  5
1EB
330
12D
100
AcDbEntity
  8
DV2_Default
  6
Continuous
 62
     7
 48
25.4
100
AcDbLine
 10
529.3911420179
 20
266.5813800436
 30
0.0
 11
531.1772324226
 21
273.2473401198
 31
0.0
  0
LINE
  5
1EC
330
12D
100
AcDbEntity
  8
DV2_Default
  6
Continuous
 62
     7
 48
25.4
100
AcDbLine
 10
514.7214899931
 20
240.6288644828
 30
0.0
 11
514.3198328139
 21
239.9331629989
 31
0.0
  0
LINE
  5
1ED
330
12D
100
AcDbEntity
  8
DV2_Default
  6
Continuous
 62
     7
 48
25.4
100
AcDbLine
 10
514.7214258884
 20
240.6289014931
 30
0.0
 11
514.3196305849
 21
239.9329607671
 31
0.0
  0
LINE
  5
1EE
330
12D
100
AcDbEntity
  8
DV2_Default
  6
Continuous
 62
     7
 48
25.4
100
AcDbLine
 10
514.3196305849
 20
239.9329607671
 30
0.0
 11
513.8000133181
 21
240.2329572606
 31
0.0
  0
LINE
  5
1EF
330
12D
100
AcDbEntity
  8
DV2_Default
  6
Continuous
 62
     7
 48
25.4
100
AcDbLine
 10
513.8000133181
 20
240.2329572606
 30
0.0
 11
513.390497025
 21
240.4693879179
 31
0.0
  0
LINE
  5
1F0
330
12D
100
AcDbEntity
  8
DV2_Default
  6
Continuous
 62
     7
 48
25.4
100
AcDbLine
 10
514.3198328139
 20
239.9331629989
 30
0.0
 11
514.3196305849
 21
239.9329607671
 31
0.0
  0
LINE
  5
1F1
330
12D
100
AcDbEntity
  8
DV2_Default
  6
Continuous
 62
     7
 48
25.4
100
AcDbLine
 10
529.1193835734
 20
265.5671363431
 30
0.0
 11
528.7213263521
 21
264.8776702663
 31
0.0
  0
LINE
  5
1F2
330
12D
100
AcDbEntity
  8
DV2_Default
  6
Continuous
 62
     7
 48
25.4
100
AcDbLine
 10
481.9341634453
 20
292.8139493677
 30
0.0
 11
480.1404912306
 21
293.8495103645
 31
0.0
  0
LINE
  5
1F3
330
12D
100
AcDbEntity
  8
DV2_Default
  6
Continuous
 62
     7
 48
25.4
100
AcDbLine
 10
481.9341634453
 20
292.8139493677
 30
0.0
 11
529.1193835734
 21
265.5671363431
 31
0.0
  0
LINE
  5
1F4
330
12D
100
AcDbEntity
  8
DV2_Default
  6
Continuous
 62
     7
 48
25.4
100
AcDbLine
 10
530.9730011748
 20
263.5776854615
 30
0.0
 11
516.9731648159
 21
239.3288796781
 31
0.0
  0
LINE
  5
1F5
330
12D
100
AcDbEntity
  8
DV2_Default
  6
Continuous
 62
     7
 48
25.4
100
AcDbLine
 10
531.2629740047
 20
273.5673406984
 30
0.0
 11
528.7233009564
 21
275.0335987649
 31
0.0
  0
LINE
  5
1F6
330
12D
100
AcDbEntity
  8
DV2_Default
  6
Continuous
 62
     7
 48
25.4
100
AcDbLine
 10
508.4633268674
 20
234.0765780074
 30
0.0
 11
505.9216324846
 21
235.5440030736
 31
0.0
  0
LINE
  5
1F7
330
12D
100
AcDbEntity
  8
DV2_Default
  6
Continuous
 62
     7
 48
25.4
100
AcDbLine
 10
460.5548678161
 20
293.6097765355
 30
0.0
 11
469.7548319708
 21
298.9214610975
 31
0.0
  0
LINE
  5
1F8
330
12D
100
AcDbEntity
  8
DV2_Default
  6
Continuous
 62
     7
 48
25.4
100
AcDbLine
 10
455.7549239216
 20
285.2959002669
 30
0.0
 11
455.7549956118
 21
274.672655314
 31
0.0
  0
LINE
  5
1F9
330
12D
100
AcDbEntity
  8
DV2_Default
  6
Continuous
 62
     7
 48
25.4
100
AcDbLine
 10
470.2601793784
 20
298.6297031827
 30
0.0
 11
469.7548319708
 21
298.9214610975
 31
0.0
  0
LINE
  5
1FA
330
12D
100
AcDbEntity
  8
DV2_Default
  6
Continuous
 62
     7
 48
25.4
100
AcDbLine
 10
456.2562827557
 20
274.3832415571
 30
0.0
 11
455.7549956118
 21
274.672655314
 31
0.0
  0
LINE
  5
1FB
330
12D
100
AcDbEntity
  8
DV2_Default
  6
Continuous
 62
     7
 48
25.4
100
AcDbLine
 10
480.1404912306
 20
293.8495103645
 30
0.0
 11
479.7403390892
 21
293.156415723
 31
0.0
  0
LINE
  5
1FC
330
12D
100
AcDbEntity
  8
DV2_Default
  6
Continuous
 62
     7
 48
25.4
100
AcDbLine
 10
465.3406642226
 20
268.2150585363
 30
0.0
 11
465.7405027302
 21
268.9076099396
 31
0.0
  0
LINE
  5
1FD
330
12D
100
AcDbEntity
  8
DV2_Default
  6
CENTER2
 62
     7
 48
25.4
100
AcDbLine
 10
511.7249998775
 20
268.6390985384
 30
0.0
 11
502.868020088
 21
253.2981204559
 31
0.0
  0
LINE
  5
1FE
330
12D
100
AcDbEntity
  8
DV2_Default
  6
CENTER2
 62
     7
 48
25.4
100
AcDbLine
 10
494.3127371565
 20
278.480172355
 30
0.0
 11
485.785831148
 21
263.7109077414
 31
0.0
  0
LINE
  5
1FF
330
12D
100
AcDbEntity
  8
DV2_Default
  6
Continuous
 62
     7
 48
25.4
100
AcDbLine
 10
456.2562827557
 20
274.3832415571
 30
0.0
 11
455.7549956118
 21
274.672655314
 31
0.0
  0
LINE
  5
200
330
12D
100
AcDbEntity
  8
DV2_Default
  6
Continuous
 62
     7
 48
25.4
100
AcDbLine
 10
470.2601793784
 20
298.6297031827
 30
0.0
 11
469.7548319708
 21
298.9214610975
 31
0.0
  0
LINE
  5
201
330
12D
100
AcDbEntity
  8
DV2_Default
  6
Continuous
 62
     7
 48
25.4
100
AcDbLine
 10
456.2560633914
 20
274.3831361905
 30
0.0
 11
455.7547790856
 21
274.6725548631
 31
0.0
  0
LINE
  5
202
330
12D
100
AcDbEntity
  8
DV2_Default
  6
Continuous
 62
     7
 48
25.4
100
AcDbLine
 10
470.2601977774
 20
298.6294604909
 30
0.0
 11
469.7548532308
 21
298.9212233611
 31
0.0
  0
LINE
  5
203
330
12D
100
AcDbEntity
  8
DV2_Default
  6
Continuous
 62
     7
 48
25.4
100
AcDbLine
 10
511.5022215235
 20
263.4529950423
 30
0.0
 11
507.3453116849
 21
265.8529528363
 31
0.0
  0
LINE
  5
204
330
12D
100
AcDbEntity
  8
DV2_Default
  6
Continuous
 62
     7
 48
25.4
100
AcDbLine
 10
511.5018992097
 20
258.653414583
 30
0.0
 11
507.3446670259
 21
256.2540152021
 31
0.0
  0
LINE
  5
205
330
12D
100
AcDbEntity
  8
DV2_Default
  6
Continuous
 62
     7
 48
25.4
100
AcDbLine
 10
507.3446670259
 20
256.2540152021
 30
0.0
 11
503.1880837137
 21
258.6546016239
 31
0.0
  0
LINE
  5
206
330
12D
100
AcDbEntity
  8
DV2_Default
  6
Continuous
 62
     7
 48
25.4
100
AcDbLine
 10
503.1880837137
 20
258.6546016239
 30
0.0
 11
503.1885875135
 21
263.453029615
 31
0.0
  0
LINE
  5
207
330
12D
100
AcDbEntity
  8
DV2_Default
  6
Continuous
 62
     7
 48
25.4
100
AcDbLine
 10
507.3453116849
 20
265.8529528363
 30
0.0
 11
503.1885875135
 21
263.453029615
 31
0.0
  0
LINE
  5
208
330
12D
100
AcDbEntity
  8
DV2_Default
  6
Continuous
 62
     7
 48
25.4
100
AcDbLine
 10
511.5022215235
 20
263.4529950423
 30
0.0
 11
511.5018992097
 21
258.653414583
 31
0.0
  0
LINE
  5
209
330
12D
100
AcDbEntity
  8
DV2_Default
  6
Continuous
 62
     7
 48
25.4
100
AcDbLine
 10
490.024553723
 20
275.8529390752
 30
0.0
 11
494.1814654521
 21
273.4529845557
 31
0.0
  0
LINE
  5
20A
330
12D
100
AcDbEntity
  8
DV2_Default
  6
Continuous
 62
     7
 48
25.4
100
AcDbLine
 10
485.8681886684
 20
273.4528136155
 30
0.0
 11
485.8689287271
 21
268.652845254
 31
0.0
  0
LINE
  5
20B
330
12D
100
AcDbEntity
  8
DV2_Default
  6
Continuous
 62
     7
 48
25.4
100
AcDbLine
 10
485.8689287271
 20
268.652845254
 30
0.0
 11
490.0262215926
 21
266.2534878337
 31
0.0
  0
LINE
  5
20C
330
12D
100
AcDbEntity
  8
DV2_Default
  6
Continuous
 62
     7
 48
25.4
100
AcDbLine
 10
490.0262215926
 20
266.2534878337
 30
0.0
 11
494.1814978432
 21
268.6531942161
 31
0.0
  0
LINE
  5
20D
330
12D
100
AcDbEntity
  8
DV2_Default
  6
Continuous
 62
     7
 48
25.4
100
AcDbLine
 10
494.1814654521
 20
273.4529845557
 30
0.0
 11
494.1814978432
 21
268.6531942161
 31
0.0
  0
LINE
  5
20E
330
12D
100
AcDbEntity
  8
DV2_Default
  6
Continuous
 62
     7
 48
25.4
100
AcDbLine
 10
490.024553723
 20
275.8529390752
 30
0.0
 11
485.8681886684
 21
273.4528136155
 31
0.0
  0
LINE
  5
20F
330
12D
100
AcDbEntity
  8
DV2_Default
  6
Continuous
 62
     7
 48
25.4
100
AcDbLine
 10
447.2435630679
 20
261.1494022391
 30
0.0
 11
447.242932061
 21
259.1494023386
 31
0.0
  0
LINE
  5
210
330
12D
100
AcDbEntity
  8
DV2_Default
  6
Continuous
 62
     7
 48
25.4
100
AcDbLine
 10
443.7794616252
 20
261.1504951752
 30
0.0
 11
445.51182785
 21
262.1499486573
 31
0.0
  0
LINE
  5
211
330
12D
100
AcDbEntity
  8
DV2_Default
  6
Continuous
 62
     7
 48
25.4
100
AcDbLine
 10
445.51182785
 20
262.1499486573
 30
0.0
 11
447.2435630679
 21
261.1494022391
 31
0.0
  0
ENDBLK
  5
213
330
12D
100
AcDbEntity
  8
0
100
AcDbBlockEnd
  0
BLOCK
  5
295
330
214
100
AcDbEntity
  8
0
100
AcDbBlockBegin
  2
SE2
 70
     0
 71
     0
 10
0.0
 20
0.0
 30
0.0
  3
SE2
  1

  0
LINE
  5
217
330
214
100
AcDbEntity
  8
DV3_Default
  6
Continuous
 62
     7
 48
25.4
100
AcDbLine
 10
210.1941818573
 20
140.3586330429
 30
0.0
 11
210.1941818573
 21
150.5086330429
 31
0.0
  0
LINE
  5
218
330
214
100
AcDbEntity
  8
DV3_Default
  6
Continuous
 62
     7
 48
25.4
100
AcDbLine
 10
212.2941818573
 20
152.6086330429
 30
0.0
 11
215.7941818573
 21
152.6086330429
 31
0.0
  0
LINE
  5
219
330
214
100
AcDbEntity
  8
DV3_Default
  6
Continuous
 62
     7
 48
25.4
100
AcDbLine
 10
210.1941818573
 20
140.3586330429
 30
0.0
 11
212.2941818573
 21
138.2586330429
 31
0.0
  0
LINE
  5
21A
330
214
100
AcDbEntity
  8
DV3_Default
  6
Continuous
 62
     7
 48
25.4
100
AcDbLine
 10
212.2941818573
 20
152.6086330429
 30
0.0
 11
210.1941818573
 21
150.5086330429
 31
0.0
  0
LINE
  5
21B
330
214
100
AcDbEntity
  8
DV3_Default
  6
Continuous
 62
     7
 48
25.4
100
AcDbLine
 10
216.1441818573
 20
140.2536330429
 30
0.0
 11
216.1441818573
 21
138.6086330429
 31
0.0
  0
ARC
  5
21C
330
214
100
AcDbEntity
  8
DV3_Default
  6
Continuous
 62
     7
 48
25.4
100
AcDbCircle
 10
216.4241818573
 20
140.2536330429
 30
0.0
 40
0.2800000000000008
100
AcDbArc
 50
90.0
 51
180.0
  0
LINE
  5
21D
330
214
100
AcDbEntity
  8
DV3_Default
  6
Continuous
 62
     7
 48
25.4
100
AcDbLine
 10
216.4241818573
 20
150.3336330429
 30
0.0
 11
224.4041818573
 21
150.3336330429
 31
0.0
  0
ARC
  5
21E
330
214
100
AcDbEntity
  8
DV3_Default
  6
Continuous
 62
     7
 48
25.4
100
AcDbCircle
 10
216.4241818573
 20
150.6136330429
 30
0.0
 40
0.2800000000000008
100
AcDbArc
 50
180.0
 51
270.0
  0
LINE
  5
21F
330
214
100
AcDbEntity
  8
DV3_Default
  6
Continuous
 62
     7
 48
25.4
100
AcDbLine
 10
216.1441818573
 20
152.2586330429
 30
0.0
 11
216.1441818573
 21
150.6136330429
 31
0.0
  0
LINE
  5
220
330
214
100
AcDbEntity
  8
DV3_Default
  6
Continuous
 62
     7
 48
25.4
100
AcDbLine
 10
215.7941818573
 20
138.2586330429
 30
0.0
 11
212.2941818573
 21
138.2586330429
 31
0.0
  0
LINE
  5
221
330
214
100
AcDbEntity
  8
DV3_Default
  6
Continuous
 62
     7
 48
25.4
100
AcDbLine
 10
215.7941818573
 20
138.2586330429
 30
0.0
 11
216.1441818573
 21
138.6086330429
 31
0.0
  0
LINE
  5
222
330
214
100
AcDbEntity
  8
DV3_Default
  6
Continuous
 62
     7
 48
25.4
100
AcDbLine
 10
216.1441818573
 20
152.2586330429
 30
0.0
 11
215.7941818573
 21
152.6086330429
 31
0.0
  0
LINE
  5
223
330
214
100
AcDbEntity
  8
DV3_Default
  6
Continuous
 62
     7
 48
25.4
100
AcDbLine
 10
224.4041818573
 20
140.5336330429
 30
0.0
 11
216.4241818573
 21
140.5336330429
 31
0.0
  0
LINE
  5
224
330
214
100
AcDbEntity
  8
DV3_Default
  6
Continuous
 62
     7
 48
25.4
100
AcDbLine
 10
224.4041818573
 20
140.5336330429
 30
0.0
 11
224.4041818573
 21
150.3336330429
 31
0.0
  0
LINE
  5
225
330
214
100
AcDbEntity
  8
DV3_Default
  6
Continuous
 62
     7
 48
25.4
100
AcDbLine
 10
216.1441818573
 20
152.2586330429
 30
0.0
 11
212.3259212969
 21
152.2586330429
 31
0.0
  0
LINE
  5
226
330
214
100
AcDbEntity
  8
DV3_Default
  6
Continuous
 62
     7
 48
25.4
100
AcDbLine
 10
212.3181249062
 20
152.2664294336
 30
0.0
 11
210.3944598057
 21
150.3427643331
 31
0.0
  0
LINE
  5
227
330
214
100
AcDbEntity
  8
DV3_Default
  6
Continuous
 62
     7
 48
25.4
100
AcDbLine
 10
216.1441818573
 20
138.6086330429
 30
0.0
 11
212.3259212969
 21
138.6086330429
 31
0.0
  0
LINE
  5
228
330
214
100
AcDbEntity
  8
DV3_Default
  6
Continuous
 62
     7
 48
25.4
100
AcDbLine
 10
210.3944598057
 20
140.5513276067
 30
0.0
 11
210.3944598057
 21
150.3427643331
 31
0.0
  0
LINE
  5
229
330
214
100
AcDbEntity
  8
DV3_Default
  6
Continuous
 62
     7
 48
25.4
100
AcDbLine
 10
210.3944598057
 20
140.5513276067
 30
0.0
 11
212.3259212969
 21
138.6086330429
 31
0.0
  0
LINE
  5
22A
330
214
100
AcDbEntity
  8
DV3_Default
  6
Continuous
 62
     7
 48
25.4
100
AcDbLine
 10
224.4041818573
 20
150.3336330429
 30
0.0
 11
222.3041818573
 21
150.3336330429
 31
0.0
  0
LINE
  5
22B
330
214
100
AcDbEntity
  8
DV3_Default
  6
CENTER2
 62
     7
 48
25.4
100
AcDbLine
 10
226.8541811649
 20
145.4317909854
 30
0.0
 11
205.6409021364
 21
145.4477404101
 31
0.0
  0
LINE
  5
22C
330
214
100
AcDbEntity
  8
DV3_Default
  6
Continuous
 62
     7
 48
25.4
100
AcDbLine
 10
222.3041818573
 20
150.3336330429
 30
0.0
 11
222.3041818573
 21
156.9786478344
 31
0.0
  0
LINE
  5
22D
330
214
100
AcDbEntity
  8
DV3_Default
  6
Continuous
 62
     7
 48
25.4
100
AcDbLine
 10
220.9041818573
 20
158.3786478344
 30
0.0
 11
212.4372107341
 21
158.3786478344
 31
0.0
  0
LINE
  5
22E
330
214
100
AcDbEntity
  8
DV3_Default
  6
Continuous
 62
     7
 48
25.4
100
AcDbLine
 10
222.3041818573
 20
140.5336330429
 30
0.0
 11
222.3041818573
 21
133.8786478344
 31
0.0
  0
LINE
  5
22F
330
214
100
AcDbEntity
  8
DV3_Default
  6
Continuous
 62
     7
 48
25.4
100
AcDbLine
 10
212.4372107341
 20
132.5010738792
 30
0.0
 11
220.9010071301
 21
132.5010738792
 31
0.0
  0
LINE
  5
230
330
214
100
AcDbEntity
  8
DV3_Default
  6
Continuous
 62
     7
 48
25.4
100
AcDbLine
 10
220.9041818573
 20
158.3786478344
 30
0.0
 11
222.3041818573
 21
156.9786478344
 31
0.0
  0
LINE
  5
231
330
214
100
AcDbEntity
  8
DV3_Default
  6
Continuous
 62
     7
 48
25.4
100
AcDbLine
 10
220.9010071301
 20
132.4818370258
 30
0.0
 11
222.3041818573
 21
133.8786478344
 31
0.0
  0
LINE
  5
232
330
214
100
AcDbEntity
  8
DV3_Default
  6
Continuous
 62
     7
 48
25.4
100
AcDbLine
 10
220.9041818573
 20
158.3786478344
 30
0.0
 11
220.9041818573
 21
166.7786478344
 31
0.0
  0
TEXT
  5
233
330
214
100
AcDbEntity
  8
DV3_Default
  6
Continuous
 62
     7
 48
25.4
100
AcDbText
 10
19.3097840117
 20
145.4533630054
 30
0.0
 40
3.5
  1
SPINDLE NOSE SIZE
  7
SEACAD_arial_ttf
 11
19.3097840117
 21
148.9533630054
 31
0.0
100
AcDbText
 73
     3
  0
TEXT
  5
234
330
214
100
AcDbEntity
  8
DV3_Default
  6
Continuous
 62
     7
 48
25.4
100
AcDbText
 10
124.9949743257
 20
145.4533630054
 30
0.0
 40
3.5
  1
A2-6
  7
SEACAD_arial_ttf
 11
124.9949743257
 21
148.9533630054
 31
0.0
100
AcDbText
 73
     3
  0
TEXT
  5
235
330
214
100
AcDbEntity
  8
DV3_Default
  6
Continuous
 62
     7
 48
25.4
100
AcDbText
 10
19.3799305636
 20
69.9254122902
 30
0.0
 40
3.5
  1
TOTAL GRIPPING FORCE AT MAX. SPEED
  7
SEACAD_arial_ttf
 11
19.3799305636
 21
73.4254122902
 31
0.0
100
AcDbText
 73
     3
  0
TEXT
  5
236
330
214
100
AcDbEntity
  8
DV3_Default
  6
Continuous
 62
     7
 48
25.4
100
AcDbText
 10
124.7629506519
 20
19.737506556
 30
0.0
 40
3.5
  1
SB08B1
  7
SEACAD_arial_ttf
 11
124.7629506519
 21
23.237506556
 31
0.0
100
AcDbText
 73
     3
  0
LINE
  5
237
330
214
100
AcDbEntity
  8
DV3_Default
  6
Continuous
 62
     7
 48
25.4
100
AcDbLine
 10
17.4545679394
 20
25.4110476619
 30
0.0
 11
185.4545679394
 21
25.4110476619
 31
0.0
  0
LINE
  5
238
330
214
100
AcDbEntity
  8
DV3_Default
  6
Continuous
 62
     7
 48
25.4
100
AcDbLine
 10
185.4545679394
 20
151.4110476619
 30
0.0
 11
17.4545679394
 21
151.4110476619
 31
0.0
  0
LINE
  5
239
330
214
100
AcDbEntity
  8
DV3_Default
  6
Continuous
 62
     7
 48
25.4
100
AcDbLine
 10
17.4545679394
 20
143.0110476619
 30
0.0
 11
185.4545679394
 21
143.0110476619
 31
0.0
  0
LINE
  5
23A
330
214
100
AcDbEntity
  8
DV3_Default
  6
Continuous
 62
     7
 48
25.4
100
AcDbLine
 10
185.4545679394
 20
134.6110476619
 30
0.0
 11
17.4545679394
 21
134.6110476619
 31
0.0
  0
LINE
  5
23B
330
214
100
AcDbEntity
  8
DV3_Default
  6
Continuous
 62
     7
 48
25.4
100
AcDbLine
 10
17.4545679394
 20
126.2110476619
 30
0.0
 11
185.4545679394
 21
126.2110476619
 31
0.0
  0
LINE
  5
23C
330
214
100
AcDbEntity
  8
DV3_Default
  6
Continuous
 62
     7
 48
25.4
100
AcDbLine
 10
185.4545679394
 20
117.8110476619
 30
0.0
 11
17.4545679394
 21
117.8110476619
 31
0.0
  0
LINE
  5
23D
330
214
100
AcDbEntity
  8
DV3_Default
  6
Continuous
 62
     7
 48
25.4
100
AcDbLine
 10
17.4545679394
 20
109.4110476619
 30
0.0
 11
185.4545679394
 21
109.4110476619
 31
0.0
  0
LINE
  5
23E
330
214
100
AcDbEntity
  8
DV3_Default
  6
Continuous
 62
     7
 48
25.4
100
AcDbLine
 10
185.4545679394
 20
101.0110476619
 30
0.0
 11
17.4545679394
 21
101.0110476619
 31
0.0
  0
LINE
  5
23F
330
214
100
AcDbEntity
  8
DV3_Default
  6
Continuous
 62
     7
 48
25.4
100
AcDbLine
 10
17.4545679394
 20
92.6110476619
 30
0.0
 11
185.4545679394
 21
92.6110476619
 31
0.0
  0
LINE
  5
240
330
214
100
AcDbEntity
  8
DV3_Default
  6
Continuous
 62
     7
 48
25.4
100
AcDbLine
 10
185.4545679394
 20
84.2110476619
 30
0.0
 11
17.4545679394
 21
84.2110476619
 31
0.0
  0
LINE
  5
241
330
214
100
AcDbEntity
  8
DV3_Default
  6
Continuous
 62
     7
 48
25.4
100
AcDbLine
 10
17.4545679394
 20
75.8110476619
 30
0.0
 11
185.4545679394
 21
75.8110476619
 31
0.0
  0
LINE
  5
242
330
214
100
AcDbEntity
  8
DV3_Default
  6
Continuous
 62
     7
 48
25.4
100
AcDbLine
 10
185.4545679394
 20
67.4110476619
 30
0.0
 11
17.4545679394
 21
67.4110476619
 31
0.0
  0
LINE
  5
243
330
214
100
AcDbEntity
  8
DV3_Default
  6
Continuous
 62
     7
 48
25.4
100
AcDbLine
 10
17.4545679394
 20
59.0110476619
 30
0.0
 11
185.4545679394
 21
59.0110476619
 31
0.0
  0
LINE
  5
244
330
214
100
AcDbEntity
  8
DV3_Default
  6
Continuous
 62
     7
 48
25.4
100
AcDbLine
 10
185.4545679394
 20
50.6110476619
 30
0.0
 11
17.4545679394
 21
50.6110476619
 31
0.0
  0
LINE
  5
245
330
214
100
AcDbEntity
  8
DV3_Default
  6
Continuous
 62
     7
 48
25.4
100
AcDbLine
 10
17.4545679394
 20
42.2110476619
 30
0.0
 11
185.4545679394
 21
42.2110476619
 31
0.0
  0
LINE
  5
246
330
214
100
AcDbEntity
  8
DV3_Default
  6
Continuous
 62
     7
 48
25.4
100
AcDbLine
 10
185.4545679394
 20
33.8110476619
 30
0.0
 11
17.4545679394
 21
33.8110476619
 31
0.0
  0
TEXT
  5
247
330
214
100
AcDbEntity
  8
DV3_Default
  6
Continuous
 62
     7
 48
25.4
100
AcDbText
 10
73.203196215
 20
165.1250692086
 30
0.0
 40
4.2
  1
Specifications
  7
SEACAD_arial_ttf
 11
73.203196215
 21
169.3250692086
 31
0.0
100
AcDbText
 73
     3
  0
TEXT
  5
248
330
214
100
AcDbEntity
  8
DV3_Default
  6
Continuous
 62
     7
 48
25.4
100
AcDbText
 10
19.439799634
 20
137.2430105204
 30
0.0
 40
3.5
  1
THROUGH HOLE
  7
SEACAD_arial_ttf
 11
19.439799634
 21
140.7430105204
 31
0.0
100
AcDbText
 73
     3
  0
TEXT
  5
249
330
214
100
AcDbEntity
  8
DV3_Default
  6
Continuous
 62
     7
 48
25.4
100
AcDbText
 10
124.7516529465
 20
137.0719106961
 30
0.0
 40
3.5
  1
45mm
  7
SEACAD_arial_ttf
 11
124.7516529465
 21
140.5719106961
 31
0.0
100
AcDbText
 73
     3
  0
TEXT
  5
24A
330
214
100
AcDbEntity
  8
DV3_Default
  6
Continuous
 62
     7
 48
25.4
100
AcDbText
 10
19.2567522188
 20
128.6196071853
 30
0.0
 40
3.5
  1
MAX. GRIPPING RANGE
  7
SEACAD_arial_ttf
 11
19.2567522188
 21
132.1196071853
 31
0.0
100
AcDbText
 73
     3
  0
TEXT
  5
24B
330
214
100
AcDbEntity
  8
DV3_Default
  6
Continuous
 62
     7
 48
25.4
100
AcDbText
 10
19.2567522188
 20
120.1980603775
 30
0.0
 40
3.5
  1
MIN. GRIPPING RANGE
  7
SEACAD_arial_ttf
 11
19.2567522188
 21
123.6980603775
 31
0.0
100
AcDbText
 73
     3
  0
TEXT
  5
24C
330
214
100
AcDbEntity
  8
DV3_Default
  6
Continuous
 62
     7
 48
25.4
100
AcDbText
 10
19.3331159122
 20
111.7995354022
 30
0.0
 40
3.5
  1
JAW STROKE
  7
SEACAD_arial_ttf
 11
19.3331159122
 21
115.2995354022
 31
0.0
100
AcDbText
 73
     3
  0
TEXT
  5
24D
330
214
100
AcDbEntity
  8
DV3_Default
  6
Continuous
 62
     7
 48
25.4
100
AcDbText
 10
19.0852157198
 20
103.4616504836
 30
0.0
 40
3.5
  1
PLUNGER STROKE
  7
SEACAD_arial_ttf
 11
19.0852157198
 21
106.9616504836
 31
0.0
100
AcDbText
 73
     3
  0
TEXT
  5
24E
330
214
100
AcDbEntity
  8
DV3_Default
  6
Continuous
 62
     7
 48
25.4
100
AcDbText
 10
19.2452413025
 20
94.9219090377
 30
0.0
 40
3.5
  1
MAX. DRAW BAR PULL FORCE
  7
SEACAD_arial_ttf
 11
19.2452413025
 21
98.4219090377
 31
0.0
100
AcDbText
 73
     3
  0
TEXT
  5
24F
330
214
100
AcDbEntity
  8
DV3_Default
  6
Continuous
 62
     7
 48
25.4
100
AcDbText
 10
19.2034103579
 20
86.9689280615
 30
0.0
 40
3.5
  1
MAX. GRIPPING FORCE
  7
SEACAD_arial_ttf
 11
19.2034103579
 21
90.4689280615
 31
0.0
100
AcDbText
 73
     3
  0
TEXT
  5
250
330
214
100
AcDbEntity
  8
DV3_Default
  6
Continuous
 62
     7
 48
25.4
100
AcDbText
 10
19.2567522188
 20
78.387355671
 30
0.0
 40
3.5
  1
MAX. SPEED
  7
SEACAD_arial_ttf
 11
19.2567522188
 21
81.887355671
 31
0.0
100
AcDbText
 73
     3
  0
TEXT
  5
251
330
214
100
AcDbEntity
  8
DV3_Default
  6
Continuous
 62
     7
 48
25.4
100
AcDbText
 10
19.1197484687
 20
61.3308946118
 30
0.0
 40
3.5
  1
NET WEIGHT WITH SOFT TOP JAWS
  7
SEACAD_arial_ttf
 11
19.1197484687
 21
64.8308946118
 31
0.0
100
AcDbText
 73
     3
  0
TEXT
  5
252
330
214
100
AcDbEntity
  8
DV3_Default
  6
Continuous
 62
     7
 48
25.4
100
AcDbText
 10
19.2264321905
 20
52.6541494158
 30
0.0
 40
3.5
  1
MOMENT OF INERTIA
  7
SEACAD_arial_ttf
 11
19.2264321905
 21
56.1541494158
 31
0.0
100
AcDbText
 73
     3
  0
TEXT
  5
253
330
214
100
AcDbEntity
  8
DV3_Default
  6
Continuous
 62
     7
 48
25.4
100
AcDbText
 10
19.1846012459
 20
44.6896575233
 30
0.0
 40
3.5
  1
MATCHING CYLINDER
  7
SEACAD_arial_ttf
 11
19.1846012459
 21
48.1896575233
 31
0.0
100
AcDbText
 73
     3
  0
TEXT
  5
254
330
214
100
AcDbEntity
  8
DV3_Default
  6
Continuous
 62
     7
 48
25.4
100
AcDbText
 10
19.1846012459
 20
36.2377906872
 30
0.0
 40
3.5
  1
MAX. PRESSURE
  7
SEACAD_arial_ttf
 11
19.1846012459
 21
39.7377906872
 31
0.0
100
AcDbText
 73
     3
  0
TEXT
  5
255
330
214
100
AcDbEntity
  8
DV3_Default
  6
Continuous
 62
     7
 48
25.4
100
AcDbText
 10
19.1961121621
 20
27.9532476294
 30
0.0
 40
3.5
  1
MATCHING HARD TOP JAW
  7
SEACAD_arial_ttf
 11
19.1961121621
 21
31.4532476294
 31
0.0
100
AcDbText
 73
     3
  0
TEXT
  5
256
330
214
100
AcDbEntity
  8
DV3_Default
  6
Continuous
 62
     7
 48
25.4
100
AcDbText
 10
19.249454023
 20
19.7335573488
 30
0.0
 40
3.5
  1
MATCHING SOFT TOP JAW
  7
SEACAD_arial_ttf
 11
19.249454023
 21
23.2335573488
 31
0.0
100
AcDbText
 73
     3
  0
LINE
  5
257
330
214
100
AcDbEntity
  8
DV3_Default
  6
Continuous
 62
     7
 48
25.4
100
AcDbLine
 10
17.4545679394
 20
17.0110476619
 30
0.0
 11
185.4545679394
 21
17.0110476619
 31
0.0
  0
LINE
  5
258
330
214
100
AcDbEntity
  8
DV3_Default
  6
Continuous
 62
     7
 48
25.4
100
AcDbLine
 10
122.3265809895
 20
151.4110476619
 30
0.0
 11
122.3265809895
 21
17.0110476619
 31
0.0
  0
LINE
  5
259
330
214
100
AcDbEntity
  8
DV3_Default
  6
Continuous
 62
     7
 48
25.4
100
AcDbLine
 10
17.4545679394
 20
151.4110476619
 30
0.0
 11
17.4545679394
 21
17.0110476619
 31
0.0
  0
LINE
  5
25A
330
214
100
AcDbEntity
  8
DV3_Default
  6
Continuous
 62
     7
 48
25.4
100
AcDbLine
 10
185.4545679394
 20
151.4110476619
 30
0.0
 11
185.4545679394
 21
17.0110476619
 31
0.0
  0
TEXT
  5
25B
330
214
100
AcDbEntity
  8
DV3_Default
  6
Continuous
 62
     7
 48
25.4
100
AcDbText
 10
124.7784894211
 20
128.7671287033
 30
0.0
 40
3.5
  1
215mm
  7
SEACAD_arial_ttf
 11
124.7784894211
 21
132.2671287033
 31
0.0
100
AcDbText
 73
     3
  0
TEXT
  5
25C
330
214
100
AcDbEntity
  8
DV3_Default
  6
Continuous
 62
     7
 48
25.4
100
AcDbText
 10
124.491416922
 20
120.0067580864
 30
0.0
 40
3.5
  1
32mm
  7
SEACAD_arial_ttf
 11
124.491416922
 21
123.5067580864
 31
0.0
100
AcDbText
 73
     3
  0
TEXT
  5
25D
330
214
100
AcDbEntity
  8
DV3_Default
  6
Continuous
 62
     7
 48
25.4
100
AcDbText
 10
124.7920741561
 20
111.8024063772
 30
0.0
 40
3.5
  1
25mm
  7
SEACAD_arial_ttf
 11
124.7920741561
 21
115.3024063772
 31
0.0
100
AcDbText
 73
     3
  0
TEXT
  5
25E
330
214
100
AcDbEntity
  8
DV3_Default
  6
Continuous
 62
     7
 48
25.4
100
AcDbText
 10
124.4432829708
 20
103.3194803603
 30
0.0
 40
3.5
  1
19mm
  7
SEACAD_arial_ttf
 11
124.4432829708
 21
106.8194803603
 31
0.0
100
AcDbText
 73
     3
  0
TEXT
  5
25F
330
214
100
AcDbEntity
  8
DV3_Default
  6
Continuous
 62
     7
 48
25.4
100
AcDbText
 10
124.7490380109
 20
94.8365543435
 30
0.0
 40
3.5
  1
41.1kN
  7
SEACAD_arial_ttf
 11
124.7490380109
 21
98.3365543435
 31
0.0
100
AcDbText
 73
     3
  0
TEXT
  5
260
330
214
100
AcDbEntity
  8
DV3_Default
  6
Continuous
 62
     7
 48
25.4
100
AcDbText
 10
124.7711209373
 20
86.4447871604
 30
0.0
 40
3.5
  1
49.0kN
  7
SEACAD_arial_ttf
 11
124.7711209373
 21
89.9447871604
 31
0.0
100
AcDbText
 73
     3
  0
TEXT
  5
261
330
214
100
AcDbEntity
  8
DV3_Default
  6
Continuous
 62
     7
 48
25.4
100
AcDbText
 10
124.7723841243
 20
78.1281041443
 30
0.0
 40
3.5
  1
3300min-
  7
SEACAD_arial_ttf
 11
124.7723841243
 21
81.6281041443
 31
0.0
100
AcDbText
 73
     3
  0
TEXT
  5
262
330
214
100
AcDbEntity
  8
DV3_Default
  6
Continuous
 62
     7
 48
25.4
100
AcDbText
 10
145.3158623852
 20
78.1281041443
 30
0.0
 40
3.2102777778
  1
¹
  7
SEACAD_arial_ttf
 11
145.3158623852
 21
81.3383819221
 31
0.0
100
AcDbText
 73
     3
  0
TEXT
  5
263
330
214
100
AcDbEntity
  8
DV3_Default
  6
Continuous
 62
     7
 48
25.4
100
AcDbText
 10
124.834568477
 20
69.9951965925
 30
0.0
 40
3.5
  1
16.3kN
  7
SEACAD_arial_ttf
 11
124.834568477
 21
73.4951965925
 31
0.0
100
AcDbText
 73
     3
  0
TEXT
  5
264
330
214
100
AcDbEntity
  8
DV3_Default
  6
Continuous
 62
     7
 48
25.4
100
AcDbText
 10
124.7869980344
 20
61.4433996516
 30
0.0
 40
3.5
  1
26kg
  7
SEACAD_arial_ttf
 11
124.7869980344
 21
64.9433996516
 31
0.0
100
AcDbText
 73
     3
  0
TEXT
  5
265
330
214
100
AcDbEntity
  8
DV3_Default
  6
Continuous
 62
     7
 48
25.4
100
AcDbText
 10
124.7655521953
 20
53.0380486245
 30
0.0
 40
3.5
  1
0.208kg.m
  7
SEACAD_arial_ttf
 11
124.7655521953
 21
56.5380486245
 31
0.0
100
AcDbText
 73
     3
  0
TEXT
  5
266
330
214
100
AcDbEntity
  8
DV3_Default
  6
Continuous
 62
     7
 48
25.4
100
AcDbText
 10
147.8959869779
 20
53.0380486245
 30
0.0
 40
3.2102777778
  1
²
  7
SEACAD_arial_ttf
 11
147.8959869779
 21
56.2483264022
 31
0.0
100
AcDbText
 73
     3
  0
TEXT
  5
267
330
214
100
AcDbEntity
  8
DV3_Default
  6
Continuous
 62
     7
 48
25.4
100
AcDbText
 10
124.7524600807
 20
44.9601273785
 30
0.0
 40
3.5
  1
S1552
  7
SEACAD_arial_ttf
 11
124.7524600807
 21
48.4601273785
 31
0.0
100
AcDbText
 73
     3
  0
TEXT
  5
268
330
214
100
AcDbEntity
  8
DV3_Default
  6
Continuous
 62
     7
 48
25.4
100
AcDbText
 10
124.7262162257
 20
35.9987326344
 30
0.0
 40
3.5
  1
2.99MPa
  7
SEACAD_arial_ttf
 11
124.7262162257
 21
39.4987326344
 31
0.0
100
AcDbText
 73
     3
  0
TEXT
  5
269
330
214
100
AcDbEntity
  8
DV3_Default
  6
Continuous
 62
     7
 48
25.4
100
AcDbText
 10
124.6570806925
 20
27.9124576639
 30
0.0
 40
3.5
  1
HB08A1
  7
SEACAD_arial_ttf
 11
124.6570806925
 21
31.4124576639
 31
0.0
100
AcDbText
 73
     3
  0
LINE
  5
26A
330
214
100
AcDbEntity
  8
DV3_Default
  6
Continuous
 62
     7
 48
25.4
100
AcDbLine
 10
220.9010071301
 20
132.4818370258
 30
0.0
 11
220.9010071301
 21
124.0818370258
 31
0.0
  0
LINE
  5
26B
330
214
100
AcDbEntity
  8
DV3_Default
  6
Continuous
 62
     7
 48
25.4
100
AcDbLine
 10
409.7626467104
 20
143.7845490664
 30
0.0
 11
269.7626467104
 21
143.7845490664
 31
0.0
  0
LINE
  5
26C
330
214
100
AcDbEntity
  8
DV3_Default
  6
Continuous
 62
     7
 48
25.4
100
AcDbLine
 10
409.7626467104
 20
143.7845490664
 30
0.0
 11
409.7626467104
 21
36.6845490664
 31
0.0
  0
LINE
  5
26D
330
214
100
AcDbEntity
  8
DV3_Default
  6
Continuous
 62
     7
 48
25.4
100
AcDbLine
 10
409.7626467104
 20
36.6845490664
 30
0.0
 11
269.7626467104
 21
36.6845490664
 31
0.0
  0
LINE
  5
26E
330
214
100
AcDbEntity
  8
DV3_Default
  6
Continuous
 62
     7
 48
25.4
100
AcDbLine
 10
269.7626467104
 20
36.6845490664
 30
0.0
 11
269.7626467104
 21
143.7845490664
 31
0.0
  0
TEXT
  5
26F
330
214
100
AcDbEntity
  8
DV3_Default
  6
Continuous
 62
     7
 48
25.4
100
AcDbText
 10
268.1226222433
 20
30.9290877705
 30
0.0
 40
3.5
  1
0
  7
SEACAD_arial_ttf
 11
268.1226222433
 21
34.4290877705
 31
0.0
100
AcDbText
 73
     3
  0
TEXT
  5
270
330
214
100
AcDbEntity
  8
DV3_Default
  6
Continuous
 62
     7
 48
25.4
100
AcDbText
 10
298.9236745578
 20
31.1546137775
 30
0.0
 40
3.5
  1
1000
  7
SEACAD_arial_ttf
 11
298.9236745578
 21
34.6546137775
 31
0.0
100
AcDbText
 73
     3
  0
TEXT
  5
271
330
214
100
AcDbEntity
  8
DV3_Default
  6
Continuous
 62
     7
 48
25.4
100
AcDbText
 10
334.1613737649
 20
31.1803988887
 30
0.0
 40
3.5
  1
2000
  7
SEACAD_arial_ttf
 11
334.1613737649
 21
34.6803988887
 31
0.0
100
AcDbText
 73
     3
  0
TEXT
  5
272
330
214
100
AcDbEntity
  8
DV3_Default
  6
Continuous
 62
     7
 48
25.4
100
AcDbText
 10
369.5077899599
 20
30.9803349267
 30
0.0
 40
3.5
  1
3000
  7
SEACAD_arial_ttf
 11
369.5077899599
 21
34.4803349267
 31
0.0
100
AcDbText
 73
     3
  0
TEXT
  5
273
330
214
100
AcDbEntity
  8
DV3_Default
  6
Continuous
 62
     7
 48
25.4
100
AcDbText
 10
404.862299507
 20
31.2014157685
 30
0.0
 40
3.5
  1
4000
  7
SEACAD_arial_ttf
 11
404.862299507
 21
34.7014157685
 31
0.0
100
AcDbText
 73
     3
  0
TEXT
  5
274
330
214
100
AcDbEntity
  8
DV3_Default
  6
Continuous
 62
     7
 48
25.4
100
AcDbText
 10
262.7631095674
 20
56.5005586906
 30
0.0
 40
3.5
  1
10
  7
SEACAD_arial_ttf
 11
262.7631095674
 21
60.0005586906
 31
0.0
100
AcDbText
 73
     3
  0
TEXT
  5
275
330
214
100
AcDbEntity
  8
DV3_Default
  6
Continuous
 62
     7
 48
25.4
100
AcDbText
 10
262.6522692322
 20
77.7570335668
 30
0.0
 40
3.5
  1
20
  7
SEACAD_arial_ttf
 11
262.6522692322
 21
81.2570335668
 31
0.0
100
AcDbText
 73
     3
  0
TEXT
  5
276
330
214
100
AcDbEntity
  8
DV3_Default
  6
Continuous
 62
     7
 48
25.4
100
AcDbText
 10
262.5720814945
 20
99.3359885426
 30
0.0
 40
3.5
  1
30
  7
SEACAD_arial_ttf
 11
262.5720814945
 21
102.8359885426
 31
0.0
100
AcDbText
 73
     3
  0
TEXT
  5
277
330
214
100
AcDbEntity
  8
DV3_Default
  6
Continuous
 62
     7
 48
25.4
100
AcDbText
 10
262.7133877976
 20
142.1173621152
 30
0.0
 40
3.5
  1
50
  7
SEACAD_arial_ttf
 11
262.7133877976
 21
145.6173621152
 31
0.0
100
AcDbText
 73
     3
  0
TEXT
  5
278
330
214
100
AcDbEntity
  8
DV3_Default
  6
Continuous
 62
     7
 48
25.4
100
AcDbText
 10
262.6516366175
 20
120.525527193
 30
0.0
 40
3.5
  1
40
  7
SEACAD_arial_ttf
 11
262.6516366175
 21
124.025527193
 31
0.0
100
AcDbText
 73
     3
  0
TEXT
  5
279
330
214
100
AcDbEntity
  8
DV3_Default
  6
Continuous
 62
     7
 48
25.4
100
AcDbText
 10
306.99220382
 20
138.3494272795
 30
0.0
 40
4.2
  1
Input Force
  7
SEACAD_arial_ttf
 11
306.99220382
 21
142.5494272795
 31
0.0
100
AcDbText
 73
     3
  0
TEXT
  5
27A
330
214
100
AcDbEntity
  8
DV3_Default
  6
Continuous
 62
     7
 48
25.4
100
AcDbText
 10
312.2502741645
 20
116.2096373689
 30
0.0
 40
3.5
  1
35kN
  7
SEACAD_arial_ttf
 11
312.2502741645
 21
119.7096373689
 31
0.0
100
AcDbText
 73
     3
  0
TEXT
  5
27B
330
214
100
AcDbEntity
  8
DV3_Default
  6
Continuous
 62
     7
 48
25.4
100
AcDbText
 10
312.0025764026
 20
91.2523038889
 30
0.0
 40
3.5
  1
25kN
  7
SEACAD_arial_ttf
 11
312.0025764026
 21
94.7523038889
 31
0.0
100
AcDbText
 73
     3
  0
TEXT
  5
27C
330
214
100
AcDbEntity
  8
DV3_Default
  6
Continuous
 62
     7
 48
25.4
100
AcDbText
 10
311.4219384375
 20
67.1358131081
 30
0.0
 40
3.5
  1
15kN
  7
SEACAD_arial_ttf
 11
311.4219384375
 21
70.6358131081
 31
0.0
100
AcDbText
 73
     3
  0
TEXT
  5
27D
330
214
100
AcDbEntity
  8
DV3_Default
  6
Continuous
 62
     7
 48
25.4
100
AcDbText
 10
327.2783417879
 20
17.738196888
 30
0.0
 40
4.2
  1
Speed in min
  7
SEACAD_arial_ttf
 11
327.2783417879
 21
21.938196888
 31
0.0
100
AcDbText
 73
     3
  0
TEXT
  5
27E
330
214
100
AcDbEntity
  8
DV3_Default
  6
Continuous
 62
     7
 48
25.4
100
AcDbText
 10
361.7913852661
 20
17.738196888
 30
0.0
 40
3.5
  1
-
  7
SEACAD_arial_ttf
 11
361.7913852661
 21
21.238196888
 31
0.0
100
AcDbText
 73
     3
  0
TEXT
  5
27F
330
214
100
AcDbEntity
  8
DV3_Default
  6
Continuous
 62
     7
 48
25.4
100
AcDbText
 10
363.3892113531
 20
17.738196888
 30
0.0
 40
3.2102777778
  1
¹
  7
SEACAD_arial_ttf
 11
363.3892113531
 21
20.9484746658
 31
0.0
100
AcDbText
 73
     3
  0
TEXT
  5
280
330
214
100
AcDbEntity
  8
DV3_Default
  6
Continuous
 62
     7
 48
25.4
100
AcDbText
 10
222.5937571555
 20
91.5528976578
 30
0.0
 40
4.2
  1
Total Gripping 
  7
SEACAD_arial_ttf
 11
222.5937571555
 21
95.7528976578
 31
0.0
100
AcDbText
 73
     3
  0
TEXT
  5
281
330
214
100
AcDbEntity
  8
DV3_Default
  6
Continuous
 62
     7
 48
25.4
100
AcDbText
 10
222.5937571555
 20
84.9789846143
 30
0.0
 40
4.2
  1
Force in kN
  7
SEACAD_arial_ttf
 11
222.5937571555
 21
89.1789846143
 31
0.0
100
AcDbText
 73
     3
  0
TEXT
  5
282
330
214
100
AcDbEntity
  8
DV3_Default
  6
Continuous
 62
     7
 48
25.4
100
AcDbText
 10
283.3434664433
 20
163.970798389
 30
0.0
 40
4.2
  1
Gripping Characteristic Graph For BL-208A6
  7
SEACAD_arial_ttf
 11
283.3434664433
 21
168.170798389
 31
0.0
100
AcDbText
 73
     3
  0
LWPOLYLINE
  5
283
330
214
100
AcDbEntity
  8
DV3_Default
  6
Continuous
 62
     7
 48
25.4
100
AcDbPolyline
 90
        2
 70
     0
 43
0.0
 10
416.2777926345
 20
40.7938182775
 10
367.061541285
 20
62.4356716635
  0
HATCH
  5
284
330
214
100
AcDbEntity
  8
DV3_Default
  6
Continuous
 62
     7
 48
25.4
100
AcDbHatch
 10
0.0
 20
0.0
 30
0.0
210
0.0
220
0.0
230
1.0
  2
SOLID
 70
     1
 71
     0
 91
        1
 92
        1
 93
        3
 72
     1
 10
371.188019256332
 20
61.38582411865976
 11
367.0615412850099
 21
62.43567166348589
 72
     1
 10
367.0615412850099
 20
62.43567166348589
 11
370.6244752973981
 21
60.10425545470803
 72
     1
 10
370.6244752973981
 20
60.10425545470803
 11
371.188019256332
 21
61.38582411865976
 97
        0
 75
     0
 76
     1
 98
        0
  0
LWPOLYLINE
  5
285
330
214
100
AcDbEntity
  8
DV3_Default
  6
Continuous
 62
     7
 48
25.4
370
     9
100
AcDbPolyline
 90
        4
 70
     1
 43
0.0
 10
371.1880192563
 20
61.3858241187
 10
367.061541285
 20
62.4356716635
 10
370.6244752974
 20
60.1042554547
 10
371.1880192563
 20
61.3858241187
  0
LINE
  5
286
330
214
100
AcDbEntity
  8
DV3_Default
  6
Continuous
 62
     7
 48
25.4
100
AcDbLine
 10
416.2777926345
 20
40.7938182775
 30
0.0
 11
469.2343143736
 21
40.7938182775
 31
0.0
  0
TEXT
  5
287
330
214
100
AcDbEntity
  8
DV3_Default
  6
Continuous
 62
     7
 48
25.4
100
AcDbText
 10
416.2777926345
 20
41.8438182775
 30
0.0
 40
4.2
  1
Gripping Force Limit
  7
SEACAD_arial_ttf
 11
416.2777926345
 21
46.0438182775
 31
0.0
100
AcDbText
 73
     3
  0
TEXT
  5
288
330
214
100
AcDbEntity
  8
DV3_Default
  6
Continuous
 62
     7
 48
25.4
100
AcDbText
 10
312.259148094
 20
131.5838661264
 30
0.0
 40
3.5
  1
41.1kN
  7
SEACAD_arial_ttf
 11
312.259148094
 21
135.0838661264
 31
0.0
100
AcDbText
 73
     3
  0
LINE
  5
289
330
214
100
AcDbEntity
  8
DV3_Default
  6
Continuous
 62
     7
 48
25.4
100
AcDbLine
 10
304.7626467104
 20
36.6845490664
 30
0.0
 11
304.7626467104
 21
143.7845490664
 31
0.0
  0
LINE
  5
28A
330
214
100
AcDbEntity
  8
DV3_Default
  6
Continuous
 62
     7
 48
25.4
100
AcDbLine
 10
339.779625342
 20
143.7845490664
 30
0.0
 11
339.7626467104
 21
36.6845490664
 31
0.0
  0
LINE
  5
28B
330
214
100
AcDbEntity
  8
DV3_Default
  6
Continuous
 62
     7
 48
25.4
100
AcDbLine
 10
374.7626467104
 20
36.6845490664
 30
0.0
 11
374.7626467104
 21
143.7845490664
 31
0.0
  0
LINE
  5
28C
330
214
100
AcDbEntity
  8
DV3_Default
  6
Continuous
 62
     7
 48
25.4
100
AcDbLine
 10
269.7626467104
 20
58.1045490664
 30
0.0
 11
409.7626467104
 21
58.1045490664
 31
0.0
  0
LINE
  5
28D
330
214
100
AcDbEntity
  8
DV3_Default
  6
Continuous
 62
     7
 48
25.4
100
AcDbLine
 10
409.7626467104
 20
79.5245490664
 30
0.0
 11
269.7626467104
 21
79.5245490664
 31
0.0
  0
LINE
  5
28E
330
214
100
AcDbEntity
  8
DV3_Default
  6
Continuous
 62
     7
 48
25.4
100
AcDbLine
 10
269.7626467104
 20
100.9445490664
 30
0.0
 11
409.7626467104
 21
100.9445490664
 31
0.0
  0
LINE
  5
28F
330
214
100
AcDbEntity
  8
DV3_Default
  6
Continuous
 62
     7
 48
25.4
100
AcDbLine
 10
409.7626467104
 20
122.3645490664
 30
0.0
 11
269.7626467104
 21
122.3645490664
 31
0.0
  0
ARC
  5
290
330
214
100
AcDbEntity
  8
DV3_Default
  6
Continuous
 62
     7
 48
25.4
100
AcDbCircle
 10
308.8405185823
 20
167.4833638885
 30
0.0
 40
120.1028939132425
100
AcDbArc
 50
284.9207705999
 51
308.6535916925
  0
ARC
  5
291
330
214
100
AcDbEntity
  8
DV3_Default
  6
Continuous
 62
     7
 48
25.4
100
AcDbCircle
 10
262.6515845313
 20
-54.9792759084
 30
0.0
 40
131.4131313455973
100
AcDbArc
 50
54.069652341
 51
86.898080534
  0
ARC
  5
292
330
214
100
AcDbEntity
  8
DV3_Default
  6
Continuous
 62
     7
 48
25.4
100
AcDbCircle
 10
257.1784912188
 20
-38.3245548534
 30
0.0
 40
139.8364912176602
100
AcDbArc
 50
43.5972427367
 51
84.8368572677
  0
ARC
  5
293
330
214
100
AcDbEntity
  8
DV3_Default
  6
Continuous
 62
     7
 48
25.4
100
AcDbCircle
 10
248.4194190949
 20
-41.7434411025
 30
0.0
 40
169.4209189257633
100
AcDbArc
 50
40.6340950984
 51
82.7627900381
  0
ARC
  5
294
330
214
100
AcDbEntity
  8
DV3_Default
  6
Continuous
 62
     7
 48
25.4
100
AcDbCircle
 10
259.7721471239
 20
-7.9667547768
 30
0.0
 40
148.5437044141031
100
AcDbArc
 50
33.3477734983
 51
86.1435869127
  0
ENDBLK
  5
296
330
214
100
AcDbEntity
  8
0
100
AcDbBlockEnd
  0
BLOCK
  5
2A1
330
297
100
AcDbEntity
  8
0
100
AcDbBlockBegin
  2
GDimGGroup
 70
     0
 71
     0
 10
0.0
 20
0.0
 30
0.0
  3
GDimGGroup
  1

  0
HATCH
  5
299
330
297
100
AcDbEntity
  8
Default
  6
Continuous
 62
     7
 48
25.4
100
AcDbHatch
 10
0.0
 20
0.0
 30
0.0
210
0.0
220
0.0
230
1.0
  2
SOLID
 70
     1
 71
     0
 91
        1
 92
        1
 93
        3
 72
     1
 10
435.5118424885939
 20
398.5743622769255
 11
431.5118422986041
 21
397.9076955785938
 72
     1
 10
431.5118422986041
 20
397.9076955785938
 11
435.5118424885939
 21
397.2410288802622
 72
     1
 10
435.5118424885939
 20
397.2410288802622
 11
435.5118424885939
 21
398.5743622769255
 97
        0
 75
     0
 76
     1
 98
        0
  0
LWPOLYLINE
  5
29A
330
297
100
AcDbEntity
  8
Default
  6
Continuous
 62
     7
 48
25.4
370
     9
100
AcDbPolyline
 90
        4
 70
     1
 43
0.0
 10
435.5118424886
 20
398.5743622769
 10
431.5118422986
 20
397.9076955786
 10
435.5118424886
 20
397.2410288803
 10
435.5118424886
 20
398.5743622769
  0
HATCH
  5
29B
330
297
100
AcDbEntity
  8
Default
  6
Continuous
 62
     7
 48
25.4
100
AcDbHatch
 10
0.0
 20
0.0
 30
0.0
210
0.0
220
0.0
230
1.0
  2
SOLID
 70
     1
 71
     0
 91
        1
 92
        1
 93
        3
 72
     1
 10
455.5118429728816
 20
398.5743622769255
 11
455.5118429728816
 21
397.2410288802622
 72
     1
 10
455.5118429728816
 20
397.2410288802622
 11
459.5118431628714
 21
397.9076955785938
 72
     1
 10
459.5118431628714
 20
397.9076955785938
 11
455.5118429728816
 21
398.5743622769255
 97
        0
 75
     0
 76
     1
 98
        0
  0
LWPOLYLINE
  5
29C
330
297
100
AcDbEntity
  8
Default
  6
Continuous
 62
     7
 48
25.4
370
     9
100
AcDbPolyline
 90
        4
 70
     1
 43
0.0
 10
455.5118429729
 20
398.5743622769
 10
459.5118431629
 20
397.9076955786
 10
455.5118429729
 20
397.2410288803
 10
455.5118429729
 20
398.5743622769
  0
LINE
  5
29D
330
297
100
AcDbEntity
  8
Default
  6
Continuous
 62
     7
 48
25.4
100
AcDbLine
 10
431.5118422986
 20
387.3533111384
 30
0.0
 11
431.5118422986
 21
399.9076956736
 31
0.0
  0
LINE
  5
29E
330
297
100
AcDbEntity
  8
Default
  6
Continuous
 62
     7
 48
25.4
100
AcDbLine
 10
459.5118422986
 20
387.3533111384
 30
0.0
 11
459.5118422986
 21
399.9076956736
 31
0.0
  0
LINE
  5
29F
330
297
100
AcDbEntity
  8
Default
  6
Continuous
 62
     7
 48
25.4
100
AcDbLine
 10
431.5118422986
 20
397.9076955786
 30
0.0
 11
459.5118431629
 21
397.9076955786
 31
0.0
  0
TEXT
  5
2A0
330
297
100
AcDbEntity
  8
Default
  6
Continuous
 62
     7
 48
25.4
100
AcDbText
 10
442.3814079481
 20
398.9076955786
 30
0.0
 40
4.0
  1
35
  7
SEACAD_arial_ttf
 11
442.3814079481
 21
402.9076955786
 31
0.0
100
AcDbText
 73
     3
  0
ENDBLK
  5
2A2
330
297
100
AcDbEntity
  8
0
100
AcDbBlockEnd
  0
BLOCK
  5
2AD
330
2A3
100
AcDbEntity
  8
0
100
AcDbBlockBegin
  2
GDimGGroup1
 70
     0
 71
     0
 10
0.0
 20
0.0
 30
0.0
  3
GDimGGroup1
  1

  0
HATCH
  5
2A5
330
2A3
100
AcDbEntity
  8
Default
  6
Continuous
 62
     7
 48
25.4
100
AcDbHatch
 10
0.0
 20
0.0
 30
0.0
210
0.0
220
0.0
230
1.0
  2
SOLID
 70
     1
 71
     0
 91
        1
 92
        1
 93
        3
 72
     1
 10
253.9901232682317
 20
136.5010740691424
 11
252.6567898715684
 21
136.5010740691424
 72
     1
 10
252.6567898715684
 20
136.5010740691424
 11
253.3234565699001
 21
132.5010738791526
 72
     1
 10
253.3234565699001
 20
132.5010738791526
 11
253.9901232682317
 21
136.5010740691424
 97
        0
 75
     0
 76
     1
 98
        0
  0
LWPOLYLINE
  5
2A6
330
2A3
100
AcDbEntity
  8
Default
  6
Continuous
 62
     7
 48
25.4
370
     9
100
AcDbPolyline
 90
        4
 70
     1
 43
0.0
 10
253.9901232682
 20
136.5010740691
 10
253.3234565699
 20
132.5010738792
 10
252.6567898716
 20
136.5010740691
 10
253.9901232682
 20
136.5010740691
  0
HATCH
  5
2A7
330
2A3
100
AcDbEntity
  8
Default
  6
Continuous
 62
     7
 48
25.4
100
AcDbHatch
 10
0.0
 20
0.0
 30
0.0
210
0.0
220
0.0
230
1.0
  2
SOLID
 70
     1
 71
     0
 91
        1
 92
        1
 93
        3
 72
     1
 10
253.9901232682317
 20
154.3786481478811
 11
253.3234565699001
 21
158.3786483378709
 72
     1
 10
253.3234565699001
 20
158.3786483378709
 11
252.6567898715684
 21
154.3786481478811
 72
     1
 10
252.6567898715684
 20
154.3786481478811
 11
253.9901232682317
 21
154.3786481478811
 97
        0
 75
     0
 76
     1
 98
        0
  0
LWPOLYLINE
  5
2A8
330
2A3
100
AcDbEntity
  8
Default
  6
Continuous
 62
     7
 48
25.4
370
     9
100
AcDbPolyline
 90
        4
 70
     1
 43
0.0
 10
253.9901232682
 20
154.3786481479
 10
253.3234565699
 20
158.3786483379
 10
252.6567898716
 20
154.3786481479
 10
253.9901232682
 20
154.3786481479
  0
LINE
  5
2A9
330
2A3
100
AcDbEntity
  8
Default
  6
Continuous
 62
     7
 48
25.4
100
AcDbLine
 10
220.9010071301
 20
132.5010738792
 30
0.0
 11
255.3234566649
 21
132.5010738792
 31
0.0
  0
LINE
  5
2AA
330
2A3
100
AcDbEntity
  8
Default
  6
Continuous
 62
     7
 48
25.4
100
AcDbLine
 10
220.9041818409
 20
158.3786478344
 30
0.0
 11
255.3234566649
 21
158.3786478344
 31
0.0
  0
LINE
  5
2AB
330
2A3
100
AcDbEntity
  8
Default
  6
Continuous
 62
     7
 48
25.4
100
AcDbLine
 10
253.3234565699
 20
132.5010738792
 30
0.0
 11
253.3234565699
 21
158.3786483379
 31
0.0
  0
TEXT
  5
2AC
330
2A3
100
AcDbEntity
  8
Default
  6
Continuous
 62
     7
 48
25.4
100
AcDbText
 10
252.3234565699
 20
142.3094263259
 30
0.0
 40
4.0
  1
37
 50
90.0
  7
SEACAD_arial_ttf
 11
248.3234565699
 21
142.3094263259
 31
0.0
100
AcDbText
 73
     3
  0
ENDBLK
  5
2AE
330
2A3
100
AcDbEntity
  8
0
100
AcDbBlockEnd
  0
BLOCK
  5
2BA
330
2AF
100
AcDbEntity
  8
0
100
AcDbBlockBegin
  2
GDimGGroup2
 70
     0
 71
     0
 10
0.0
 20
0.0
 30
0.0
  3
GDimGGroup2
  1

  0
HATCH
  5
2B1
330
2AF
100
AcDbEntity
  8
Default
  6
Continuous
 62
     7
 48
25.4
100
AcDbHatch
 10
0.0
 20
0.0
 30
0.0
210
0.0
220
0.0
230
1.0
  2
SOLID
 70
     1
 71
     0
 91
        1
 92
        1
 93
        3
 72
     1
 10
240.0589861924522
 20
144.5336332328891
 11
238.725652795789
 21
144.5336332328891
 72
     1
 10
238.725652795789
 20
144.5336332328891
 11
239.3923194941206
 21
140.5336330428993
 72
     1
 10
239.3923194941206
 20
140.5336330428993
 11
240.0589861924522
 21
144.5336332328891
 97
        0
 75
     0
 76
     1
 98
        0
  0
LWPOLYLINE
  5
2B2
330
2AF
100
AcDbEntity
  8
Default
  6
Continuous
 62
     7
 48
25.4
370
     9
100
AcDbPolyline
 90
        4
 70
     1
 43
0.0
 10
240.0589861925
 20
144.5336332329
 10
239.3923194941
 20
140.5336330429
 10
238.7256527958
 20
144.5336332329
 10
240.0589861925
 20
144.5336332329
  0
HATCH
  5
2B3
330
2AF
100
AcDbEntity
  8
Default
  6
Continuous
 62
     7
 48
25.4
100
AcDbHatch
 10
0.0
 20
0.0
 30
0.0
210
0.0
220
0.0
230
1.0
  2
SOLID
 70
     1
 71
     0
 91
        1
 92
        1
 93
        3
 72
     1
 10
240.0589861924522
 20
146.3336329691386
 11
239.3923194941206
 21
150.3336331591284
 72
     1
 10
239.3923194941206
 20
150.3336331591284
 11
238.725652795789
 21
146.3336329691386
 72
     1
 10
238.725652795789
 20
146.3336329691386
 11
240.0589861924522
 21
146.3336329691386
 97
        0
 75
     0
 76
     1
 98
        0
  0
LWPOLYLINE
  5
2B4
330
2AF
100
AcDbEntity
  8
Default
  6
Continuous
 62
     7
 48
25.4
370
     9
100
AcDbPolyline
 90
        4
 70
     1
 43
0.0
 10
240.0589861925
 20
146.3336329691
 10
239.3923194941
 20
150.3336331591
 10
238.7256527958
 20
146.3336329691
 10
240.0589861925
 20
146.3336329691
  0
LINE
  5
2B5
330
2AF
100
AcDbEntity
  8
Default
  6
Continuous
 62
     7
 48
25.4
100
AcDbLine
 10
224.404182085
 20
140.5336330429
 30
0.0
 11
241.3923195891
 21
140.5336330429
 31
0.0
  0
LINE
  5
2B6
330
2AF
100
AcDbEntity
  8
Default
  6
Continuous
 62
     7
 48
25.4
100
AcDbLine
 10
224.404182085
 20
150.3336330429
 30
0.0
 11
241.3923195891
 21
150.3336330429
 31
0.0
  0
LINE
  5
2B7
330
2AF
100
AcDbEntity
  8
Default
  6
Continuous
 62
     7
 48
25.4
100
AcDbLine
 10
239.3923194941
 20
102.7698549226
 30
0.0
 11
239.3923194941
 21
150.3336331591
 31
0.0
  0
TEXT
  5
2B8
330
2AF
100
AcDbEntity
  8
Default
  6
Continuous
 62
     7
 48
25.4
100
AcDbText
 10
238.3923194941
 20
104.1698540617
 30
0.0
 40
4.0
  1
14
 50
90.0
  7
SEACAD_arial_ttf
 11
234.3923194941
 21
104.1698540617
 31
0.0
100
AcDbText
 73
     3
  0
TEXT
  5
2B9
330
2AF
100
AcDbEntity
  8
Default
  6
Continuous
 62
     7
 48
25.4
100
AcDbText
 10
238.3923194941
 20
112.8307236269
 30
0.0
 40
4.0
  1
H8/h8
 50
90.0
  7
SEACAD_arial_ttf
 11
234.3923194941
 21
112.8307236269
 31
0.0
100
AcDbText
 73
     3
  0
ENDBLK
  5
2BB
330
2AF
100
AcDbEntity
  8
0
100
AcDbBlockEnd
  0
BLOCK
  5
2C6
330
2BC
100
AcDbEntity
  8
0
100
AcDbBlockBegin
  2
GDimGGroup3
 70
     0
 71
     0
 10
0.0
 20
0.0
 30
0.0
  3
GDimGGroup3
  1

  0
HATCH
  5
2BE
330
2BC
100
AcDbEntity
  8
Default
  6
Continuous
 62
     7
 48
25.4
100
AcDbHatch
 10
0.0
 20
0.0
 30
0.0
210
0.0
220
0.0
230
1.0
  2
SOLID
 70
     1
 71
     0
 91
        1
 92
        1
 93
        3
 72
     1
 10
226.3041820473297
 20
170.7393252956452
 11
222.3041818573399
 21
170.0726585973135
 72
     1
 10
222.3041818573399
 20
170.0726585973135
 11
226.3041820473297
 21
169.4059918989819
 72
     1
 10
226.3041820473297
 20
169.4059918989819
 11
226.3041820473297
 21
170.7393252956452
 97
        0
 75
     0
 76
     1
 98
        0
  0
LWPOLYLINE
  5
2BF
330
2BC
100
AcDbEntity
  8
Default
  6
Continuous
 62
     7
 48
25.4
370
     9
100
AcDbPolyline
 90
        4
 70
     1
 43
0.0
 10
226.3041820473
 20
170.7393252956
 10
222.3041818573
 20
170.0726585973
 10
226.3041820473
 20
169.405991899
 10
226.3041820473
 20
170.7393252956
  0
HATCH
  5
2C0
330
2BC
100
AcDbEntity
  8
Default
  6
Continuous
 62
     7
 48
25.4
100
AcDbHatch
 10
0.0
 20
0.0
 30
0.0
210
0.0
220
0.0
230
1.0
  2
SOLID
 70
     1
 71
     0
 91
        1
 92
        1
 93
        3
 72
     1
 10
216.9041816673501
 20
170.7393252956452
 11
216.9041816673501
 21
169.4059918989819
 72
     1
 10
216.9041816673501
 20
169.4059918989819
 11
220.9041818573399
 21
170.0726585973135
 72
     1
 10
220.9041818573399
 20
170.0726585973135
 11
216.9041816673501
 21
170.7393252956452
 97
        0
 75
     0
 76
     1
 98
        0
  0
LWPOLYLINE
  5
2C1
330
2BC
100
AcDbEntity
  8
Default
  6
Continuous
 62
     7
 48
25.4
370
     9
100
AcDbPolyline
 90
        4
 70
     1
 43
0.0
 10
216.9041816674
 20
170.7393252956
 10
220.9041818573
 20
170.0726585973
 10
216.9041816674
 20
169.405991899
 10
216.9041816674
 20
170.7393252956
  0
LINE
  5
2C2
330
2BC
100
AcDbEntity
  8
Default
  6
Continuous
 62
     7
 48
25.4
100
AcDbLine
 10
222.3041818573
 20
156.9786478344
 30
0.0
 11
222.3041818573
 21
172.0726586923
 31
0.0
  0
LINE
  5
2C3
330
2BC
100
AcDbEntity
  8
Default
  6
Continuous
 62
     7
 48
25.4
100
AcDbLine
 10
220.9041818573
 20
158.3786478344
 30
0.0
 11
220.9041818573
 21
172.0726586923
 31
0.0
  0
LINE
  5
2C4
330
2BC
100
AcDbEntity
  8
Default
  6
Continuous
 62
     7
 48
25.4
100
AcDbLine
 10
230.3041822373
 20
170.0726585973
 30
0.0
 11
206.5986969604
 21
170.0726585973
 31
0.0
  0
TEXT
  5
2C5
330
2BC
100
AcDbEntity
  8
Default
  6
Continuous
 62
     7
 48
25.4
100
AcDbText
 10
207.9986970903
 20
171.0726585973
 30
0.0
 40
4.0
  1
2
  7
SEACAD_arial_ttf
 11
207.9986970903
 21
175.0726585973
 31
0.0
100
AcDbText
 73
     3
  0
ENDBLK
  5
2C7
330
2BC
100
AcDbEntity
  8
0
100
AcDbBlockEnd
  0
BLOCK
  5
2D2
330
2C8
100
AcDbEntity
  8
0
100
AcDbBlockBegin
  2
GDimGGroup4
 70
     0
 71
     0
 10
0.0
 20
0.0
 30
0.0
  3
GDimGGroup4
  1

  0
HATCH
  5
2CA
330
2C8
100
AcDbEntity
  8
Default
  6
Continuous
 62
     7
 48
25.4
100
AcDbHatch
 10
0.0
 20
0.0
 30
0.0
210
0.0
220
0.0
230
1.0
  2
SOLID
 70
     1
 71
     0
 91
        1
 92
        1
 93
        3
 72
     1
 10
226.3041820473297
 20
170.7393252956452
 11
222.3041818573399
 21
170.0726585973135
 72
     1
 10
222.3041818573399
 20
170.0726585973135
 11
226.3041820473297
 21
169.4059918989819
 72
     1
 10
226.3041820473297
 20
169.4059918989819
 11
226.3041820473297
 21
170.7393252956452
 97
        0
 75
     0
 76
     1
 98
        0
  0
LWPOLYLINE
  5
2CB
330
2C8
100
AcDbEntity
  8
Default
  6
Continuous
 62
     7
 48
25.4
370
     9
100
AcDbPolyline
 90
        4
 70
     1
 43
0.0
 10
226.3041820473
 20
170.7393252956
 10
222.3041818573
 20
170.0726585973
 10
226.3041820473
 20
169.405991899
 10
226.3041820473
 20
170.7393252956
  0
HATCH
  5
2CC
330
2C8
100
AcDbEntity
  8
Default
  6
Continuous
 62
     7
 48
25.4
100
AcDbHatch
 10
0.0
 20
0.0
 30
0.0
210
0.0
220
0.0
230
1.0
  2
SOLID
 70
     1
 71
     0
 91
        1
 92
        1
 93
        3
 72
     1
 10
220.4041816673501
 20
170.7393252956452
 11
220.4041816673501
 21
169.4059918989819
 72
     1
 10
220.4041816673501
 20
169.4059918989819
 11
224.4041818573399
 21
170.0726585973135
 72
     1
 10
224.4041818573399
 20
170.0726585973135
 11
220.4041816673501
 21
170.7393252956452
 97
        0
 75
     0
 76
     1
 98
        0
  0
LWPOLYLINE
  5
2CD
330
2C8
100
AcDbEntity
  8
Default
  6
Continuous
 62
     7
 48
25.4
370
     9
100
AcDbPolyline
 90
        4
 70
     1
 43
0.0
 10
220.4041816674
 20
170.7393252956
 10
224.4041818573
 20
170.0726585973
 10
220.4041816674
 20
169.405991899
 10
220.4041816674
 20
170.7393252956
  0
LINE
  5
2CE
330
2C8
100
AcDbEntity
  8
Default
  6
Continuous
 62
     7
 48
25.4
100
AcDbLine
 10
222.3041818573
 20
156.9786478344
 30
0.0
 11
222.3041818573
 21
172.0726586923
 31
0.0
  0
LINE
  5
2CF
330
2C8
100
AcDbEntity
  8
Default
  6
Continuous
 62
     7
 48
25.4
100
AcDbLine
 10
224.4041818573
 20
150.3336330429
 30
0.0
 11
224.4041818573
 21
172.0726586923
 31
0.0
  0
LINE
  5
2D0
330
2C8
100
AcDbEntity
  8
Default
  6
Continuous
 62
     7
 48
25.4
100
AcDbLine
 10
222.3041818573
 20
170.0726585973
 30
0.0
 11
235.913153468
 21
170.0726585973
 31
0.0
  0
TEXT
  5
2D1
330
2C8
100
AcDbEntity
  8
Default
  6
Continuous
 62
     7
 48
25.4
100
AcDbText
 10
231.3827185556
 20
171.0726585973
 30
0.0
 40
4.0
  1
3
  7
SEACAD_arial_ttf
 11
231.3827185556
 21
175.0726585973
 31
0.0
100
AcDbText
 73
     3
  0
ENDBLK
  5
2D3
330
2C8
100
AcDbEntity
  8
0
100
AcDbBlockEnd
  0
BLOCK
  5
2E0
330
2D4
100
AcDbEntity
  8
0
100
AcDbBlockBegin
  2
GDimGGroup5
 70
     0
 71
     0
 10
0.0
 20
0.0
 30
0.0
  3
GDimGGroup5
  1

  0
HATCH
  5
2D6
330
2D4
100
AcDbEntity
  8
Default
  6
Continuous
 62
     7
 48
25.4
100
AcDbHatch
 10
0.0
 20
0.0
 30
0.0
210
0.0
220
0.0
230
1.0
  2
SOLID
 70
     1
 71
     0
 91
        1
 92
        1
 93
        3
 72
     1
 10
62.28668979333873
 20
335.3841215667606
 11
63.620023190002
 21
335.3841215667606
 72
     1
 10
63.620023190002
 20
335.3841215667606
 11
62.95335649167036
 21
339.3841217567504
 72
     1
 10
62.95335649167036
 20
339.3841217567504
 11
62.28668979333873
 21
335.3841215667606
 97
        0
 75
     0
 76
     1
 98
        0
  0
LWPOLYLINE
  5
2D7
330
2D4
100
AcDbEntity
  8
Default
  6
Continuous
 62
     7
 48
25.4
370
     9
100
AcDbPolyline
 90
        4
 70
     1
 43
0.0
 10
62.2866897933
 20
335.3841215668
 10
62.9533564917
 20
339.3841217568
 10
63.62002319
 20
335.3841215668
 10
62.2866897933
 20
335.3841215668
  0
HATCH
  5
2D8
330
2D4
100
AcDbEntity
  8
Default
  6
Continuous
 62
     7
 48
25.4
100
AcDbHatch
 10
0.0
 20
0.0
 30
0.0
210
0.0
220
0.0
230
1.0
  2
SOLID
 70
     1
 71
     0
 91
        1
 92
        1
 93
        3
 72
     1
 10
62.28668979333873
 20
258.2841193598986
 11
62.95335649167036
 21
254.2841191699088
 72
     1
 10
62.95335649167036
 20
254.2841191699089
 11
63.620023190002
 21
258.2841193598987
 72
     1
 10
63.620023190002
 20
258.2841193598986
 11
62.28668979333873
 21
258.2841193598986
 97
        0
 75
     0
 76
     1
 98
        0
  0
LWPOLYLINE
  5
2D9
330
2D4
100
AcDbEntity
  8
Default
  6
Continuous
 62
     7
 48
25.4
370
     9
100
AcDbPolyline
 90
        4
 70
     1
 43
0.0
 10
62.2866897933
 20
258.2841193599
 10
62.9533564917
 20
254.2841191699
 10
63.62002319
 20
258.2841193599
 10
62.2866897933
 20
258.2841193599
  0
LINE
  5
2DA
330
2D4
100
AcDbEntity
  8
Default
  6
Continuous
 62
     7
 48
25.4
100
AcDbLine
 10
131.2192490569
 20
339.3841217568
 30
0.0
 11
60.9533563967
 21
339.3841217568
 31
0.0
  0
LINE
  5
2DB
330
2D4
100
AcDbEntity
  8
Default
  6
Continuous
 62
     7
 48
25.4
100
AcDbLine
 10
131.2192490569
 20
254.2841217568
 30
0.0
 11
60.9533563967
 21
254.2841217568
 31
0.0
  0
LINE
  5
2DC
330
2D4
100
AcDbEntity
  8
Default
  6
Continuous
 62
     7
 48
25.4
100
AcDbLine
 10
62.9533564917
 20
339.3841217568
 30
0.0
 11
62.9533564917
 21
254.2841191699
 31
0.0
  0
TEXT
  5
2DD
330
2D4
100
AcDbEntity
  8
Default
  6
Continuous
 62
     7
 48
25.4
100
AcDbText
 10
61.9533564917
 20
290.3409091742
 30
0.0
 40
4.0
  1
106.375
 50
90.0
  7
SEACAD_arial_ttf
 11
57.9533564917
 21
290.3409091742
 31
0.0
100
AcDbText
 73
     3
  0
TEXT
  5
2DF
330
2D4
100
AcDbEntity
  8
Default
  6
Continuous
 62
     7
 48
25.4
100
AcDbText
 10
61.9533564917
 20
282.9795056655
 30
0.0
 40
4.0
  1
O
 50
90.0
  7
SEACAD_semeca1_ttf
 11
57.9533564917
 21
282.9795056655
 31
0.0
100
AcDbText
 73
     3
  0
ENDBLK
  5
2E1
330
2D4
100
AcDbEntity
  8
0
100
AcDbBlockEnd
  0
BLOCK
  5
2EE
330
2E2
100
AcDbEntity
  8
0
100
AcDbBlockBegin
  2
GDimGGroup6
 70
     0
 71
     0
 10
0.0
 20
0.0
 30
0.0
  3
GDimGGroup6
  1

  0
HATCH
  5
2E4
330
2E2
100
AcDbEntity
  8
Default
  6
Continuous
 62
     7
 48
25.4
100
AcDbHatch
 10
0.0
 20
0.0
 30
0.0
210
0.0
220
0.0
230
1.0
  2
SOLID
 70
     1
 71
     0
 91
        1
 92
        1
 93
        3
 72
     1
 10
44.26298417972559
 20
233.873090149092
 11
44.92965087805722
 21
229.8730899591022
 72
     1
 10
44.92965087805722
 20
229.8730899591022
 11
45.59631757638886
 21
233.873090149092
 72
     1
 10
45.59631757638886
 20
233.873090149092
 11
44.26298417972559
 21
233.873090149092
 97
        0
 75
     0
 76
     1
 98
        0
  0
LWPOLYLINE
  5
2E5
330
2E2
100
AcDbEntity
  8
Default
  6
Continuous
 62
     7
 48
25.4
370
     9
100
AcDbPolyline
 90
        4
 70
     1
 43
0.0
 10
44.2629841797
 20
233.8730901491
 10
44.9296508781
 20
229.8730899591
 10
45.5963175764
 20
233.8730901491
 10
44.2629841797
 20
233.8730901491
  0
HATCH
  5
2E6
330
2E2
100
AcDbEntity
  8
Default
  6
Continuous
 62
     7
 48
25.4
100
AcDbHatch
 10
0.0
 20
0.0
 30
0.0
210
0.0
220
0.0
230
1.0
  2
SOLID
 70
     1
 71
     0
 91
        1
 92
        1
 93
        3
 72
     1
 10
44.26298417972559
 20
361.8730971600883
 11
45.59631757638886
 21
361.8730971600883
 72
     1
 10
45.59631757638886
 20
361.8730971600883
 11
44.92965087805722
 21
365.8730973500781
 72
     1
 10
44.92965087805722
 20
365.8730973500781
 11
44.26298417972559
 21
361.8730971600883
 97
        0
 75
     0
 76
     1
 98
        0
  0
LWPOLYLINE
  5
2E7
330
2E2
100
AcDbEntity
  8
Default
  6
Continuous
 62
     7
 48
25.4
370
     9
100
AcDbPolyline
 90
        4
 70
     1
 43
0.0
 10
44.2629841797
 20
361.8730971601
 10
44.9296508781
 20
365.8730973501
 10
45.5963175764
 20
361.8730971601
 10
44.2629841797
 20
361.8730971601
  0
LINE
  5
2E8
330
2E2
100
AcDbEntity
  8
Default
  6
Continuous
 62
     7
 48
25.4
100
AcDbLine
 10
132.0192490569
 20
229.8730899591
 30
0.0
 11
42.9296507831
 21
229.8730899591
 31
0.0
  0
LINE
  5
2E9
330
2E2
100
AcDbEntity
  8
Default
  6
Continuous
 62
     7
 48
25.4
100
AcDbLine
 10
132.0192490569
 20
365.8730899591
 30
0.0
 11
42.9296507831
 21
365.8730899591
 31
0.0
  0
LINE
  5
2EA
330
2E2
100
AcDbEntity
  8
Default
  6
Continuous
 62
     7
 48
25.4
100
AcDbLine
 10
44.9296508781
 20
229.8730899591
 30
0.0
 11
44.9296508781
 21
365.8730973501
 31
0.0
  0
TEXT
  5
2EB
330
2E2
100
AcDbEntity
  8
Default
  6
Continuous
 62
     7
 48
25.4
100
AcDbText
 10
43.9296508781
 20
292.0929258438
 30
0.0
 40
4.0
  1
170
 50
90.0
  7
SEACAD_arial_ttf
 11
39.9296508781
 21
292.0929258438
 31
0.0
100
AcDbText
 73
     3
  0
TEXT
  5
2EC
330
2E2
100
AcDbEntity
  8
Default
  6
Continuous
 62
     7
 48
25.4
100
AcDbText
 10
43.9296508781
 20
303.8842301916
 30
0.0
 40
4.0
  1
H6
 50
90.0
  7
SEACAD_arial_ttf
 11
39.9296508781
 21
303.8842301916
 31
0.0
100
AcDbText
 73
     3
  0
TEXT
  5
2ED
330
2E2
100
AcDbEntity
  8
Default
  6
Continuous
 62
     7
 48
25.4
100
AcDbText
 10
43.9296508781
 20
284.731522335
 30
0.0
 40
4.0
  1
O
 50
90.0
  7
SEACAD_semeca1_ttf
 11
39.9296508781
 21
284.731522335
 31
0.0
100
AcDbText
 73
     3
  0
ENDBLK
  5
2EF
330
2E2
100
AcDbEntity
  8
0
100
AcDbBlockEnd
  0
BLOCK
  5
2FA
330
2F0
100
AcDbEntity
  8
0
100
AcDbBlockBegin
  2
GDimGGroup7
 70
     0
 71
     0
 10
0.0
 20
0.0
 30
0.0
  3
GDimGGroup7
  1

  0
HATCH
  5
2F2
330
2F0
100
AcDbEntity
  8
Default
  6
Continuous
 62
     7
 48
25.4
100
AcDbHatch
 10
0.0
 20
0.0
 30
0.0
210
0.0
220
0.0
230
1.0
  2
SOLID
 70
     1
 71
     0
 91
        1
 92
        1
 93
        3
 72
     1
 10
127.219248866931
 20
196.7005957325323
 11
131.2192490569208
 21
197.3672624308639
 72
     1
 10
131.2192490569208
 20
197.3672624308639
 11
127.2192488669309
 21
198.0339291291955
 72
     1
 10
127.219248866931
 20
198.0339291291955
 11
127.219248866931
 21
196.7005957325323
 97
        0
 75
     0
 76
     1
 98
        0
  0
LWPOLYLINE
  5
2F3
330
2F0
100
AcDbEntity
  8
Default
  6
Continuous
 62
     7
 48
25.4
370
     9
100
AcDbPolyline
 90
        4
 70
     1
 43
0.0
 10
127.2192488669
 20
196.7005957325
 10
131.2192490569
 20
197.3672624309
 10
127.2192488669
 20
198.0339291292
 10
127.2192488669
 20
196.7005957325
  0
HATCH
  5
2F4
330
2F0
100
AcDbEntity
  8
Default
  6
Continuous
 62
     7
 48
25.4
100
AcDbHatch
 10
0.0
 20
0.0
 30
0.0
210
0.0
220
0.0
230
1.0
  2
SOLID
 70
     1
 71
     0
 91
        1
 92
        1
 93
        3
 72
     1
 10
148.8192492469106
 20
196.7005957325323
 11
148.8192492469106
 21
198.0339291291955
 72
     1
 10
148.8192492469106
 20
198.0339291291955
 11
144.8192490569208
 21
197.3672624308639
 72
     1
 10
144.8192490569208
 20
197.3672624308639
 11
148.8192492469106
 21
196.7005957325323
 97
        0
 75
     0
 76
     1
 98
        0
  0
LWPOLYLINE
  5
2F5
330
2F0
100
AcDbEntity
  8
Default
  6
Continuous
 62
     7
 48
25.4
370
     9
100
AcDbPolyline
 90
        4
 70
     1
 43
0.0
 10
148.8192492469
 20
196.7005957325
 10
144.8192490569
 20
197.3672624309
 10
148.8192492469
 20
198.0339291292
 10
148.8192492469
 20
196.7005957325
  0
LINE
  5
2F6
330
2F0
100
AcDbEntity
  8
Default
  6
Continuous
 62
     7
 48
25.4
100
AcDbLine
 10
131.2192490569
 20
230.6730899591
 30
0.0
 11
131.2192490569
 21
195.3672623359
 31
0.0
  0
LINE
  5
2F7
330
2F0
100
AcDbEntity
  8
Default
  6
Continuous
 62
     7
 48
25.4
100
AcDbLine
 10
144.8192490569
 20
230.6730899591
 30
0.0
 11
144.8192490569
 21
195.3672623359
 31
0.0
  0
LINE
  5
2F8
330
2F0
100
AcDbEntity
  8
Default
  6
Continuous
 62
     7
 48
25.4
100
AcDbLine
 10
123.2192486769
 20
197.3672624309
 30
0.0
 11
152.8192496172
 21
197.3672624309
 31
0.0
  0
TEXT
  5
2F9
330
2F0
100
AcDbEntity
  8
Default
  6
Continuous
 62
     7
 48
25.4
100
AcDbText
 10
134.8888143645
 20
198.3672624309
 30
0.0
 40
4.0
  1
17
  7
SEACAD_arial_ttf
 11
134.8888143645
 21
202.3672624309
 31
0.0
100
AcDbText
 73
     3
  0
ENDBLK
  5
2FB
330
2F0
100
AcDbEntity
  8
0
100
AcDbBlockEnd
  0
BLOCK
  5
306
330
2FC
100
AcDbEntity
  8
0
100
AcDbBlockBegin
  2
GDimGGroup8
 70
     0
 71
     0
 10
0.0
 20
0.0
 30
0.0
  3
GDimGGroup8
  1

  0
HATCH
  5
2FE
330
2FC
100
AcDbEntity
  8
Default
  6
Continuous
 62
     7
 48
25.4
100
AcDbHatch
 10
0.0
 20
0.0
 30
0.0
210
0.0
220
0.0
230
1.0
  2
SOLID
 70
     1
 71
     0
 91
        1
 92
        1
 93
        3
 72
     1
 10
327.8476559390826
 20
314.8341219467402
 11
326.5143225424193
 21
314.8341219467402
 72
     1
 10
326.5143225424193
 20
314.8341219467402
 11
327.180989240751
 21
310.8341217567504
 72
     1
 10
327.180989240751
 20
310.8341217567504
 11
327.8476559390826
 21
314.8341219467402
 97
        0
 75
     0
 76
     1
 98
        0
  0
LWPOLYLINE
  5
2FF
330
2FC
100
AcDbEntity
  8
Default
  6
Continuous
 62
     7
 48
25.4
370
     9
100
AcDbPolyline
 90
        4
 70
     1
 43
0.0
 10
327.8476559391
 20
314.8341219467
 10
327.1809892408
 20
310.8341217568
 10
326.5143225424
 20
314.8341219467
 10
327.8476559391
 20
314.8341219467
  0
HATCH
  5
300
330
2FC
100
AcDbEntity
  8
Default
  6
Continuous
 62
     7
 48
25.4
100
AcDbHatch
 10
0.0
 20
0.0
 30
0.0
210
0.0
220
0.0
230
1.0
  2
SOLID
 70
     1
 71
     0
 91
        1
 92
        1
 93
        3
 72
     1
 10
327.8476559390826
 20
382.8341191229702
 11
327.180989240751
 21
386.83411931296
 72
     1
 10
327.180989240751
 20
386.83411931296
 11
326.5143225424193
 21
382.8341191229702
 72
     1
 10
326.5143225424193
 20
382.8341191229702
 11
327.8476559390826
 21
382.8341191229702
 97
        0
 75
     0
 76
     1
 98
        0
  0
LWPOLYLINE
  5
301
330
2FC
100
AcDbEntity
  8
Default
  6
Continuous
 62
     7
 48
25.4
370
     9
100
AcDbPolyline
 90
        4
 70
     1
 43
0.0
 10
327.8476559391
 20
382.834119123
 10
327.1809892408
 20
386.834119313
 10
326.5143225424
 20
382.834119123
 10
327.8476559391
 20
382.834119123
  0
LINE
  5
302
330
2FC
100
AcDbEntity
  8
Default
  6
Continuous
 62
     7
 48
25.4
100
AcDbLine
 10
252.0192490569
 20
310.8341217568
 30
0.0
 11
329.1809893357
 21
310.8341217568
 31
0.0
  0
LINE
  5
303
330
2FC
100
AcDbEntity
  8
Default
  6
Continuous
 62
     7
 48
25.4
100
AcDbLine
 10
252.0192490569
 20
386.8341217568
 30
0.0
 11
329.1809893357
 21
386.8341217568
 31
0.0
  0
LINE
  5
304
330
2FC
100
AcDbEntity
  8
Default
  6
Continuous
 62
     7
 48
25.4
100
AcDbLine
 10
327.1809892408
 20
310.8341217568
 30
0.0
 11
327.1809892408
 21
386.834119313
 31
0.0
  0
TEXT
  5
305
330
2FC
100
AcDbEntity
  8
Default
  6
Continuous
 62
     7
 48
25.4
100
AcDbText
 10
326.1809892408
 20
345.7036857522
 30
0.0
 40
4.0
  1
95
 50
90.0
  7
SEACAD_arial_ttf
 11
322.1809892408
 21
345.7036857522
 31
0.0
100
AcDbText
 73
     3
  0
ENDBLK
  5
307
330
2FC
100
AcDbEntity
  8
0
100
AcDbBlockEnd
  0
BLOCK
  5
312
330
308
100
AcDbEntity
  8
0
100
AcDbBlockBegin
  2
GDimGGroup9
 70
     0
 71
     0
 10
0.0
 20
0.0
 30
0.0
  3
GDimGGroup9
  1

  0
HATCH
  5
30A
330
308
100
AcDbEntity
  8
Default
  6
Continuous
 62
     7
 48
25.4
100
AcDbHatch
 10
0.0
 20
0.0
 30
0.0
210
0.0
220
0.0
230
1.0
  2
SOLID
 70
     1
 71
     0
 91
        1
 92
        1
 93
        3
 72
     1
 10
525.7002893538825
 20
347.6511268825608
 11
528.3425079039301
 21
344.5749072642034
 72
     1
 10
528.3425079039301
 20
344.5749072642034
 11
526.8408048274063
 21
348.3417804869893
 72
     1
 10
526.8408048274063
 20
348.3417804869893
 11
525.7002893538825
 21
347.6511268825607
 97
        0
 75
     0
 76
     1
 98
        0
  0
LWPOLYLINE
  5
30B
330
308
100
AcDbEntity
  8
Default
  6
Continuous
 62
     7
 48
25.4
370
     9
100
AcDbPolyline
 90
        4
 70
     1
 43
0.0
 10
525.7002893539
 20
347.6511268826
 10
528.3425079039
 20
344.5749072642
 10
526.8408048274
 20
348.341780487
 10
525.7002893539
 20
347.6511268826
  0
HATCH
  5
30C
330
308
100
AcDbEntity
  8
Default
  6
Continuous
 62
     7
 48
25.4
100
AcDbHatch
 10
0.0
 20
0.0
 30
0.0
210
0.0
220
0.0
230
1.0
  2
SOLID
 70
     1
 71
     0
 91
        1
 92
        1
 93
        3
 72
     1
 10
449.5242632384421
 20
392.9810121289077
 11
445.5111980787361
 21
392.3981278946586
 72
     1
 10
445.5111980787361
 20
392.3981278946586
 11
449.4963843328091
 21
391.6479702266111
 72
     1
 10
449.4963843328091
 20
391.6479702266111
 11
449.5242632384421
 21
392.9810121289076
 97
        0
 75
     0
 76
     1
 98
        0
  0
LWPOLYLINE
  5
30D
330
308
100
AcDbEntity
  8
Default
  6
Continuous
 62
     7
 48
25.4
370
     9
100
AcDbPolyline
 90
        4
 70
     1
 43
0.0
 10
449.5242632384
 20
392.9810121289
 10
445.5111980787
 20
392.3981278947
 10
449.4963843328
 20
391.6479702266
 10
449.5242632384
 20
392.9810121289
  0
LINE
  5
30E
330
308
100
AcDbEntity
  8
Default
  6
Continuous
 62
     7
 48
25.4
100
AcDbLine
 10
491.6747950603
 20
323.4052728051
 30
0.0
 11
530.0745655752
 21
345.5748885807
 31
0.0
  0
LINE
  5
30F
330
308
100
AcDbEntity
  8
Default
  6
Continuous
 62
     7
 48
25.4
100
AcDbLine
 10
445.5111979039
 20
296.7533111384
 30
0.0
 11
445.5111979039
 21
394.3981244972
 31
0.0
  0
ARC
  5
310
330
308
100
AcDbEntity
  8
Default
  6
Continuous
 62
     7
 48
25.4
100
AcDbCircle
 10
445.5111979039
 20
296.7533111384
 30
0.0
 40
95.64481675624859
100
AcDbArc
 50
29.9994381501
 51
89.9999998953
  0
TEXT
  5
311
330
308
100
AcDbEntity
  8
Default
  6
Continuous
 62
     7
 48
25.4
100
AcDbText
 10
490.1440058127
 20
382.5803935395
 30
0.0
 40
4.0
  1
60°
 50
329.9997190751
  7
SEACAD_arial_ttf
 11
492.1440227974
 21
386.0444853485
 31
0.0
100
AcDbText
 73
     3
  0
ENDBLK
  5
313
330
308
100
AcDbEntity
  8
0
100
AcDbBlockEnd
  0
BLOCK
  5
31E
330
314
100
AcDbEntity
  8
0
100
AcDbBlockBegin
  2
GDimGGroup10
 70
     0
 71
     0
 10
0.0
 20
0.0
 30
0.0
  3
GDimGGroup10
  1

  0
HATCH
  5
316
330
314
100
AcDbEntity
  8
Default
  6
Continuous
 62
     7
 48
25.4
100
AcDbHatch
 10
0.0
 20
0.0
 30
0.0
210
0.0
220
0.0
230
1.0
  2
SOLID
 70
     1
 71
     0
 91
        1
 92
        1
 93
        3
 72
     1
 10
536.1412363907998
 20
325.1623617906694
 11
537.897239302842
 21
321.5071053318854
 72
     1
 10
537.897239302842
 20
321.5071053318854
 11
537.4216440483538
 21
325.5342948184245
 72
     1
 10
537.4216440483536
 20
325.5342948184245
 11
536.1412363907998
 21
325.1623617906694
 97
        0
 75
     0
 76
     1
 98
        0
  0
LWPOLYLINE
  5
317
330
314
100
AcDbEntity
  8
Default
  6
Continuous
 62
     7
 48
25.4
370
     9
100
AcDbPolyline
 90
        4
 70
     1
 43
0.0
 10
536.1412363908
 20
325.1623617907
 10
537.8972393028
 20
321.5071053319
 10
537.4216440484
 20
325.5342948184
 10
536.1412363908
 20
325.1623617907
  0
HATCH
  5
318
330
314
100
AcDbEntity
  8
Default
  6
Continuous
 62
     7
 48
25.4
100
AcDbHatch
 10
0.0
 20
0.0
 30
0.0
210
0.0
220
0.0
230
1.0
  2
SOLID
 70
     1
 71
     0
 91
        1
 92
        1
 93
        3
 72
     1
 10
530.8538014961451
 20
341.3909090060822
 11
528.3425075555387
 21
344.5749078676486
 72
     1
 10
528.3425075555387
 20
344.5749078676486
 11
529.6854075983069
 21
340.7485433421864
 72
     1
 10
529.6854075983069
 20
340.7485433421864
 11
530.8538014961451
 21
341.3909090060822
 97
        0
 75
     0
 76
     1
 98
        0
  0
LWPOLYLINE
  5
319
330
314
100
AcDbEntity
  8
Default
  6
Continuous
 62
     7
 48
25.4
370
     9
100
AcDbPolyline
 90
        4
 70
     1
 43
0.0
 10
530.8538014961
 20
341.3909090061
 10
528.3425075555
 20
344.5749078676
 10
529.6854075983
 20
340.7485433422
 10
530.8538014961
 20
341.3909090061
  0
LINE
  5
31A
330
314
100
AcDbEntity
  8
Default
  6
Continuous
 62
     7
 48
25.4
100
AcDbLine
 10
503.4668984639
 20
312.281885177
 30
0.0
 11
539.8290927496
 21
322.0247235988
 31
0.0
  0
LINE
  5
31B
330
314
100
AcDbEntity
  8
Default
  6
Continuous
 62
     7
 48
25.4
100
AcDbLine
 10
491.6747950603
 20
323.4052728051
 30
0.0
 11
530.0745655752
 21
345.5748885807
 31
0.0
  0
ARC
  5
31C
330
314
100
AcDbEntity
  8
Default
  6
Continuous
 62
     7
 48
25.4
100
AcDbCircle
 10
445.5111979039
 20
296.7533111384
 30
0.0
 40
95.64481675624286
100
AcDbArc
 50
14.9994381501
 51
29.9994385675
  0
TEXT
  5
31D
330
314
100
AcDbEntity
  8
Default
  6
Continuous
 62
     7
 48
25.4
100
AcDbText
 10
533.1692031097
 20
337.6733519331
 30
0.0
 40
4.0
  1
15°
 50
292.4994381501
  7
SEACAD_arial_ttf
 11
536.8647362502
 21
339.2040494238
 31
0.0
100
AcDbText
 73
     3
  0
ENDBLK
  5
31F
330
314
100
AcDbEntity
  8
0
100
AcDbBlockEnd
  0
BLOCK
  5
32A
330
320
100
AcDbEntity
  8
0
100
AcDbBlockBegin
  2
GDimGGroup11
 70
     0
 71
     0
 10
0.0
 20
0.0
 30
0.0
  3
GDimGGroup11
  1

  0
HATCH
  5
322
330
320
100
AcDbEntity
  8
Default
  6
Continuous
 62
     7
 48
25.4
100
AcDbHatch
 10
0.0
 20
0.0
 30
0.0
210
0.0
220
0.0
230
1.0
  2
SOLID
 70
     1
 71
     0
 91
        1
 92
        1
 93
        3
 72
     1
 10
540.4058570033625
 20
300.7384973945992
 11
541.1560146601679
 21
296.7533111384101
 72
     1
 10
541.1560146601679
 20
296.7533111384101
 11
541.7388989057376
 21
300.7663762964718
 72
     1
 10
541.7388989057376
 20
300.7663762964718
 11
540.4058570033625
 21
300.7384973945992
 97
        0
 75
     0
 76
     1
 98
        0
  0
LWPOLYLINE
  5
323
330
320
100
AcDbEntity
  8
Default
  6
Continuous
 62
     7
 48
25.4
370
     9
100
AcDbPolyline
 90
        4
 70
     1
 43
0.0
 10
540.4058570034
 20
300.7384973946
 10
541.1560146602
 20
296.7533111384
 10
541.7388989057
 20
300.7663762965
 10
540.4058570034
 20
300.7384973946
  0
HATCH
  5
324
330
320
100
AcDbEntity
  8
Default
  6
Continuous
 62
     7
 48
25.4
100
AcDbHatch
 10
0.0
 20
0.0
 30
0.0
210
0.0
220
0.0
230
1.0
  2
SOLID
 70
     1
 71
     0
 91
        1
 92
        1
 93
        3
 72
     1
 10
539.4988832276547
 20
317.7816286836223
 11
537.8972390936326
 21
321.5071061126957
 72
     1
 10
537.8972390936326
 20
321.5071061126957
 11
538.2040449190891
 21
317.4635536903759
 72
     1
 10
538.2040449190891
 20
317.4635536903759
 11
539.4988832276547
 21
317.7816286836223
 97
        0
 75
     0
 76
     1
 98
        0
  0
LWPOLYLINE
  5
325
330
320
100
AcDbEntity
  8
Default
  6
Continuous
 62
     7
 48
25.4
370
     9
100
AcDbPolyline
 90
        4
 70
     1
 43
0.0
 10
539.4988832277
 20
317.7816286836
 10
537.8972390936
 20
321.5071061127
 10
538.2040449191
 20
317.4635536904
 10
539.4988832277
 20
317.7816286836
  0
LINE
  5
326
330
320
100
AcDbEntity
  8
Default
  6
Continuous
 62
     7
 48
25.4
100
AcDbLine
 10
543.9814238341
 20
296.7533111384
 30
0.0
 11
539.1560180576
 21
296.7533111384
 31
0.0
  0
LINE
  5
327
330
320
100
AcDbEntity
  8
Default
  6
Continuous
 62
     7
 48
25.4
100
AcDbLine
 10
503.4668984639
 20
312.281885177
 30
0.0
 11
539.8290927496
 21
322.0247235988
 31
0.0
  0
ARC
  5
328
330
320
100
AcDbEntity
  8
Default
  6
Continuous
 62
     7
 48
25.4
100
AcDbCircle
 10
445.5111979039
 20
296.7533111384
 30
0.0
 40
95.64481675624597
100
AcDbArc
 50
0.0
 51
14.9994386344
  0
TEXT
  5
329
330
320
100
AcDbEntity
  8
Default
  6
Continuous
 62
     7
 48
25.4
100
AcDbText
 10
540.7731323375
 20
313.5919412276
 30
0.0
 40
4.0
  1
15°
 50
277.4997190751
  7
SEACAD_arial_ttf
 11
544.7389143428
 21
314.114026552
 31
0.0
100
AcDbText
 73
     3
  0
ENDBLK
  5
32B
330
320
100
AcDbEntity
  8
0
100
AcDbBlockEnd
  0
BLOCK
  5
335
330
32C
100
AcDbEntity
  8
0
100
AcDbBlockBegin
  2
GDimGGroup12
 70
     0
 71
     0
 10
0.0
 20
0.0
 30
0.0
  3
GDimGGroup12
  1

  0
HATCH
  5
32E
330
32C
100
AcDbEntity
  8
Default
  6
Continuous
 62
     7
 48
25.4
100
AcDbHatch
 10
0.0
 20
0.0
 30
0.0
210
0.0
220
0.0
230
1.0
  2
SOLID
 70
     1
 71
     0
 91
        1
 92
        1
 93
        3
 72
     1
 10
529.8517766167048
 20
252.6609883931458
 11
528.5086784327349
 21
248.8346934130378
 72
     1
 10
528.5086784327349
 20
248.8346934130378
 11
531.0201372489576
 21
252.0185622264471
 72
     1
 10
531.0201372489576
 20
252.018562226447
 11
529.8517766167048
 21
252.6609883931457
 97
        0
 75
     0
 76
     1
 98
        0
  0
LWPOLYLINE
  5
32F
330
32C
100
AcDbEntity
  8
Default
  6
Continuous
 62
     7
 48
25.4
370
     9
100
AcDbPolyline
 90
        4
 70
     1
 43
0.0
 10
529.8517766167
 20
252.6609883931
 10
528.5086784327
 20
248.834693413
 10
531.020137249
 20
252.0185622264
 10
529.8517766167
 20
252.6609883931
  0
HATCH
  5
330
330
32C
100
AcDbEntity
  8
Default
  6
Continuous
 62
     7
 48
25.4
100
AcDbHatch
 10
0.0
 20
0.0
 30
0.0
210
0.0
220
0.0
230
1.0
  2
SOLID
 70
     1
 71
     0
 91
        1
 92
        1
 93
        3
 72
     1
 10
541.9314861378608
 20
292.7402718598797
 11
541.3484333546642
 21
296.7533125348031
 72
     1
 10
541.3484333546641
 20
296.753312534803
 11
540.598443065821
 21
292.7680947774874
 72
     1
 10
540.598443065821
 20
292.7680947774874
 11
541.9314861378607
 21
292.7402718598796
 97
        0
 75
     0
 76
     1
 98
        0
  0
LWPOLYLINE
  5
331
330
32C
100
AcDbEntity
  8
Default
  6
Continuous
 62
     7
 48
25.4
370
     9
100
AcDbPolyline
 90
        4
 70
     1
 43
0.0
 10
541.9314861379
 20
292.7402718599
 10
541.3484333547
 20
296.7533125348
 10
540.5984430658
 20
292.7680947775
 10
541.9314861379
 20
292.7402718599
  0
LINE
  5
332
330
32C
100
AcDbEntity
  8
Default
  6
Continuous
 62
     7
 48
25.4
100
AcDbLine
 10
445.5111979039
 20
296.7533111384
 30
0.0
 11
543.3484299572
 21
296.7533111384
 31
0.0
  0
ARC
  5
333
330
32C
100
AcDbEntity
  8
Default
  6
Continuous
 62
     7
 48
25.4
100
AcDbCircle
 10
445.5111979039
 20
296.7533111384
 30
0.0
 40
95.83723545074352
100
AcDbArc
 50
330.0
 51
0.0000008348
  0
TEXT
  5
334
330
32C
100
AcDbEntity
  8
Default
  6
Continuous
 62
     7
 48
25.4
100
AcDbText
 10
536.0141387275
 20
268.0919444634
 30
0.0
 40
4.0
  1
30°
 50
75.0
  7
SEACAD_arial_ttf
 11
532.1504354223
 21
269.1272206438
 31
0.0
100
AcDbText
 73
     3
  0
ENDBLK
  5
336
330
32C
100
AcDbEntity
  8
0
100
AcDbBlockEnd
  0
BLOCK
  5
341
330
337
100
AcDbEntity
  8
0
100
AcDbBlockBegin
  2
GDimGGroup13
 70
     0
 71
     0
 10
0.0
 20
0.0
 30
0.0
  3
GDimGGroup13
  1

  0
HATCH
  5
339
330
337
100
AcDbEntity
  8
Default
  6
Continuous
 62
     7
 48
25.4
100
AcDbHatch
 10
0.0
 20
0.0
 30
0.0
210
0.0
220
0.0
230
1.0
  2
SOLID
 70
     1
 71
     0
 91
        1
 92
        1
 93
        3
 72
     1
 10
216.819248866931
 20
180.8528778305879
 11
220.8192490569208
 21
181.5195445289195
 72
     1
 10
220.8192490569208
 20
181.5195445289195
 11
216.819248866931
 21
182.1862112272511
 72
     1
 10
216.819248866931
 20
182.1862112272511
 11
216.819248866931
 21
180.8528778305879
 97
        0
 75
     0
 76
     1
 98
        0
  0
LWPOLYLINE
  5
33A
330
337
100
AcDbEntity
  8
Default
  6
Continuous
 62
     7
 48
25.4
370
     9
100
AcDbPolyline
 90
        4
 70
     1
 43
0.0
 10
216.8192488669
 20
180.8528778306
 10
220.8192490569
 20
181.5195445289
 10
216.8192488669
 20
182.1862112273
 10
216.8192488669
 20
180.8528778306
  0
HATCH
  5
33B
330
337
100
AcDbEntity
  8
Default
  6
Continuous
 62
     7
 48
25.4
100
AcDbHatch
 10
0.0
 20
0.0
 30
0.0
210
0.0
220
0.0
230
1.0
  2
SOLID
 70
     1
 71
     0
 91
        1
 92
        1
 93
        3
 72
     1
 10
135.2192524417195
 20
180.8528778305879
 11
135.2192524417195
 21
182.1862112272511
 72
     1
 10
135.2192524417195
 20
182.1862112272511
 11
131.2192522517297
 21
181.5195445289195
 72
     1
 10
131.2192522517297
 20
181.5195445289195
 11
135.2192524417195
 21
180.8528778305879
 97
        0
 75
     0
 76
     1
 98
        0
  0
LWPOLYLINE
  5
33C
330
337
100
AcDbEntity
  8
Default
  6
Continuous
 62
     7
 48
25.4
370
     9
100
AcDbPolyline
 90
        4
 70
     1
 43
0.0
 10
135.2192524417
 20
180.8528778306
 10
131.2192522517
 20
181.5195445289
 10
135.2192524417
 20
182.1862112273
 10
135.2192524417
 20
180.8528778306
  0
LINE
  5
33D
330
337
100
AcDbEntity
  8
Default
  6
Continuous
 62
     7
 48
25.4
100
AcDbLine
 10
220.8192490569
 20
213.2341217568
 30
0.0
 11
220.8192490569
 21
179.5195444339
 31
0.0
  0
LINE
  5
33E
330
337
100
AcDbEntity
  8
Default
  6
Continuous
 62
     7
 48
25.4
100
AcDbLine
 10
131.2192490569
 20
234.3736058579
 30
0.0
 11
131.2192490569
 21
179.5195444339
 31
0.0
  0
LINE
  5
33F
330
337
100
AcDbEntity
  8
Default
  6
Continuous
 62
     7
 48
25.4
100
AcDbLine
 10
220.8192490569
 20
181.5195445289
 30
0.0
 11
131.2192522517
 21
181.5195445289
 31
0.0
  0
TEXT
  5
340
330
337
100
AcDbEntity
  8
Default
  6
Continuous
 62
     7
 48
25.4
100
AcDbText
 10
171.3235984804
 20
182.5195445289
 30
0.0
 40
4.0
  1
112
  7
SEACAD_arial_ttf
 11
171.3235984804
 21
186.5195445289
 31
0.0
100
AcDbText
 73
     3
  0
ENDBLK
  5
342
330
337
100
AcDbEntity
  8
0
100
AcDbBlockEnd
  0
BLOCK
  5
34C
330
343
100
AcDbEntity
  8
0
100
AcDbBlockBegin
  2
GDimGGroup14
 70
     0
 71
     0
 10
0.0
 20
0.0
 30
0.0
  3
GDimGGroup14
  1

  0
HATCH
  5
345
330
343
100
AcDbEntity
  8
Default
  6
Continuous
 62
     7
 48
25.4
100
AcDbHatch
 10
0.0
 20
0.0
 30
0.0
210
0.0
220
0.0
230
1.0
  2
SOLID
 70
     1
 71
     0
 91
        1
 92
        1
 93
        3
 72
     1
 10
136.8191552456058
 20
218.5258359657602
 11
140.8191554355956
 21
219.1925026640919
 72
     1
 10
140.8191554355956
 20
219.1925026640919
 11
136.8191552456058
 21
219.8591693624235
 72
     1
 10
136.8191552456058
 20
219.8591693624235
 11
136.8191552456058
 21
218.5258359657602
 97
        0
 75
     0
 76
     1
 98
        0
  0
LWPOLYLINE
  5
346
330
343
100
AcDbEntity
  8
Default
  6
Continuous
 62
     7
 48
25.4
370
     9
100
AcDbPolyline
 90
        4
 70
     1
 43
0.0
 10
136.8191552456
 20
218.5258359658
 10
140.8191554356
 20
219.1925026641
 10
136.8191552456
 20
219.8591693624
 10
136.8191552456
 20
218.5258359658
  0
HATCH
  5
347
330
343
100
AcDbEntity
  8
Default
  6
Continuous
 62
     7
 48
25.4
100
AcDbHatch
 10
0.0
 20
0.0
 30
0.0
210
0.0
220
0.0
230
1.0
  2
SOLID
 70
     1
 71
     0
 91
        1
 92
        1
 93
        3
 72
     1
 10
148.8192492469106
 20
218.5258359657602
 11
148.8192492469106
 21
219.8591693624235
 72
     1
 10
148.8192492469106
 20
219.8591693624235
 11
144.8192490569208
 21
219.1925026640919
 72
     1
 10
144.8192490569208
 20
219.1925026640919
 11
148.8192492469106
 21
218.5258359657602
 97
        0
 75
     0
 76
     1
 98
        0
  0
LWPOLYLINE
  5
348
330
343
100
AcDbEntity
  8
Default
  6
Continuous
 62
     7
 48
25.4
370
     9
100
AcDbPolyline
 90
        4
 70
     1
 43
0.0
 10
148.8192492469
 20
218.5258359658
 10
144.8192490569
 20
219.1925026641
 10
148.8192492469
 20
219.8591693624
 10
148.8192492469
 20
218.5258359658
  0
LINE
  5
349
330
343
100
AcDbEntity
  8
Default
  6
Continuous
 62
     7
 48
25.4
100
AcDbLine
 10
144.8192490569
 20
234.3736058579
 30
0.0
 11
144.8192490569
 21
217.1925025691
 31
0.0
  0
LINE
  5
34A
330
343
100
AcDbEntity
  8
Default
  6
Continuous
 62
     7
 48
25.4
100
AcDbLine
 10
132.8191550556
 20
219.1925026641
 30
0.0
 11
157.274155702
 21
219.1925026641
 31
0.0
  0
TEXT
  5
34B
330
343
100
AcDbEntity
  8
Default
  6
Continuous
 62
     7
 48
25.4
100
AcDbText
 10
152.7437198583
 20
220.1925026641
 30
0.0
 40
4.0
  1
5
  7
SEACAD_arial_ttf
 11
152.7437198583
 21
224.1925026641
 31
0.0
100
AcDbText
 73
     3
  0
ENDBLK
  5
34D
330
343
100
AcDbEntity
  8
0
100
AcDbBlockEnd
  0
BLOCK
  5
359
330
34E
100
AcDbEntity
  8
0
100
AcDbBlockBegin
  2
GDimGGroup15
 70
     0
 71
     0
 10
0.0
 20
0.0
 30
0.0
  3
GDimGGroup15
  1

  0
HATCH
  5
350
330
34E
100
AcDbEntity
  8
Default
  6
Continuous
 62
     7
 48
25.4
100
AcDbHatch
 10
0.0
 20
0.0
 30
0.0
210
0.0
220
0.0
230
1.0
  2
SOLID
 70
     1
 71
     0
 91
        1
 92
        1
 93
        3
 72
     1
 10
96.39238431381222
 20
275.6341219467402
 11
97.05905101214385
 21
271.6341217567504
 72
     1
 10
97.05905101214385
 20
271.6341217567504
 11
97.72571771047549
 21
275.6341219467402
 72
     1
 10
97.72571771047549
 20
275.6341219467402
 11
96.39238431381222
 21
275.6341219467402
 97
        0
 75
     0
 76
     1
 98
        0
  0
LWPOLYLINE
  5
351
330
34E
100
AcDbEntity
  8
Default
  6
Continuous
 62
     7
 48
25.4
370
     9
100
AcDbPolyline
 90
        4
 70
     1
 43
0.0
 10
96.3923843138
 20
275.6341219467
 10
97.0590510121
 20
271.6341217568
 10
97.7257177105
 20
275.6341219467
 10
96.3923843138
 20
275.6341219467
  0
HATCH
  5
352
330
34E
100
AcDbEntity
  8
Default
  6
Continuous
 62
     7
 48
25.4
100
AcDbHatch
 10
0.0
 20
0.0
 30
0.0
210
0.0
220
0.0
230
1.0
  2
SOLID
 70
     1
 71
     0
 91
        1
 92
        1
 93
        3
 72
     1
 10
96.39238431381222
 20
318.0341216323257
 11
97.72571771047549
 21
318.0341216323257
 72
     1
 10
97.72571771047549
 20
318.0341216323257
 11
97.05905101214385
 21
322.0341218223155
 72
     1
 10
97.05905101214385
 20
322.0341218223155
 11
96.39238431381222
 21
318.0341216323257
 97
        0
 75
     0
 76
     1
 98
        0
  0
LWPOLYLINE
  5
353
330
34E
100
AcDbEntity
  8
Default
  6
Continuous
 62
     7
 48
25.4
370
     9
100
AcDbPolyline
 90
        4
 70
     1
 43
0.0
 10
96.3923843138
 20
318.0341216323
 10
97.0590510121
 20
322.0341218223
 10
97.7257177105
 20
318.0341216323
 10
96.3923843138
 20
318.0341216323
  0
LINE
  5
354
330
34E
100
AcDbEntity
  8
Default
  6
Continuous
 62
     7
 48
25.4
100
AcDbLine
 10
148.0192490569
 20
271.6341217568
 30
0.0
 11
95.0590509171
 21
271.6341217568
 31
0.0
  0
LINE
  5
355
330
34E
100
AcDbEntity
  8
Default
  6
Continuous
 62
     7
 48
25.4
100
AcDbLine
 10
148.0192490569
 20
322.0341217568
 30
0.0
 11
95.0590509171
 21
322.0341217568
 31
0.0
  0
LINE
  5
356
330
34E
100
AcDbEntity
  8
Default
  6
Continuous
 62
     7
 48
25.4
100
AcDbLine
 10
97.0590510121
 20
271.6341217568
 30
0.0
 11
97.0590510121
 21
322.0341218223
 31
0.0
  0
TEXT
  5
357
330
34E
100
AcDbEntity
  8
Default
  6
Continuous
 62
     7
 48
25.4
100
AcDbText
 10
96.0590510121
 20
297.3843887613
 30
0.0
 40
4.0
  1
63
 50
90.0
  7
SEACAD_arial_ttf
 11
92.0590510121
 21
297.3843887613
 31
0.0
100
AcDbText
 73
     3
  0
TEXT
  5
358
330
34E
100
AcDbEntity
  8
Default
  6
Continuous
 62
     7
 48
25.4
100
AcDbText
 10
96.0590510121
 20
290.0229852525
 30
0.0
 40
4.0
  1
O
 50
90.0
  7
SEACAD_semeca1_ttf
 11
92.0590510121
 21
290.0229852525
 31
0.0
100
AcDbText
 73
     3
  0
ENDBLK
  5
35A
330
34E
100
AcDbEntity
  8
0
100
AcDbBlockEnd
  0
BLOCK
  5
364
330
35B
100
AcDbEntity
  8
0
100
AcDbBlockBegin
  2
GDimGGroup16
 70
     0
 71
     0
 10
0.0
 20
0.0
 30
0.0
  3
GDimGGroup16
  1

  0
HATCH
  5
35D
330
35B
100
AcDbEntity
  8
Default
  6
Continuous
 62
     7
 48
25.4
100
AcDbHatch
 10
0.0
 20
0.0
 30
0.0
210
0.0
220
0.0
230
1.0
  2
SOLID
 70
     1
 71
     0
 91
        1
 92
        1
 93
        3
 72
     1
 10
159.4945485524414
 20
304.8341215667606
 11
158.8278818541098
 21
308.8341217567504
 72
     1
 10
158.8278818541098
 20
308.8341217567504
 11
158.1612151557782
 21
304.8341215667606
 72
     1
 10
158.1612151557782
 20
304.8341215667606
 11
159.4945485524414
 21
304.8341215667606
 97
        0
 75
     0
 76
     1
 98
        0
  0
LWPOLYLINE
  5
35E
330
35B
100
AcDbEntity
  8
Default
  6
Continuous
 62
     7
 48
25.4
370
     9
100
AcDbPolyline
 90
        4
 70
     1
 43
0.0
 10
159.4945485524
 20
304.8341215668
 10
158.8278818541
 20
308.8341217568
 10
158.1612151558
 20
304.8341215668
 10
159.4945485524
 20
304.8341215668
  0
HATCH
  5
35F
330
35B
100
AcDbEntity
  8
Default
  6
Continuous
 62
     7
 48
25.4
100
AcDbHatch
 10
0.0
 20
0.0
 30
0.0
210
0.0
220
0.0
230
1.0
  2
SOLID
 70
     1
 71
     0
 91
        1
 92
        1
 93
        3
 72
     1
 10
159.4945485524414
 20
288.8341217381239
 11
158.1612151557782
 21
288.8341217381239
 72
     1
 10
158.1612151557782
 20
288.8341217381239
 11
158.8278818541098
 21
284.8341215481341
 72
     1
 10
158.8278818541098
 20
284.8341215481341
 11
159.4945485524414
 21
288.8341217381239
 97
        0
 75
     0
 76
     1
 98
        0
  0
LWPOLYLINE
  5
360
330
35B
100
AcDbEntity
  8
Default
  6
Continuous
 62
     7
 48
25.4
370
     9
100
AcDbPolyline
 90
        4
 70
     1
 43
0.0
 10
159.4945485524
 20
288.8341217381
 10
158.8278818541
 20
284.8341215481
 10
158.1612151558
 20
288.8341217381
 10
159.4945485524
 20
288.8341217381
  0
LINE
  5
361
330
35B
100
AcDbEntity
  8
Default
  6
Continuous
 62
     7
 48
25.4
100
AcDbLine
 10
158.8278818541
 20
308.8341217568
 30
0.0
 11
158.8278818541
 21
284.8341215481
 31
0.0
  0
TEXT
  5
362
330
35B
100
AcDbEntity
  8
Default
  6
Continuous
 62
     7
 48
25.4
100
AcDbText
 10
157.8278818541
 20
297.3843886242
 30
0.0
 40
4.0
  1
30
 50
90.0
  7
SEACAD_arial_ttf
 11
153.8278818541
 21
297.3843886242
 31
0.0
100
AcDbText
 73
     3
  0
TEXT
  5
363
330
35B
100
AcDbEntity
  8
Default
  6
Continuous
 62
     7
 48
25.4
100
AcDbText
 10
157.8278818541
 20
290.0229851154
 30
0.0
 40
4.0
  1
O
 50
90.0
  7
SEACAD_semeca1_ttf
 11
153.8278818541
 21
290.0229851154
 31
0.0
100
AcDbText
 73
     3
  0
ENDBLK
  5
365
330
35B
100
AcDbEntity
  8
0
100
AcDbBlockEnd
  0
BLOCK
  5
36F
330
366
100
AcDbEntity
  8
0
100
AcDbBlockBegin
  2
GDimGGroup17
 70
     0
 71
     0
 10
0.0
 20
0.0
 30
0.0
  3
GDimGGroup17
  1

  0
HATCH
  5
368
330
366
100
AcDbEntity
  8
Default
  6
Continuous
 62
     7
 48
25.4
100
AcDbHatch
 10
0.0
 20
0.0
 30
0.0
210
0.0
220
0.0
230
1.0
  2
SOLID
 70
     1
 71
     0
 91
        1
 92
        1
 93
        3
 72
     1
 10
206.3392192982339
 20
282.8341219467403
 11
207.0058859965656
 21
278.8341217567505
 72
     1
 10
207.0058859965656
 20
278.8341217567505
 11
207.6725526948972
 21
282.8341219467403
 72
     1
 10
207.6725526948972
 20
282.8341219467403
 11
206.3392192982339
 21
282.8341219467403
 97
        0
 75
     0
 76
     1
 98
        0
  0
LWPOLYLINE
  5
369
330
366
100
AcDbEntity
  8
Default
  6
Continuous
 62
     7
 48
25.4
370
     9
100
AcDbPolyline
 90
        4
 70
     1
 43
0.0
 10
206.3392192982
 20
282.8341219467
 10
207.0058859966
 20
278.8341217568
 10
207.6725526949
 20
282.8341219467
 10
206.3392192982
 20
282.8341219467
  0
HATCH
  5
36A
330
366
100
AcDbEntity
  8
Default
  6
Continuous
 62
     7
 48
25.4
100
AcDbHatch
 10
0.0
 20
0.0
 30
0.0
210
0.0
220
0.0
230
1.0
  2
SOLID
 70
     1
 71
     0
 91
        1
 92
        1
 93
        3
 72
     1
 10
206.3392192982339
 20
310.8341200170399
 11
207.6725526948972
 21
310.8341200170399
 72
     1
 10
207.6725526948972
 20
310.8341200170399
 11
207.0058859965656
 21
314.8341202070297
 72
     1
 10
207.0058859965656
 20
314.8341202070297
 11
206.3392192982339
 21
310.8341200170399
 97
        0
 75
     0
 76
     1
 98
        0
  0
LWPOLYLINE
  5
36B
330
366
100
AcDbEntity
  8
Default
  6
Continuous
 62
     7
 48
25.4
370
     9
100
AcDbPolyline
 90
        4
 70
     1
 43
0.0
 10
206.3392192982
 20
310.834120017
 10
207.0058859966
 20
314.834120207
 10
207.6725526949
 20
310.834120017
 10
206.3392192982
 20
310.834120017
  0
LINE
  5
36C
330
366
100
AcDbEntity
  8
Default
  6
Continuous
 62
     7
 48
25.4
100
AcDbLine
 10
207.0058859966
 20
278.8341217568
 30
0.0
 11
207.0058859966
 21
314.834120207
 31
0.0
  0
TEXT
  5
36D
330
366
100
AcDbEntity
  8
Default
  6
Continuous
 62
     7
 48
25.4
100
AcDbText
 10
206.0058859966
 20
297.3843879537
 30
0.0
 40
4.0
  1
45
 50
90.0
  7
SEACAD_arial_ttf
 11
202.0058859966
 21
297.3843879537
 31
0.0
100
AcDbText
 73
     3
  0
TEXT
  5
36E
330
366
100
AcDbEntity
  8
Default
  6
Continuous
 62
     7
 48
25.4
100
AcDbText
 10
206.0058859966
 20
290.0229844449
 30
0.0
 40
4.0
  1
O
 50
90.0
  7
SEACAD_semeca1_ttf
 11
202.0058859966
 21
290.0229844449
 31
0.0
100
AcDbText
 73
     3
  0
ENDBLK
  5
370
330
366
100
AcDbEntity
  8
0
100
AcDbBlockEnd
  0
BLOCK
  5
37C
330
371
100
AcDbEntity
  8
0
100
AcDbBlockBegin
  2
GDimGGroup18
 70
     0
 71
     0
 10
0.0
 20
0.0
 30
0.0
  3
GDimGGroup18
  1

  0
HATCH
  5
373
330
371
100
AcDbEntity
  8
Default
  6
Continuous
 62
     7
 48
25.4
100
AcDbHatch
 10
0.0
 20
0.0
 30
0.0
210
0.0
220
0.0
230
1.0
  2
SOLID
 70
     1
 71
     0
 91
        1
 92
        1
 93
        3
 72
     1
 10
81.05356448816293
 20
264.0341219467402
 11
81.72023118649457
 21
260.0341217567504
 72
     1
 10
81.72023118649457
 20
260.0341217567504
 11
82.38689788482621
 21
264.0341219467402
 72
     1
 10
82.38689788482621
 20
264.0341219467402
 11
81.05356448816293
 21
264.0341219467402
 97
        0
 75
     0
 76
     1
 98
        0
  0
LWPOLYLINE
  5
374
330
371
100
AcDbEntity
  8
Default
  6
Continuous
 62
     7
 48
25.4
370
     9
100
AcDbPolyline
 90
        4
 70
     1
 43
0.0
 10
81.0535644882
 20
264.0341219467
 10
81.7202311865
 20
260.0341217568
 10
82.3868978848
 20
264.0341219467
 10
81.0535644882
 20
264.0341219467
  0
HATCH
  5
375
330
371
100
AcDbEntity
  8
Default
  6
Continuous
 62
     7
 48
25.4
100
AcDbHatch
 10
0.0
 20
0.0
 30
0.0
210
0.0
220
0.0
230
1.0
  2
SOLID
 70
     1
 71
     0
 91
        1
 92
        1
 93
        3
 72
     1
 10
81.05356448816293
 20
329.6341231999278
 11
82.38689788482621
 21
329.6341231999278
 72
     1
 10
82.38689788482621
 20
329.6341231999278
 11
81.72023118649457
 21
333.6341233899177
 72
     1
 10
81.72023118649457
 20
333.6341233899177
 11
81.05356448816293
 21
329.6341231999278
 97
        0
 75
     0
 76
     1
 98
        0
  0
LWPOLYLINE
  5
376
330
371
100
AcDbEntity
  8
Default
  6
Continuous
 62
     7
 48
25.4
370
     9
100
AcDbPolyline
 90
        4
 70
     1
 43
0.0
 10
81.0535644882
 20
329.6341231999
 10
81.7202311865
 20
333.6341233899
 10
82.3868978848
 20
329.6341231999
 10
81.0535644882
 20
329.6341231999
  0
LINE
  5
377
330
371
100
AcDbEntity
  8
Default
  6
Continuous
 62
     7
 48
25.4
100
AcDbLine
 10
145.6192490569
 20
260.0341217568
 30
0.0
 11
79.7202310915
 21
260.0341217568
 31
0.0
  0
LINE
  5
378
330
371
100
AcDbEntity
  8
Default
  6
Continuous
 62
     7
 48
25.4
100
AcDbLine
 10
145.6192490569
 20
333.6341217568
 30
0.0
 11
79.7202310915
 21
333.6341217568
 31
0.0
  0
LINE
  5
379
330
371
100
AcDbEntity
  8
Default
  6
Continuous
 62
     7
 48
25.4
100
AcDbLine
 10
81.7202311865
 20
260.0341217568
 30
0.0
 11
81.7202311865
 21
333.6341233899
 31
0.0
  0
TEXT
  5
37A
330
371
100
AcDbEntity
  8
Default
  6
Continuous
 62
     7
 48
25.4
100
AcDbText
 10
80.7202311865
 20
297.3843895451
 30
0.0
 40
4.0
  1
92
 50
90.0
  7
SEACAD_arial_ttf
 11
76.7202311865
 21
297.3843895451
 31
0.0
100
AcDbText
 73
     3
  0
TEXT
  5
37B
330
371
100
AcDbEntity
  8
Default
  6
Continuous
 62
     7
 48
25.4
100
AcDbText
 10
80.7202311865
 20
290.0229860363
 30
0.0
 40
4.0
  1
O
 50
90.0
  7
SEACAD_semeca1_ttf
 11
76.7202311865
 21
290.0229860363
 31
0.0
100
AcDbText
 73
     3
  0
ENDBLK
  5
37D
330
371
100
AcDbEntity
  8
0
100
AcDbBlockEnd
  0
BLOCK
  5
38A
330
37E
100
AcDbEntity
  8
0
100
AcDbBlockBegin
  2
GDimGGroup19
 70
     0
 71
     0
 10
0.0
 20
0.0
 30
0.0
  3
GDimGGroup19
  1

  0
HATCH
  5
380
330
37E
100
AcDbEntity
  8
Default
  6
Continuous
 62
     7
 48
25.4
100
AcDbHatch
 10
0.0
 20
0.0
 30
0.0
210
0.0
220
0.0
230
1.0
  2
SOLID
 70
     1
 71
     0
 91
        1
 92
        1
 93
        3
 72
     1
 10
277.5020677938477
 20
300.8341219467402
 11
276.1687343971844
 21
300.8341219467402
 72
     1
 10
276.1687343971844
 20
300.8341219467402
 11
276.8354010955161
 21
296.8341217567504
 72
     1
 10
276.8354010955161
 20
296.8341217567504
 11
277.5020677938477
 21
300.8341219467402
 97
        0
 75
     0
 76
     1
 98
        0
  0
LWPOLYLINE
  5
381
330
37E
100
AcDbEntity
  8
Default
  6
Continuous
 62
     7
 48
25.4
370
     9
100
AcDbPolyline
 90
        4
 70
     1
 43
0.0
 10
277.5020677938
 20
300.8341219467
 10
276.8354010955
 20
296.8341217568
 10
276.1687343972
 20
300.8341219467
 10
277.5020677938
 20
300.8341219467
  0
HATCH
  5
382
330
37E
100
AcDbEntity
  8
Default
  6
Continuous
 62
     7
 48
25.4
100
AcDbHatch
 10
0.0
 20
0.0
 30
0.0
210
0.0
220
0.0
230
1.0
  2
SOLID
 70
     1
 71
     0
 91
        1
 92
        1
 93
        3
 72
     1
 10
277.5020677938477
 20
335.2341203210235
 11
276.8354010955161
 21
339.2341205110133
 72
     1
 10
276.8354010955161
 20
339.2341205110133
 11
276.1687343971844
 21
335.2341203210235
 72
     1
 10
276.1687343971844
 20
335.2341203210235
 11
277.5020677938477
 21
335.2341203210235
 97
        0
 75
     0
 76
     1
 98
        0
  0
LWPOLYLINE
  5
383
330
37E
100
AcDbEntity
  8
Default
  6
Continuous
 62
     7
 48
25.4
370
     9
100
AcDbPolyline
 90
        4
 70
     1
 43
0.0
 10
277.5020677938
 20
335.234120321
 10
276.8354010955
 20
339.234120511
 10
276.1687343972
 20
335.234120321
 10
277.5020677938
 20
335.234120321
  0
LINE
  5
384
330
37E
100
AcDbEntity
  8
Default
  6
Continuous
 62
     7
 48
25.4
100
AcDbLine
 10
275.706278761
 20
296.8341217568
 30
0.0
 11
278.8354011905
 21
296.8341217568
 31
0.0
  0
LINE
  5
385
330
37E
100
AcDbEntity
  8
Default
  6
Continuous
 62
     7
 48
25.4
100
AcDbLine
 10
215.7284057199
 20
339.2341217568
 30
0.0
 11
278.8354011905
 21
339.2341217568
 31
0.0
  0
LINE
  5
386
330
37E
100
AcDbEntity
  8
Default
  6
Continuous
 62
     7
 48
25.4
100
AcDbLine
 10
276.8354010955
 20
270.4236426582
 30
0.0
 11
276.8354010955
 21
339.234120511
 31
0.0
  0
TEXT
  5
387
330
37E
100
AcDbEntity
  8
Default
  6
Continuous
 62
     7
 48
25.4
100
AcDbText
 10
269.8354010955
 20
286.5366870615
 30
0.0
 40
4.0
  1
53
 50
90.0
  7
SEACAD_arial_ttf
 11
265.8354010955
 21
286.5366870615
 31
0.0
100
AcDbText
 73
     3
  0
TEXT
  5
388
330
37E
100
AcDbEntity
  8
Default
  6
Continuous
 62
     7
 48
25.4
100
AcDbText
 10
269.8354010955
 20
271.8236435832
 30
0.0
 40
4.0
  1
MAX
 50
90.0
  7
SEACAD_arial_ttf
 11
265.8354010955
 21
271.8236435832
 31
0.0
100
AcDbText
 73
     3
  0
TEXT
  5
389
330
37E
100
AcDbEntity
  8
Default
  6
Continuous
 62
     7
 48
25.4
100
AcDbText
 10
275.8354010955
 20
271.8236435832
 30
0.0
 40
4.0
  1
MIN 40.5
 50
90.0
  7
SEACAD_arial_ttf
 11
271.8354010955
 21
271.8236435832
 31
0.0
100
AcDbText
 73
     3
  0
ENDBLK
  5
38B
330
37E
100
AcDbEntity
  8
0
100
AcDbBlockEnd
  0
BLOCK
  5
396
330
38C
100
AcDbEntity
  8
0
100
AcDbBlockBegin
  2
GDimGGroup20
 70
     0
 71
     0
 10
0.0
 20
0.0
 30
0.0
  3
GDimGGroup20
  1

  0
HATCH
  5
38E
330
38C
100
AcDbEntity
  8
Default
  6
Continuous
 62
     7
 48
25.4
100
AcDbHatch
 10
0.0
 20
0.0
 30
0.0
210
0.0
220
0.0
230
1.0
  2
SOLID
 70
     1
 71
     0
 91
        1
 92
        1
 93
        3
 72
     1
 10
187.9083634935522
 20
378.8341215667606
 11
189.2416968902154
 21
378.8341215667606
 72
     1
 10
189.2416968902154
 20
378.8341215667606
 11
188.5750301918838
 21
382.8341217567504
 72
     1
 10
188.5750301918838
 20
382.8341217567504
 11
187.9083634935522
 21
378.8341215667606
 97
        0
 75
     0
 76
     1
 98
        0
  0
LWPOLYLINE
  5
38F
330
38C
100
AcDbEntity
  8
Default
  6
Continuous
 62
     7
 48
25.4
370
     9
100
AcDbPolyline
 90
        4
 70
     1
 43
0.0
 10
187.9083634936
 20
378.8341215668
 10
188.5750301919
 20
382.8341217568
 10
189.2416968902
 20
378.8341215668
 10
187.9083634936
 20
378.8341215668
  0
HATCH
  5
390
330
38C
100
AcDbEntity
  8
Default
  6
Continuous
 62
     7
 48
25.4
100
AcDbHatch
 10
0.0
 20
0.0
 30
0.0
210
0.0
220
0.0
230
1.0
  2
SOLID
 70
     1
 71
     0
 91
        1
 92
        1
 93
        3
 72
     1
 10
187.9083634935522
 20
388.8341219467402
 11
188.5750301918838
 21
384.8341217567504
 72
     1
 10
188.5750301918838
 20
384.8341217567504
 11
189.2416968902154
 21
388.8341219467402
 72
     1
 10
189.2416968902154
 20
388.8341219467402
 11
187.9083634935522
 21
388.8341219467402
 97
        0
 75
     0
 76
     1
 98
        0
  0
LWPOLYLINE
  5
391
330
38C
100
AcDbEntity
  8
Default
  6
Continuous
 62
     7
 48
25.4
370
     9
100
AcDbPolyline
 90
        4
 70
     1
 43
0.0
 10
187.9083634936
 20
388.8341219467
 10
188.5750301919
 20
384.8341217568
 10
189.2416968902
 20
388.8341219467
 10
187.9083634936
 20
388.8341219467
  0
LINE
  5
392
330
38C
100
AcDbEntity
  8
Default
  6
Continuous
 62
     7
 48
25.4
100
AcDbLine
 10
192.2212851547
 20
384.8341217568
 30
0.0
 11
186.5750300969
 21
384.8341217568
 31
0.0
  0
LINE
  5
393
330
38C
100
AcDbEntity
  8
Default
  6
Continuous
 62
     7
 48
25.4
100
AcDbLine
 10
188.5750301919
 20
355.0960982074
 30
0.0
 11
188.5750301919
 21
392.8341215332
 31
0.0
  0
TEXT
  5
394
330
38C
100
AcDbEntity
  8
Default
  6
Continuous
 62
     7
 48
25.4
100
AcDbText
 10
187.5750301919
 20
371.2091410975
 30
0.0
 40
4.0
  1
2.5
 50
90.0
  7
SEACAD_arial_ttf
 11
183.5750301919
 21
371.2091410975
 31
0.0
100
AcDbText
 73
     3
  0
TEXT
  5
395
330
38C
100
AcDbEntity
  8
Default
  6
Continuous
 62
     7
 48
25.4
100
AcDbText
 10
187.5750301919
 20
356.4960976192
 30
0.0
 40
4.0
  1
MAX
 50
90.0
  7
SEACAD_arial_ttf
 11
183.5750301919
 21
356.4960976192
 31
0.0
100
AcDbText
 73
     3
  0
ENDBLK
  5
397
330
38C
100
AcDbEntity
  8
0
100
AcDbBlockEnd
  0
BLOCK
  5
3A1
330
398
100
AcDbEntity
  8
0
100
AcDbBlockBegin
  2
GDimGGroup21
 70
     0
 71
     0
 10
0.0
 20
0.0
 30
0.0
  3
GDimGGroup21
  1

  0
LINE
  5
39A
330
398
100
AcDbEntity
  8
Default
  6
Continuous
 62
     7
 48
25.4
100
AcDbLine
 10
445.5111979039
 20
296.7533111384
 30
0.0
 11
505.2331485121
 21
302.5229259111
 31
0.0
  0
HATCH
  5
39B
330
398
100
AcDbEntity
  8
Default
  6
Continuous
 62
     7
 48
25.4
100
AcDbHatch
 10
0.0
 20
0.0
 30
0.0
210
0.0
220
0.0
230
1.0
  2
SOLID
 70
     1
 71
     0
 91
        1
 92
        1
 93
        3
 72
     1
 10
501.1875793596943
 20
302.8018623036784
 11
501.3157930302652
 21
301.4747077530189
 72
     1
 10
501.3157930302652
 20
301.4747077530189
 11
505.2331498469583
 21
302.5229260400615
 72
     1
 10
505.2331498469583
 20
302.5229260400615
 11
501.1875793596943
 21
302.8018623036784
 97
        0
 75
     0
 76
     1
 98
        0
  0
LWPOLYLINE
  5
39C
330
398
100
AcDbEntity
  8
Default
  6
Continuous
 62
     7
 48
25.4
370
     9
100
AcDbPolyline
 90
        4
 70
     1
 43
0.0
 10
501.1875793597
 20
302.8018623037
 10
505.233149847
 20
302.5229260401
 10
501.3157930303
 20
301.474707753
 10
501.1875793597
 20
302.8018623037
  0
ARC
  5
39D
330
398
100
AcDbEntity
  8
Default
  6
Continuous
 62
     7
 48
25.4
100
AcDbCircle
 10
445.5111979039
 20
296.7533111384
 30
0.0
 40
59.99999999998272
100
AcDbArc
 50
3.6082435838
 51
12.7074541533
  0
TEXT
  5
39E
330
398
100
AcDbEntity
  8
Default
  6
Continuous
 62
     7
 48
25.4
100
AcDbText
 10
470.1483886696
 20
300.1381151577
 30
0.0
 40
4.0
  1
R
 50
5.5181029009
  7
SEACAD_arial_ttf
 11
469.7637476761
 21
304.1195786206
 31
0.0
100
AcDbText
 73
     3
  0
TEXT
  5
39F
330
398
100
AcDbEntity
  8
Default
  6
Continuous
 62
     7
 48
25.4
100
AcDbText
 10
476.5187302102
 20
300.7535407472
 30
0.0
 40
4.0
  1
75
 50
5.5181029009
  7
SEACAD_arial_ttf
 11
476.1340892167
 21
304.7350042101
 31
0.0
100
AcDbText
 73
     3
  0
TEXT
  5
3A0
330
398
100
AcDbEntity
  8
Default
  6
Continuous
 62
     7
 48
25.4
100
AcDbText
 10
484.7413177965
 20
301.5479080163
 30
0.0
 40
4.0
  1
±0.1
 50
5.5181029009
  7
SEACAD_arial_ttf
 11
484.3566768031
 21
305.5293714791
 31
0.0
100
AcDbText
 73
     3
  0
ENDBLK
  5
3A2
330
398
100
AcDbEntity
  8
0
100
AcDbBlockEnd
  0
BLOCK
  5
3AB
330
3A3
100
AcDbEntity
  8
0
100
AcDbBlockBegin
  2
GDimGGroup22
 70
     0
 71
     0
 10
0.0
 20
0.0
 30
0.0
  3
GDimGGroup22
  1

  0
LINE
  5
3A5
330
3A3
100
AcDbEntity
  8
Default
  6
Continuous
 62
     7
 48
25.4
100
AcDbLine
 10
445.5111979039
 20
296.7533111384
 30
0.0
 11
484.9146135862
 21
332.7347015999
 31
0.0
  0
HATCH
  5
3A6
330
3A3
100
AcDbEntity
  8
Default
  6
Continuous
 62
     7
 48
25.4
100
AcDbHatch
 10
0.0
 20
0.0
 30
0.0
210
0.0
220
0.0
230
1.0
  2
SOLID
 70
     1
 71
     0
 91
        1
 92
        1
 93
        3
 72
     1
 10
481.5112913580568
 20
330.5297422261412
 11
482.4103766154299
 21
329.5451490885295
 72
     1
 10
482.4103766154299
 20
329.5451490885295
 11
484.9146133995785
 21
332.7347014294545
 72
     1
 10
484.9146133995785
 20
332.7347014294545
 11
481.5112913580568
 21
330.5297422261412
 97
        0
 75
     0
 76
     1
 98
        0
  0
LWPOLYLINE
  5
3A7
330
3A3
100
AcDbEntity
  8
Default
  6
Continuous
 62
     7
 48
25.4
370
     9
100
AcDbPolyline
 90
        4
 70
     1
 43
0.0
 10
481.5112913581
 20
330.5297422261
 10
484.9146133996
 20
332.7347014295
 10
482.4103766154
 20
329.5451490885
 10
481.5112913581
 20
330.5297422261
  0
ARC
  5
3A8
330
3A3
100
AcDbEntity
  8
Default
  6
Continuous
 62
     7
 48
25.4
100
AcDbCircle
 10
445.5111979039
 20
296.7533111384
 30
0.0
 40
53.36000000002746
100
AcDbArc
 50
38.5852878875
 51
44.548412066
  0
TEXT
  5
3A9
330
3A3
100
AcDbEntity
  8
Default
  6
Continuous
 62
     7
 48
25.4
100
AcDbText
 10
465.7226656318
 20
316.5636930267
 30
0.0
 40
4.0
  1
R
 50
42.4008940932
  7
SEACAD_arial_ttf
 11
463.0254099878
 21
319.5174722992
 31
0.0
100
AcDbText
 73
     3
  0
TEXT
  5
3AA
330
3A3
100
AcDbEntity
  8
Default
  6
Continuous
 62
     7
 48
25.4
100
AcDbText
 10
470.4487124678
 20
320.8793020571
 30
0.0
 40
4.0
  1
66.7
 50
42.4008940932
  7
SEACAD_arial_ttf
 11
467.7514568238
 21
323.8330813296
 31
0.0
100
AcDbText
 73
     3
  0
ENDBLK
  5
3AC
330
3A3
100
AcDbEntity
  8
0
100
AcDbBlockEnd
  0
BLOCK
  5
3B7
330
3AD
100
AcDbEntity
  8
0
100
AcDbBlockBegin
  2
GDimGGroup23
 70
     0
 71
     0
 10
0.0
 20
0.0
 30
0.0
  3
GDimGGroup23
  1

  0
HATCH
  5
3AF
330
3AD
100
AcDbEntity
  8
Default
  6
Continuous
 62
     7
 48
25.4
100
AcDbHatch
 10
0.0
 20
0.0
 30
0.0
210
0.0
220
0.0
230
1.0
  2
SOLID
 70
     1
 71
     0
 91
        1
 92
        1
 93
        3
 72
     1
 10
143.219248866931
 20
306.5750486305585
 11
147.2192490569208
 21
307.2417153288902
 72
     1
 10
147.2192490569208
 20
307.2417153288902
 11
143.219248866931
 21
307.9083820272218
 72
     1
 10
143.219248866931
 20
307.9083820272218
 11
143.219248866931
 21
306.5750486305585
 97
        0
 75
     0
 76
     1
 98
        0
  0
LWPOLYLINE
  5
3B0
330
3AD
100
AcDbEntity
  8
Default
  6
Continuous
 62
     7
 48
25.4
370
     9
100
AcDbPolyline
 90
        4
 70
     1
 43
0.0
 10
143.2192488669
 20
306.5750486306
 10
147.2192490569
 20
307.2417153289
 10
143.2192488669
 20
307.9083820272
 10
143.2192488669
 20
306.5750486306
  0
HATCH
  5
3B1
330
3AD
100
AcDbEntity
  8
Default
  6
Continuous
 62
     7
 48
25.4
100
AcDbHatch
 10
0.0
 20
0.0
 30
0.0
210
0.0
220
0.0
230
1.0
  2
SOLID
 70
     1
 71
     0
 91
        1
 92
        1
 93
        3
 72
     1
 10
135.2192492469106
 20
306.5750486305585
 11
135.2192492469106
 21
307.9083820272218
 72
     1
 10
135.2192492469106
 20
307.9083820272218
 11
131.2192490569208
 21
307.2417153288902
 72
     1
 10
131.2192490569208
 20
307.2417153288902
 11
135.2192492469106
 21
306.5750486305585
 97
        0
 75
     0
 76
     1
 98
        0
  0
LWPOLYLINE
  5
3B2
330
3AD
100
AcDbEntity
  8
Default
  6
Continuous
 62
     7
 48
25.4
370
     9
100
AcDbPolyline
 90
        4
 70
     1
 43
0.0
 10
135.2192492469
 20
306.5750486306
 10
131.2192490569
 20
307.2417153289
 10
135.2192492469
 20
307.9083820272
 10
135.2192492469
 20
306.5750486306
  0
LINE
  5
3B3
330
3AD
100
AcDbEntity
  8
Default
  6
Continuous
 62
     7
 48
25.4
100
AcDbLine
 10
147.2192490569
 20
307.2417153289
 30
0.0
 11
106.1362447313
 21
307.2417153289
 31
0.0
  0
TEXT
  5
3B4
330
3AD
100
AcDbEntity
  8
Default
  6
Continuous
 62
     7
 48
25.4
100
AcDbText
 10
122.2492875065
 20
314.2417153289
 30
0.0
 40
4.0
  1
20
  7
SEACAD_arial_ttf
 11
122.2492875065
 21
318.2417153289
 31
0.0
100
AcDbText
 73
     3
  0
TEXT
  5
3B5
330
3AD
100
AcDbEntity
  8
Default
  6
Continuous
 62
     7
 48
25.4
100
AcDbText
 10
107.5362440282
 20
314.2417153289
 30
0.0
 40
4.0
  1
MAX
  7
SEACAD_arial_ttf
 11
107.5362440282
 21
318.2417153289
 31
0.0
100
AcDbText
 73
     3
  0
TEXT
  5
3B6
330
3AD
100
AcDbEntity
  8
Default
  6
Continuous
 62
     7
 48
25.4
100
AcDbText
 10
107.5362440282
 20
308.2417153289
 30
0.0
 40
4.0
  1
MIN 1
  7
SEACAD_arial_ttf
 11
107.5362440282
 21
312.2417153289
 31
0.0
100
AcDbText
 73
     3
  0
ENDBLK
  5
3B8
330
3AD
100
AcDbEntity
  8
0
100
AcDbBlockEnd
  0
BLOCK
  5
3C1
330
3B9
100
AcDbEntity
  8
0
100
AcDbBlockBegin
  2
GDimGGroup24
 70
     0
 71
     0
 10
0.0
 20
0.0
 30
0.0
  3
GDimGGroup24
  1

  0
HATCH
  5
3BB
330
3B9
100
AcDbEntity
  8
Default
  6
Continuous
 62
     7
 48
25.4
100
AcDbHatch
 10
0.0
 20
0.0
 30
0.0
210
0.0
220
0.0
230
1.0
  2
SOLID
 70
     1
 71
     0
 91
        1
 92
        1
 93
        3
 72
     1
 10
151.2192492469106
 20
279.6233750242721
 11
147.2192490569208
 21
278.9567083259404
 72
     1
 10
147.2192490569208
 20
278.9567083259404
 11
151.2192492469106
 21
278.2900416276088
 72
     1
 10
151.2192492469106
 20
278.2900416276088
 11
151.2192492469106
 21
279.6233750242721
 97
        0
 75
     0
 76
     1
 98
        0
  0
LWPOLYLINE
  5
3BC
330
3B9
100
AcDbEntity
  8
Default
  6
Continuous
 62
     7
 48
25.4
370
     9
100
AcDbPolyline
 90
        4
 70
     1
 43
0.0
 10
151.2192492469
 20
279.6233750243
 10
147.2192490569
 20
278.9567083259
 10
151.2192492469
 20
278.2900416276
 10
151.2192492469
 20
279.6233750243
  0
HATCH
  5
3BD
330
3B9
100
AcDbEntity
  8
Default
  6
Continuous
 62
     7
 48
25.4
100
AcDbHatch
 10
0.0
 20
0.0
 30
0.0
210
0.0
220
0.0
230
1.0
  2
SOLID
 70
     1
 71
     0
 91
        1
 92
        1
 93
        3
 72
     1
 10
168.8192482202206
 20
279.6233750242721
 11
168.8192482202206
 21
278.2900416276088
 72
     1
 10
168.8192482202206
 20
278.2900416276088
 11
172.8192484102104
 21
278.9567083259404
 72
     1
 10
172.8192484102104
 20
278.9567083259404
 11
168.8192482202206
 21
279.6233750242721
 97
        0
 75
     0
 76
     1
 98
        0
  0
LWPOLYLINE
  5
3BE
330
3B9
100
AcDbEntity
  8
Default
  6
Continuous
 62
     7
 48
25.4
370
     9
100
AcDbPolyline
 90
        4
 70
     1
 43
0.0
 10
168.8192482202
 20
279.6233750243
 10
172.8192484102
 20
278.9567083259
 10
168.8192482202
 20
278.2900416276
 10
168.8192482202
 20
279.6233750243
  0
LINE
  5
3BF
330
3B9
100
AcDbEntity
  8
Default
  6
Continuous
 62
     7
 48
25.4
100
AcDbLine
 10
121.786835613
 20
278.9567083259
 30
0.0
 11
172.8192484102
 21
278.9567083259
 31
0.0
  0
TEXT
  5
3C0
330
3B9
100
AcDbEntity
  8
Default
  6
Continuous
 62
     7
 48
25.4
100
AcDbText
 10
123.1868350412
 20
279.9567083259
 30
0.0
 40
4.0
  1
32
  7
SEACAD_arial_ttf
 11
123.1868350412
 21
283.9567083259
 31
0.0
100
AcDbText
 73
     3
  0
ENDBLK
  5
3C2
330
3B9
100
AcDbEntity
  8
0
100
AcDbBlockEnd
  0
BLOCK
  5
3CE
330
3C3
100
AcDbEntity
  8
0
100
AcDbBlockBegin
  2
GDimGGroup25
 70
     0
 71
     0
 10
0.0
 20
0.0
 30
0.0
  3
GDimGGroup25
  1

  0
HATCH
  5
3C5
330
3C3
100
AcDbEntity
  8
Default
  6
Continuous
 62
     7
 48
25.4
100
AcDbHatch
 10
0.0
 20
0.0
 30
0.0
210
0.0
220
0.0
230
1.0
  2
SOLID
 70
     1
 71
     0
 91
        1
 92
        1
 93
        3
 72
     1
 10
27.1536570717481
 20
214.8341219467402
 11
27.82032377007973
 21
210.8341217567504
 72
     1
 10
27.82032377007973
 20
210.8341217567504
 11
28.48699046841137
 21
214.8341219467402
 72
     1
 10
28.48699046841137
 20
214.8341219467402
 11
27.1536570717481
 21
214.8341219467402
 97
        0
 75
     0
 76
     1
 98
        0
  0
LWPOLYLINE
  5
3C6
330
3C3
100
AcDbEntity
  8
Default
  6
Continuous
 62
     7
 48
25.4
370
     9
100
AcDbPolyline
 90
        4
 70
     1
 43
0.0
 10
27.1536570717
 20
214.8341219467
 10
27.8203237701
 20
210.8341217568
 10
28.4869904684
 20
214.8341219467
 10
27.1536570717
 20
214.8341219467
  0
HATCH
  5
3C7
330
3C3
100
AcDbEntity
  8
Default
  6
Continuous
 62
     7
 48
25.4
100
AcDbHatch
 10
0.0
 20
0.0
 30
0.0
210
0.0
220
0.0
230
1.0
  2
SOLID
 70
     1
 71
     0
 91
        1
 92
        1
 93
        3
 72
     1
 10
27.1536570717481
 20
378.8341274080158
 11
28.48699046841137
 21
378.8341274080158
 72
     1
 10
28.48699046841137
 20
378.8341274080158
 11
27.82032377007973
 21
382.8341275980056
 72
     1
 10
27.82032377007973
 20
382.8341275980056
 11
27.1536570717481
 21
378.8341274080158
 97
        0
 75
     0
 76
     1
 98
        0
  0
LWPOLYLINE
  5
3C8
330
3C3
100
AcDbEntity
  8
Default
  6
Continuous
 62
     7
 48
25.4
370
     9
100
AcDbPolyline
 90
        4
 70
     1
 43
0.0
 10
27.1536570717
 20
378.834127408
 10
27.8203237701
 20
382.834127598
 10
28.4869904684
 20
378.834127408
 10
27.1536570717
 20
378.834127408
  0
LINE
  5
3C9
330
3C3
100
AcDbEntity
  8
Default
  6
Continuous
 62
     7
 48
25.4
100
AcDbLine
 10
143.2191554356
 20
210.8341217568
 30
0.0
 11
25.8203236751
 21
210.8341217568
 31
0.0
  0
LINE
  5
3CA
330
3C3
100
AcDbEntity
  8
Default
  6
Continuous
 62
     7
 48
25.4
100
AcDbLine
 10
143.2191554356
 20
382.8341217568
 30
0.0
 11
25.8203236751
 21
382.8341217568
 31
0.0
  0
LINE
  5
3CB
330
3C3
100
AcDbEntity
  8
Default
  6
Continuous
 62
     7
 48
25.4
100
AcDbLine
 10
27.8203237701
 20
210.8341217568
 30
0.0
 11
27.8203237701
 21
382.834127598
 31
0.0
  0
TEXT
  5
3CC
330
3C3
100
AcDbEntity
  8
Default
  6
Continuous
 62
     7
 48
25.4
100
AcDbText
 10
26.8203237701
 20
295.8191742579
 30
0.0
 40
4.0
  1
215
 50
90.0
  7
SEACAD_arial_ttf
 11
22.8203237701
 21
295.8191742579
 31
0.0
100
AcDbText
 73
     3
  0
TEXT
  5
3CD
330
3C3
100
AcDbEntity
  8
Default
  6
Continuous
 62
     7
 48
25.4
100
AcDbText
 10
26.8203237701
 20
288.4577707491
 30
0.0
 40
4.0
  1
O
 50
90.0
  7
SEACAD_semeca1_ttf
 11
22.8203237701
 21
288.4577707491
 31
0.0
100
AcDbText
 73
     3
  0
ENDBLK
  5
3CF
330
3C3
100
AcDbEntity
  8
0
100
AcDbBlockEnd
  0
BLOCK
  5
3DA
330
3D0
100
AcDbEntity
  8
0
100
AcDbBlockBegin
  2
GDimGGroup26
 70
     0
 71
     0
 10
0.0
 20
0.0
 30
0.0
  3
GDimGGroup26
  1

  0
HATCH
  5
3D2
330
3D0
100
AcDbEntity
  8
Default
  6
Continuous
 62
     7
 48
25.4
100
AcDbHatch
 10
0.0
 20
0.0
 30
0.0
210
0.0
220
0.0
230
1.0
  2
SOLID
 70
     1
 71
     0
 91
        1
 92
        1
 93
        3
 72
     1
 10
248.019248866931
 20
398.9096268985401
 11
248.019248866931
 21
397.5762935018768
 72
     1
 10
248.019248866931
 20
397.5762935018768
 11
252.0192490569208
 21
398.2429602002085
 72
     1
 10
252.0192490569208
 20
398.2429602002085
 11
248.019248866931
 21
398.9096268985401
 97
        0
 75
     0
 76
     1
 98
        0
  0
LWPOLYLINE
  5
3D3
330
3D0
100
AcDbEntity
  8
Default
  6
Continuous
 62
     7
 48
25.4
370
     9
100
AcDbPolyline
 90
        4
 70
     1
 43
0.0
 10
248.0192488669
 20
398.9096268985
 10
252.0192490569
 20
398.2429602002
 10
248.0192488669
 20
397.5762935019
 10
248.0192488669
 20
398.9096268985
  0
HATCH
  5
3D4
330
3D0
100
AcDbEntity
  8
Default
  6
Continuous
 62
     7
 48
25.4
100
AcDbHatch
 10
0.0
 20
0.0
 30
0.0
210
0.0
220
0.0
230
1.0
  2
SOLID
 70
     1
 71
     0
 91
        1
 92
        1
 93
        3
 72
     1
 10
224.8192500932965
 20
398.9096268985401
 11
220.8192499033067
 21
398.2429602002085
 72
     1
 10
220.8192499033067
 20
398.2429602002085
 11
224.8192500932965
 21
397.5762935018768
 72
     1
 10
224.8192500932965
 20
397.5762935018768
 11
224.8192500932965
 21
398.9096268985401
 97
        0
 75
     0
 76
     1
 98
        0
  0
LWPOLYLINE
  5
3D5
330
3D0
100
AcDbEntity
  8
Default
  6
Continuous
 62
     7
 48
25.4
370
     9
100
AcDbPolyline
 90
        4
 70
     1
 43
0.0
 10
224.8192500933
 20
398.9096268985
 10
220.8192499033
 20
398.2429602002
 10
224.8192500933
 20
397.5762935019
 10
224.8192500933
 20
398.9096268985
  0
LINE
  5
3D6
330
3D0
100
AcDbEntity
  8
Default
  6
Continuous
 62
     7
 48
25.4
100
AcDbLine
 10
252.0192490569
 20
386.8341217568
 30
0.0
 11
252.0192490569
 21
400.2429602952
 31
0.0
  0
LINE
  5
3D7
330
3D0
100
AcDbEntity
  8
Default
  6
Continuous
 62
     7
 48
25.4
100
AcDbLine
 10
220.8192490569
 20
377.0228144823
 30
0.0
 11
220.8192490569
 21
400.2429602952
 31
0.0
  0
LINE
  5
3D8
330
3D0
100
AcDbEntity
  8
Default
  6
Continuous
 62
     7
 48
25.4
100
AcDbLine
 10
252.0192490569
 20
398.2429602002
 30
0.0
 11
220.8192499033
 21
398.2429602002
 31
0.0
  0
TEXT
  5
3D9
330
3D0
100
AcDbEntity
  8
Default
  6
Continuous
 62
     7
 48
25.4
100
AcDbText
 10
233.2888146975
 20
399.2429602002
 30
0.0
 40
4.0
  1
39
  7
SEACAD_arial_ttf
 11
233.2888146975
 21
403.2429602002
 31
0.0
100
AcDbText
 73
     3
  0
ENDBLK
  5
3DB
330
3D0
100
AcDbEntity
  8
0
100
AcDbBlockEnd
  0
BLOCK
  5
3E6
330
3DC
100
AcDbEntity
  8
0
100
AcDbBlockBegin
  2
GDimGGroup27
 70
     0
 71
     0
 10
0.0
 20
0.0
 30
0.0
  3
GDimGGroup27
  1

  0
HATCH
  5
3DE
330
3DC
100
AcDbEntity
  8
Default
  6
Continuous
 62
     7
 48
25.4
100
AcDbHatch
 10
0.0
 20
0.0
 30
0.0
210
0.0
220
0.0
230
1.0
  2
SOLID
 70
     1
 71
     0
 91
        1
 92
        1
 93
        3
 72
     1
 10
127.219248866931
 20
181.0278524120672
 11
131.2192490569208
 21
181.6945191103988
 72
     1
 10
131.2192490569208
 20
181.6945191103988
 11
127.2192488669309
 21
182.3611858087304
 72
     1
 10
127.219248866931
 20
182.3611858087304
 11
127.219248866931
 21
181.0278524120672
 97
        0
 75
     0
 76
     1
 98
        0
  0
LWPOLYLINE
  5
3DF
330
3DC
100
AcDbEntity
  8
Default
  6
Continuous
 62
     7
 48
25.4
370
     9
100
AcDbPolyline
 90
        4
 70
     1
 43
0.0
 10
127.2192488669
 20
181.0278524121
 10
131.2192490569
 20
181.6945191104
 10
127.2192488669
 20
182.3611858087
 10
127.2192488669
 20
181.0278524121
  0
HATCH
  5
3E0
330
3DC
100
AcDbEntity
  8
Default
  6
Continuous
 62
     7
 48
25.4
100
AcDbHatch
 10
0.0
 20
0.0
 30
0.0
210
0.0
220
0.0
230
1.0
  2
SOLID
 70
     1
 71
     0
 91
        1
 92
        1
 93
        3
 72
     1
 10
120.0184247701321
 20
181.0278524120672
 11
120.0184247701321
 21
182.3611858087304
 72
     1
 10
120.0184247701321
 20
182.3611858087304
 11
116.0184245801423
 21
181.6945191103988
 72
     1
 10
116.0184245801423
 20
181.6945191103988
 11
120.0184247701321
 21
181.0278524120672
 97
        0
 75
     0
 76
     1
 98
        0
  0
LWPOLYLINE
  5
3E1
330
3DC
100
AcDbEntity
  8
Default
  6
Continuous
 62
     7
 48
25.4
370
     9
100
AcDbPolyline
 90
        4
 70
     1
 43
0.0
 10
120.0184247701
 20
181.0278524121
 10
116.0184245801
 20
181.6945191104
 10
120.0184247701
 20
182.3611858087
 10
120.0184247701
 20
181.0278524121
  0
LINE
  5
3E2
330
3DC
100
AcDbEntity
  8
Default
  6
Continuous
 62
     7
 48
25.4
100
AcDbLine
 10
131.2192490569
 20
230.6730899591
 30
0.0
 11
131.2192490569
 21
179.6945190154
 31
0.0
  0
LINE
  5
3E3
330
3DC
100
AcDbEntity
  8
Default
  6
Continuous
 62
     7
 48
25.4
100
AcDbLine
 10
116.0184244898
 20
243.4741217568
 30
0.0
 11
116.0184244898
 21
179.6945190154
 31
0.0
  0
LINE
  5
3E4
330
3DC
100
AcDbEntity
  8
Default
  6
Continuous
 62
     7
 48
25.4
100
AcDbLine
 10
131.2192490569
 20
181.6945191104
 30
0.0
 11
116.0184245801
 21
181.6945191104
 31
0.0
  0
TEXT
  5
3E5
330
3DC
100
AcDbEntity
  8
Default
  6
Continuous
 62
     7
 48
25.4
100
AcDbText
 10
120.4884020359
 20
182.6945191104
 30
0.0
 40
4.0
  1
19
  7
SEACAD_arial_ttf
 11
120.4884020359
 21
186.6945191104
 31
0.0
100
AcDbText
 73
     3
  0
ENDBLK
  5
3E7
330
3DC
100
AcDbEntity
  8
0
100
AcDbBlockEnd
  0
BLOCK
  5
3F2
330
3E8
100
AcDbEntity
  8
0
100
AcDbBlockBegin
  2
GDimGGroup28
 70
     0
 71
     0
 10
0.0
 20
0.0
 30
0.0
  3
GDimGGroup28
  1

  0
HATCH
  5
3EA
330
3E8
100
AcDbEntity
  8
Default
  6
Continuous
 62
     7
 48
25.4
100
AcDbHatch
 10
0.0
 20
0.0
 30
0.0
210
0.0
220
0.0
230
1.0
  2
SOLID
 70
     1
 71
     0
 91
        1
 92
        1
 93
        3
 72
     1
 10
216.819248866931
 20
196.6028184792629
 11
220.8192490569208
 21
197.2694851775945
 72
     1
 10
220.8192490569208
 20
197.2694851775945
 11
216.819248866931
 21
197.9361518759261
 72
     1
 10
216.819248866931
 20
197.9361518759261
 11
216.819248866931
 21
196.6028184792629
 97
        0
 75
     0
 76
     1
 98
        0
  0
LWPOLYLINE
  5
3EB
330
3E8
100
AcDbEntity
  8
Default
  6
Continuous
 62
     7
 48
25.4
370
     9
100
AcDbPolyline
 90
        4
 70
     1
 43
0.0
 10
216.8192488669
 20
196.6028184793
 10
220.8192490569
 20
197.2694851776
 10
216.8192488669
 20
197.9361518759
 10
216.8192488669
 20
196.6028184793
  0
HATCH
  5
3EC
330
3E8
100
AcDbEntity
  8
Default
  6
Continuous
 62
     7
 48
25.4
100
AcDbHatch
 10
0.0
 20
0.0
 30
0.0
210
0.0
220
0.0
230
1.0
  2
SOLID
 70
     1
 71
     0
 91
        1
 92
        1
 93
        3
 72
     1
 10
208.0192498459373
 20
196.6028184792629
 11
208.0192498459373
 21
197.9361518759261
 72
     1
 10
208.0192498459373
 20
197.9361518759261
 11
204.0192496559475
 21
197.2694851775945
 72
     1
 10
204.0192496559475
 20
197.2694851775945
 11
208.0192498459373
 21
196.6028184792629
 97
        0
 75
     0
 76
     1
 98
        0
  0
LWPOLYLINE
  5
3ED
330
3E8
100
AcDbEntity
  8
Default
  6
Continuous
 62
     7
 48
25.4
370
     9
100
AcDbPolyline
 90
        4
 70
     1
 43
0.0
 10
208.0192498459
 20
196.6028184793
 10
204.0192496559
 20
197.2694851776
 10
208.0192498459
 20
197.9361518759
 10
208.0192498459
 20
196.6028184793
  0
LINE
  5
3EE
330
3E8
100
AcDbEntity
  8
Default
  6
Continuous
 62
     7
 48
25.4
100
AcDbLine
 10
220.8192490569
 20
213.2341217568
 30
0.0
 11
220.8192490569
 21
195.2694850826
 31
0.0
  0
LINE
  5
3EF
330
3E8
100
AcDbEntity
  8
Default
  6
Continuous
 62
     7
 48
25.4
100
AcDbLine
 10
204.0192490569
 20
235.4741217568
 30
0.0
 11
204.0192490569
 21
195.2694850826
 31
0.0
  0
LINE
  5
3F0
330
3E8
100
AcDbEntity
  8
Default
  6
Continuous
 62
     7
 48
25.4
100
AcDbLine
 10
220.8192490569
 20
197.2694851776
 30
0.0
 11
204.0192496559
 21
197.2694851776
 31
0.0
  0
TEXT
  5
3F1
330
3E8
100
AcDbEntity
  8
Default
  6
Continuous
 62
     7
 48
25.4
100
AcDbText
 10
209.2888145738
 20
198.2694851776
 30
0.0
 40
4.0
  1
21
  7
SEACAD_arial_ttf
 11
209.2888145738
 21
202.2694851776
 31
0.0
100
AcDbText
 73
     3
  0
ENDBLK
  5
3F3
330
3E8
100
AcDbEntity
  8
0
100
AcDbBlockEnd
  0
BLOCK
  5
3FF
330
3F4
100
AcDbEntity
  8
0
100
AcDbBlockBegin
  2
GDimGGroup29
 70
     0
 71
     0
 10
0.0
 20
0.0
 30
0.0
  3
GDimGGroup29
  1

  0
HATCH
  5
3F6
330
3F4
100
AcDbEntity
  8
Default
  6
Continuous
 62
     7
 48
25.4
100
AcDbHatch
 10
0.0
 20
0.0
 30
0.0
210
0.0
220
0.0
230
1.0
  2
SOLID
 70
     1
 71
     0
 91
        1
 92
        1
 93
        3
 72
     1
 10
244.0759009920831
 20
239.4741219467402
 11
242.7425675954198
 21
239.4741219467402
 72
     1
 10
242.7425675954198
 20
239.4741219467402
 11
243.4092342937514
 21
235.4741217567504
 72
     1
 10
243.4092342937514
 20
235.4741217567504
 11
244.0759009920831
 21
239.4741219467402
 97
        0
 75
     0
 76
     1
 98
        0
  0
LWPOLYLINE
  5
3F7
330
3F4
100
AcDbEntity
  8
Default
  6
Continuous
 62
     7
 48
25.4
370
     9
100
AcDbPolyline
 90
        4
 70
     1
 43
0.0
 10
244.0759009921
 20
239.4741219467
 10
243.4092342938
 20
235.4741217568
 10
242.7425675954
 20
239.4741219467
 10
244.0759009921
 20
239.4741219467
  0
HATCH
  5
3F8
330
3F4
100
AcDbEntity
  8
Default
  6
Continuous
 62
     7
 48
25.4
100
AcDbHatch
 10
0.0
 20
0.0
 30
0.0
210
0.0
220
0.0
230
1.0
  2
SOLID
 70
     1
 71
     0
 91
        1
 92
        1
 93
        3
 72
     1
 10
244.0759009920831
 20
247.4741215667606
 11
243.4092342937514
 21
251.4741217567504
 72
     1
 10
243.4092342937514
 20
251.4741217567504
 11
242.7425675954198
 21
247.4741215667606
 72
     1
 10
242.7425675954198
 20
247.4741215667606
 11
244.0759009920831
 21
247.4741215667606
 97
        0
 75
     0
 76
     1
 98
        0
  0
LWPOLYLINE
  5
3F9
330
3F4
100
AcDbEntity
  8
Default
  6
Continuous
 62
     7
 48
25.4
370
     9
100
AcDbPolyline
 90
        4
 70
     1
 43
0.0
 10
244.0759009921
 20
247.4741215668
 10
243.4092342938
 20
251.4741217568
 10
242.7425675954
 20
247.4741215668
 10
244.0759009921
 20
247.4741215668
  0
LINE
  5
3FA
330
3F4
100
AcDbEntity
  8
Default
  6
Continuous
 62
     7
 48
25.4
100
AcDbLine
 10
220.8192490125
 20
235.4741217568
 30
0.0
 11
245.4092343887
 21
235.4741217568
 31
0.0
  0
LINE
  5
3FB
330
3F4
100
AcDbEntity
  8
Default
  6
Continuous
 62
     7
 48
25.4
100
AcDbLine
 10
220.8192490125
 20
251.4741217568
 30
0.0
 11
245.4092343887
 21
251.4741217568
 31
0.0
  0
LINE
  5
3FC
330
3F4
100
AcDbEntity
  8
Default
  6
Continuous
 62
     7
 48
25.4
100
AcDbLine
 10
243.4092342938
 20
235.4741217568
 30
0.0
 11
243.4092342938
 21
269.670006819
 31
0.0
  0
TEXT
  5
3FD
330
3F4
100
AcDbEntity
  8
Default
  6
Continuous
 62
     7
 48
25.4
100
AcDbText
 10
242.4092342938
 20
262.0091367366
 30
0.0
 40
4.0
  1
20
 50
90.0
  7
SEACAD_arial_ttf
 11
238.4092342938
 21
262.0091367366
 31
0.0
100
AcDbText
 73
     3
  0
TEXT
  5
3FE
330
3F4
100
AcDbEntity
  8
Default
  6
Continuous
 62
     7
 48
25.4
100
AcDbText
 10
242.4092342938
 20
254.6477332278
 30
0.0
 40
4.0
  1
O
 50
90.0
  7
SEACAD_semeca1_ttf
 11
238.4092342938
 21
254.6477332278
 31
0.0
100
AcDbText
 73
     3
  0
ENDBLK
  5
400
330
3F4
100
AcDbEntity
  8
0
100
AcDbBlockEnd
  0
BLOCK
  5
40D
330
401
100
AcDbEntity
  8
0
100
AcDbBlockBegin
  2
GDimGGroup30
 70
     0
 71
     0
 10
0.0
 20
0.0
 30
0.0
  3
GDimGGroup30
  1

  0
HATCH
  5
403
330
401
100
AcDbEntity
  8
Default
  6
Continuous
 62
     7
 48
25.4
100
AcDbHatch
 10
0.0
 20
0.0
 30
0.0
210
0.0
220
0.0
230
1.0
  2
SOLID
 70
     1
 71
     0
 91
        1
 92
        1
 93
        3
 72
     1
 10
63.41206720065964
 20
351.7577834888525
 11
63.46752453539283
 21
347.7029875025411
 72
     1
 10
63.46752453539283
 20
347.7029875025411
 11
64.73013386296245
 21
351.5565914900464
 72
     1
 10
64.73013386296245
 20
351.5565914900464
 11
63.41206720065964
 21
351.7577834888525
 97
        0
 75
     0
 76
     1
 98
        0
  0
LWPOLYLINE
  5
404
330
401
100
AcDbEntity
  8
Default
  6
Continuous
 62
     7
 48
25.4
370
     9
100
AcDbPolyline
 90
        4
 70
     1
 43
0.0
 10
63.4120672007
 20
351.7577834889
 10
63.4675245354
 20
347.7029875025
 10
64.730133863
 20
351.55659149
 10
63.4120672007
 20
351.7577834889
  0
HATCH
  5
405
330
401
100
AcDbEntity
  8
Default
  6
Continuous
 62
     7
 48
25.4
100
AcDbHatch
 10
0.0
 20
0.0
 30
0.0
210
0.0
220
0.0
230
1.0
  2
SOLID
 70
     1
 71
     0
 91
        1
 92
        1
 93
        3
 72
     1
 10
63.74228275664211
 20
335.4053685803647
 11
62.95872090970014
 21
339.3841217567504
 72
     1
 10
62.95872090970015
 20
339.3841217567504
 11
62.40952162662824
 21
335.366308153053
 72
     1
 10
62.40952162662824
 20
335.366308153053
 11
63.74228275664211
 21
335.4053685803647
 97
        0
 75
     0
 76
     1
 98
        0
  0
LWPOLYLINE
  5
406
330
401
100
AcDbEntity
  8
Default
  6
Continuous
 62
     7
 48
25.4
370
     9
100
AcDbPolyline
 90
        4
 70
     1
 43
0.0
 10
63.7422827566
 20
335.4053685804
 10
62.9587209097
 20
339.3841217568
 10
62.4095216266
 20
335.3663081531
 10
63.7422827566
 20
335.4053685804
  0
LINE
  5
407
330
401
100
AcDbEntity
  8
Default
  6
Continuous
 62
     7
 48
25.4
100
AcDbLine
 10
140.8191555079
 20
338.2054014585
 30
0.0
 11
61.4824356043
 21
347.9467257753
 31
0.0
  0
LINE
  5
408
330
401
100
AcDbEntity
  8
Default
  6
Continuous
 62
     7
 48
25.4
100
AcDbLine
 10
131.2192490569
 20
339.3841217568
 30
0.0
 11
60.9587243072
 21
339.3841217568
 31
0.0
  0
ARC
  5
409
330
401
100
AcDbEntity
  8
Default
  6
Continuous
 62
     7
 48
25.4
100
AcDbCircle
 10
131.2192490569
 20
339.3841217568
 30
0.0
 40
68.26052814722075
100
AcDbArc
 50
166.2850472203
 51
180.0000000525
  0
ARC
  5
40A
330
401
100
AcDbEntity
  8
Default
  6
Continuous
 62
     7
 48
25.4
100
AcDbCircle
 10
131.2192490569
 20
339.3841217568
 30
0.0
 40
68.26052814721898
100
AcDbArc
 50
180.0
 51
186.7149527797
  0
TEXT
  5
40B
330
401
100
AcDbEntity
  8
Default
  6
Continuous
 62
     7
 48
25.4
100
AcDbText
 10
61.4583095136
 20
333.3185682743
 30
0.0
 40
4.0
  1
7°
 50
86.5
  7
SEACAD_arial_ttf
 11
57.4657703199
 21
333.5627624324
 31
0.0
100
AcDbText
 73
     3
  0
TEXT
  5
40C
330
401
100
AcDbEntity
  8
Default
  6
Continuous
 62
     7
 48
25.4
100
AcDbText
 10
61.9583766809
 20
341.4945941883
 30
0.0
 40
4.0
  1
7'30"
 50
86.5
  7
SEACAD_arial_ttf
 11
57.9658374872
 21
341.7387883464
 31
0.0
100
AcDbText
 73
     3
  0
ENDBLK
  5
40E
330
401
100
AcDbEntity
  8
0
100
AcDbBlockEnd
  0
BLOCK
  5
419
330
40F
100
AcDbEntity
  8
0
100
AcDbBlockBegin
  2
GDimGGroup31
 70
     0
 71
     0
 10
0.0
 20
0.0
 30
0.0
  3
GDimGGroup31
  1

  0
HATCH
  5
411
330
40F
100
AcDbEntity
  8
Default
  6
Continuous
 62
     7
 48
25.4
100
AcDbHatch
 10
0.0
 20
0.0
 30
0.0
210
0.0
220
0.0
230
1.0
  2
SOLID
 70
     1
 71
     0
 91
        1
 92
        1
 93
        3
 72
     1
 10
304.2933841375092
 20
371.6341219467402
 11
302.9600507408459
 21
371.6341219467402
 72
     1
 10
302.9600507408459
 20
371.6341219467402
 11
303.6267174391775
 21
367.6341217567504
 72
     1
 10
303.6267174391775
 20
367.6341217567504
 11
304.2933841375092
 21
371.6341219467402
 97
        0
 75
     0
 76
     1
 98
        0
  0
LWPOLYLINE
  5
412
330
40F
100
AcDbEntity
  8
Default
  6
Continuous
 62
     7
 48
25.4
370
     9
100
AcDbPolyline
 90
        4
 70
     1
 43
0.0
 10
304.2933841375
 20
371.6341219467
 10
303.6267174392
 20
367.6341217568
 10
302.9600507408
 20
371.6341219467
 10
304.2933841375
 20
371.6341219467
  0
HATCH
  5
413
330
40F
100
AcDbEntity
  8
Default
  6
Continuous
 62
     7
 48
25.4
100
AcDbHatch
 10
0.0
 20
0.0
 30
0.0
210
0.0
220
0.0
230
1.0
  2
SOLID
 70
     1
 71
     0
 91
        1
 92
        1
 93
        3
 72
     1
 10
304.2933841375092
 20
382.8341224787117
 11
303.6267174391775
 21
386.8341226687015
 72
     1
 10
303.6267174391775
 20
386.8341226687015
 11
302.9600507408459
 21
382.8341224787117
 72
     1
 10
302.9600507408459
 20
382.8341224787117
 11
304.2933841375092
 21
382.8341224787117
 97
        0
 75
     0
 76
     1
 98
        0
  0
LWPOLYLINE
  5
414
330
40F
100
AcDbEntity
  8
Default
  6
Continuous
 62
     7
 48
25.4
370
     9
100
AcDbPolyline
 90
        4
 70
     1
 43
0.0
 10
304.2933841375
 20
382.8341224787
 10
303.6267174392
 20
386.8341226687
 10
302.9600507408
 20
382.8341224787
 10
304.2933841375
 20
382.8341224787
  0
LINE
  5
415
330
40F
100
AcDbEntity
  8
Default
  6
Continuous
 62
     7
 48
25.4
100
AcDbLine
 10
257.4065787702
 20
367.6341217568
 30
0.0
 11
305.6267175342
 21
367.6341217568
 31
0.0
  0
LINE
  5
416
330
40F
100
AcDbEntity
  8
Default
  6
Continuous
 62
     7
 48
25.4
100
AcDbLine
 10
252.0192490569
 20
386.8341217568
 30
0.0
 11
305.6267175342
 21
386.8341217568
 31
0.0
  0
LINE
  5
417
330
40F
100
AcDbEntity
  8
Default
  6
Continuous
 62
     7
 48
25.4
100
AcDbLine
 10
303.6267174392
 20
367.6341217568
 30
0.0
 11
303.6267174392
 21
386.8341226687
 31
0.0
  0
TEXT
  5
418
330
40F
100
AcDbEntity
  8
Default
  6
Continuous
 62
     7
 48
25.4
100
AcDbText
 10
302.6267174392
 20
374.1036874301
 30
0.0
 40
4.0
  1
24
 50
90.0
  7
SEACAD_arial_ttf
 11
298.6267174392
 21
374.1036874301
 31
0.0
100
AcDbText
 73
     3
  0
ENDBLK
  5
41A
330
40F
100
AcDbEntity
  8
0
100
AcDbBlockEnd
  0
BLOCK
  5
425
330
41B
100
AcDbEntity
  8
0
100
AcDbBlockBegin
  2
GDimGGroup32
 70
     0
 71
     0
 10
0.0
 20
0.0
 30
0.0
  3
GDimGGroup32
  1

  0
HATCH
  5
41D
330
41B
100
AcDbEntity
  8
Default
  6
Continuous
 62
     7
 48
25.4
100
AcDbHatch
 10
0.0
 20
0.0
 30
0.0
210
0.0
220
0.0
230
1.0
  2
SOLID
 70
     1
 71
     0
 91
        1
 92
        1
 93
        3
 72
     1
 10
304.2933841375092
 20
363.6341215667606
 11
303.6267174391775
 21
367.6341217567504
 72
     1
 10
303.6267174391775
 20
367.6341217567504
 11
302.9600507408459
 21
363.6341215667606
 72
     1
 10
302.9600507408459
 20
363.6341215667606
 11
304.2933841375092
 21
363.6341215667606
 97
        0
 75
     0
 76
     1
 98
        0
  0
LWPOLYLINE
  5
41E
330
41B
100
AcDbEntity
  8
Default
  6
Continuous
 62
     7
 48
25.4
370
     9
100
AcDbPolyline
 90
        4
 70
     1
 43
0.0
 10
304.2933841375
 20
363.6341215668
 10
303.6267174392
 20
367.6341217568
 10
302.9600507408
 20
363.6341215668
 10
304.2933841375
 20
363.6341215668
  0
HATCH
  5
41F
330
41B
100
AcDbEntity
  8
Default
  6
Continuous
 62
     7
 48
25.4
100
AcDbHatch
 10
0.0
 20
0.0
 30
0.0
210
0.0
220
0.0
230
1.0
  2
SOLID
 70
     1
 71
     0
 91
        1
 92
        1
 93
        3
 72
     1
 10
304.2933841375092
 20
351.634122393775
 11
302.9600507408459
 21
351.634122393775
 72
     1
 10
302.9600507408459
 20
351.634122393775
 11
303.6267174391775
 21
347.6341222037852
 72
     1
 10
303.6267174391775
 20
347.6341222037852
 11
304.2933841375092
 21
351.634122393775
 97
        0
 75
     0
 76
     1
 98
        0
  0
LWPOLYLINE
  5
420
330
41B
100
AcDbEntity
  8
Default
  6
Continuous
 62
     7
 48
25.4
370
     9
100
AcDbPolyline
 90
        4
 70
     1
 43
0.0
 10
304.2933841375
 20
351.6341223938
 10
303.6267174392
 20
347.6341222038
 10
302.9600507408
 20
351.6341223938
 10
304.2933841375
 20
351.6341223938
  0
LINE
  5
421
330
41B
100
AcDbEntity
  8
Default
  6
Continuous
 62
     7
 48
25.4
100
AcDbLine
 10
257.4065787702
 20
367.6341217568
 30
0.0
 11
305.6267175342
 21
367.6341217568
 31
0.0
  0
LINE
  5
422
330
41B
100
AcDbEntity
  8
Default
  6
Continuous
 62
     7
 48
25.4
100
AcDbLine
 10
257.6750679085
 20
347.6341217568
 30
0.0
 11
305.6267175342
 21
347.6341217568
 31
0.0
  0
LINE
  5
423
330
41B
100
AcDbEntity
  8
Default
  6
Continuous
 62
     7
 48
25.4
100
AcDbLine
 10
303.6267174392
 20
367.6341217568
 30
0.0
 11
303.6267174392
 21
347.6341222038
 31
0.0
  0
TEXT
  5
424
330
41B
100
AcDbEntity
  8
Default
  6
Continuous
 62
     7
 48
25.4
100
AcDbText
 10
302.6267174392
 20
354.5036871977
 30
0.0
 40
4.0
  1
25
 50
90.0
  7
SEACAD_arial_ttf
 11
298.6267174392
 21
354.5036871977
 31
0.0
100
AcDbText
 73
     3
  0
ENDBLK
  5
426
330
41B
100
AcDbEntity
  8
0
100
AcDbBlockEnd
  0
BLOCK
  5
433
330
427
100
AcDbEntity
  8
0
100
AcDbBlockBegin
  2
GDimGGroup33
 70
     0
 71
     0
 10
0.0
 20
0.0
 30
0.0
  3
GDimGGroup33
  1

  0
HATCH
  5
429
330
427
100
AcDbEntity
  8
Default
  6
Continuous
 62
     7
 48
25.4
100
AcDbHatch
 10
0.0
 20
0.0
 30
0.0
210
0.0
220
0.0
230
1.0
  2
SOLID
 70
     1
 71
     0
 91
        1
 92
        1
 93
        3
 72
     1
 10
304.2933841534741
 20
351.6341219467402
 11
302.9600507568107
 21
351.6341219467402
 72
     1
 10
302.9600507568107
 20
351.6341219467402
 11
303.6267174551424
 21
347.6341217567504
 72
     1
 10
303.6267174551424
 20
347.6341217567504
 11
304.2933841534741
 21
351.6341219467402
 97
        0
 75
     0
 76
     1
 98
        0
  0
LWPOLYLINE
  5
42A
330
427
100
AcDbEntity
  8
Default
  6
Continuous
 62
     7
 48
25.4
370
     9
100
AcDbPolyline
 90
        4
 70
     1
 43
0.0
 10
304.2933841535
 20
351.6341219467
 10
303.6267174551
 20
347.6341217568
 10
302.9600507568
 20
351.6341219467
 10
304.2933841535
 20
351.6341219467
  0
HATCH
  5
42B
330
427
100
AcDbEntity
  8
Default
  6
Continuous
 62
     7
 48
25.4
100
AcDbHatch
 10
0.0
 20
0.0
 30
0.0
210
0.0
220
0.0
230
1.0
  2
SOLID
 70
     1
 71
     0
 91
        1
 92
        1
 93
        3
 72
     1
 10
304.2933841534741
 20
335.2341215667606
 11
303.6267174551424
 21
339.2341217567504
 72
     1
 10
303.6267174551424
 20
339.2341217567504
 11
302.9600507568107
 21
335.2341215667606
 72
     1
 10
302.9600507568107
 20
335.2341215667606
 11
304.2933841534741
 21
335.2341215667606
 97
        0
 75
     0
 76
     1
 98
        0
  0
LWPOLYLINE
  5
42C
330
427
100
AcDbEntity
  8
Default
  6
Continuous
 62
     7
 48
25.4
370
     9
100
AcDbPolyline
 90
        4
 70
     1
 43
0.0
 10
304.2933841535
 20
335.2341215668
 10
303.6267174551
 20
339.2341217568
 10
302.9600507568
 20
335.2341215668
 10
304.2933841535
 20
335.2341215668
  0
LINE
  5
42D
330
427
100
AcDbEntity
  8
Default
  6
Continuous
 62
     7
 48
25.4
100
AcDbLine
 10
257.6750679085
 20
347.6341217568
 30
0.0
 11
305.6267175501
 21
347.6341217568
 31
0.0
  0
LINE
  5
42E
330
427
100
AcDbEntity
  8
Default
  6
Continuous
 62
     7
 48
25.4
100
AcDbLine
 10
215.7284057199
 20
339.2341217568
 30
0.0
 11
305.6267175501
 21
339.2341217568
 31
0.0
  0
LINE
  5
42F
330
427
100
AcDbEntity
  8
Default
  6
Continuous
 62
     7
 48
25.4
100
AcDbLine
 10
303.6267174551
 20
355.6341221367
 30
0.0
 11
303.6267174551
 21
278.5319611241
 31
0.0
  0
TEXT
  5
430
330
427
100
AcDbEntity
  8
Default
  6
Continuous
 62
     7
 48
25.4
100
AcDbText
 10
296.6267174551
 20
294.6450068018
 30
0.0
 40
4.0
  1
20.75
 50
90.0
  7
SEACAD_arial_ttf
 11
292.6267174551
 21
294.6450068018
 31
0.0
100
AcDbText
 73
     3
  0
TEXT
  5
431
330
427
100
AcDbEntity
  8
Default
  6
Continuous
 62
     7
 48
25.4
100
AcDbText
 10
296.6267174551
 20
279.9319633236
 30
0.0
 40
4.0
  1
MAX
 50
90.0
  7
SEACAD_arial_ttf
 11
292.6267174551
 21
279.9319633236
 31
0.0
100
AcDbText
 73
     3
  0
TEXT
  5
432
330
427
100
AcDbEntity
  8
Default
  6
Continuous
 62
     7
 48
25.4
100
AcDbText
 10
302.6267174551
 20
279.9319633236
 30
0.0
 40
4.0
  1
MIN 11.75
 50
90.0
  7
SEACAD_arial_ttf
 11
298.6267174551
 21
279.9319633236
 31
0.0
100
AcDbText
 73
     3
  0
ENDBLK
  5
434
330
427
100
AcDbEntity
  8
0
100
AcDbBlockEnd
  0
ENDSEC
  0
SECTION
  2
ENTITIES
  0
INSERT
  5
2C
330
1F
100
AcDbEntity
  8
Default
100
AcDbBlockReference
  2
SEANNOT_GROUP
 10
0.0
 20
0.0
 30
0.0
  0
INSERT
  5
36
330
1F
100
AcDbEntity
  8
Default
100
AcDbBlockReference
  2
SEANNOT_GROUP1
 10
0.0
 20
0.0
 30
0.0
  0
INSERT
  5
40
330
1F
100
AcDbEntity
  8
Default
100
AcDbBlockReference
  2
SEANNOT_GROUP2
 10
0.0
 20
0.0
 30
0.0
  0
INSERT
  5
49
330
1F
100
AcDbEntity
  8
Default
100
AcDbBlockReference
  2
SEANNOT_GROUP3
 10
0.0
 20
0.0
 30
0.0
  0
INSERT
  5
52
330
1F
100
AcDbEntity
  8
Default
100
AcDbBlockReference
  2
SE
 10
0.0
 20
0.0
 30
0.0
  0
INSERT
  5
12E
330
1F
100
AcDbEntity
  8
Default
100
AcDbBlockReference
  2
SE1
 10
0.0
 20
0.0
 30
0.0
  0
INSERT
  5
215
330
1F
100
AcDbEntity
  8
Default
100
AcDbBlockReference
  2
SE2
 10
0.0
 20
0.0
 30
0.0
  0
INSERT
  5
298
330
1F
100
AcDbEntity
  8
Default
100
AcDbBlockReference
  2
GDimGGroup
 10
0.0
 20
0.0
 30
0.0
  0
INSERT
  5
2A4
330
1F
100
AcDbEntity
  8
Default
100
AcDbBlockReference
  2
GDimGGroup1
 10
0.0
 20
0.0
 30
0.0
  0
INSERT
  5
2B0
330
1F
100
AcDbEntity
  8
Default
100
AcDbBlockReference
  2
GDimGGroup2
 10
0.0
 20
0.0
 30
0.0
  0
INSERT
  5
2BD
330
1F
100
AcDbEntity
  8
Default
100
AcDbBlockReference
  2
GDimGGroup3
 10
0.0
 20
0.0
 30
0.0
  0
INSERT
  5
2C9
330
1F
100
AcDbEntity
  8
Default
100
AcDbBlockReference
  2
GDimGGroup4
 10
0.0
 20
0.0
 30
0.0
  0
INSERT
  5
2D5
330
1F
100
AcDbEntity
  8
Default
100
AcDbBlockReference
  2
GDimGGroup5
 10
0.0
 20
0.0
 30
0.0
  0
INSERT
  5
2E3
330
1F
100
AcDbEntity
  8
Default
100
AcDbBlockReference
  2
GDimGGroup6
 10
0.0
 20
0.0
 30
0.0
  0
INSERT
  5
2F1
330
1F
100
AcDbEntity
  8
Default
100
AcDbBlockReference
  2
GDimGGroup7
 10
0.0
 20
0.0
 30
0.0
  0
INSERT
  5
2FD
330
1F
100
AcDbEntity
  8
Default
100
AcDbBlockReference
  2
GDimGGroup8
 10
0.0
 20
0.0
 30
0.0
  0
INSERT
  5
309
330
1F
100
AcDbEntity
  8
Default
100
AcDbBlockReference
  2
GDimGGroup9
 10
0.0
 20
0.0
 30
0.0
  0
INSERT
  5
315
330
1F
100
AcDbEntity
  8
Default
100
AcDbBlockReference
  2
GDimGGroup10
 10
0.0
 20
0.0
 30
0.0
  0
INSERT
  5
321
330
1F
100
AcDbEntity
  8
Default
100
AcDbBlockReference
  2
GDimGGroup11
 10
0.0
 20
0.0
 30
0.0
  0
INSERT
  5
32D
330
1F
100
AcDbEntity
  8
Default
100
AcDbBlockReference
  2
GDimGGroup12
 10
0.0
 20
0.0
 30
0.0
  0
INSERT
  5
338
330
1F
100
AcDbEntity
  8
Default
100
AcDbBlockReference
  2
GDimGGroup13
 10
0.0
 20
0.0
 30
0.0
  0
INSERT
  5
344
330
1F
100
AcDbEntity
  8
Default
100
AcDbBlockReference
  2
GDimGGroup14
 10
0.0
 20
0.0
 30
0.0
  0
INSERT
  5
34F
330
1F
100
AcDbEntity
  8
Default
100
AcDbBlockReference
  2
GDimGGroup15
 10
0.0
 20
0.0
 30
0.0
  0
INSERT
  5
35C
330
1F
100
AcDbEntity
  8
Default
100
AcDbBlockReference
  2
GDimGGroup16
 10
0.0
 20
0.0
 30
0.0
  0
INSERT
  5
367
330
1F
100
AcDbEntity
  8
Default
100
AcDbBlockReference
  2
GDimGGroup17
 10
0.0
 20
0.0
 30
0.0
  0
INSERT
  5
372
330
1F
100
AcDbEntity
  8
Default
100
AcDbBlockReference
  2
GDimGGroup18
 10
0.0
 20
0.0
 30
0.0
  0
INSERT
  5
37F
330
1F
100
AcDbEntity
  8
Default
100
AcDbBlockReference
  2
GDimGGroup19
 10
0.0
 20
0.0
 30
0.0
  0
INSERT
  5
38D
330
1F
100
AcDbEntity
  8
Default
100
AcDbBlockReference
  2
GDimGGroup20
 10
0.0
 20
0.0
 30
0.0
  0
INSERT
  5
399
330
1F
100
AcDbEntity
  8
Default
100
AcDbBlockReference
  2
GDimGGroup21
 10
0.0
 20
0.0
 30
0.0
  0
INSERT
  5
3A4
330
1F
100
AcDbEntity
  8
Default
100
AcDbBlockReference
  2
GDimGGroup22
 10
0.0
 20
0.0
 30
0.0
  0
INSERT
  5
3AE
330
1F
100
AcDbEntity
  8
Default
100
AcDbBlockReference
  2
GDimGGroup23
 10
0.0
 20
0.0
 30
0.0
  0
INSERT
  5
3BA
330
1F
100
AcDbEntity
  8
Default
100
AcDbBlockReference
  2
GDimGGroup24
 10
0.0
 20
0.0
 30
0.0
  0
INSERT
  5
3C4
330
1F
100
AcDbEntity
  8
Default
100
AcDbBlockReference
  2
GDimGGroup25
 10
0.0
 20
0.0
 30
0.0
  0
INSERT
  5
3D1
330
1F
100
AcDbEntity
  8
Default
100
AcDbBlockReference
  2
GDimGGroup26
 10
0.0
 20
0.0
 30
0.0
  0
INSERT
  5
3DD
330
1F
100
AcDbEntity
  8
Default
100
AcDbBlockReference
  2
GDimGGroup27
 10
0.0
 20
0.0
 30
0.0
  0
INSERT
  5
3E9
330
1F
100
AcDbEntity
  8
Default
100
AcDbBlockReference
  2
GDimGGroup28
 10
0.0
 20
0.0
 30
0.0
  0
INSERT
  5
3F5
330
1F
100
AcDbEntity
  8
Default
100
AcDbBlockReference
  2
GDimGGroup29
 10
0.0
 20
0.0
 30
0.0
  0
INSERT
  5
402
330
1F
100
AcDbEntity
  8
Default
100
AcDbBlockReference
  2
GDimGGroup30
 10
0.0
 20
0.0
 30
0.0
  0
INSERT
  5
410
330
1F
100
AcDbEntity
  8
Default
100
AcDbBlockReference
  2
GDimGGroup31
 10
0.0
 20
0.0
 30
0.0
  0
INSERT
  5
41C
330
1F
100
AcDbEntity
  8
Default
100
AcDbBlockReference
  2
GDimGGroup32
 10
0.0
 20
0.0
 30
0.0
  0
INSERT
  5
428
330
1F
100
AcDbEntity
  8
Default
100
AcDbBlockReference
  2
GDimGGroup33
 10
0.0
 20
0.0
 30
0.0
  0
LINE
  5
436
330
1F
100
AcDbEntity
  8
BORDER
  6
Continuous
 62
     7
 48
25.4
100
AcDbLine
 10
6.2292620399
 20
408.4651325162
 30
0.0
 11
586.2292620399
 21
408.4651325162
 31
0.0
  0
LINE
  5
437
330
1F
100
AcDbEntity
  8
BORDER
  6
Continuous
 62
     7
 48
25.4
100
AcDbLine
 10
6.2292620399
 20
408.4651325162
 30
0.0
 11
6.2292620399
 21
8.4651325162
 31
0.0
  0
LINE
  5
438
330
1F
100
AcDbEntity
  8
BORDER
  6
Continuous
 62
     7
 48
25.4
100
AcDbLine
 10
6.2292620399
 20
8.4651325162
 30
0.0
 11
586.2292620399
 21
8.4651325162
 31
0.0
  0
LINE
  5
439
330
1F
100
AcDbEntity
  8
BORDER
  6
Continuous
 62
     7
 48
25.4
100
AcDbLine
 10
586.2292620399
 20
8.4651325162
 30
0.0
 11
586.2292620399
 21
408.4651325162
 31
0.0
  0
LINE
  5
43A
330
1F
100
AcDbEntity
  8
Default
  6
Continuous
 62
     7
 48
25.4
100
AcDbLine
 10
3.7292620399
 20
410.9651325162
 30
0.0
 11
588.7292620399
 21
410.9651325162
 31
0.0
  0
LINE
  5
43B
330
1F
100
AcDbEntity
  8
Default
  6
Continuous
 62
     7
 48
25.4
100
AcDbLine
 10
588.7292620399
 20
410.9651325162
 30
0.0
 11
588.7292620399
 21
5.9651325162
 31
0.0
  0
LINE
  5
43C
330
1F
100
AcDbEntity
  8
Default
  6
Continuous
 62
     7
 48
25.4
100
AcDbLine
 10
588.7292620399
 20
5.9651325162
 30
0.0
 11
3.7292620399
 21
5.9651325162
 31
0.0
  0
LINE
  5
43D
330
1F
100
AcDbEntity
  8
Default
  6
Continuous
 62
     7
 48
25.4
100
AcDbLine
 10
3.7292620399
 20
5.9651325162
 30
0.0
 11
3.7292620399
 21
410.9651325162
 31
0.0
  0
TEXT
  5
43E
330
1F
100
AcDbEntity
  8
Default
  6
Continuous
 62
     7
 48
25.4
100
AcDbText
 10
473.5242219525
 20
26.6212936876
 30
0.0
 40
5.0
  1
TITLE :
  7
SEACAD_arial_ttf
 11
473.5242219525
 21
31.6212936876
 31
0.0
100
AcDbText
 73
     3
  0
TEXT
  5
43F
330
1F
100
AcDbEntity
  8
Default
  6
Continuous
 62
     7
 48
25.4
100
AcDbText
 10
473.4498030642
 20
38.7361567855
 30
0.0
 40
5.0
  1
KITAGAWA EUROPE LIMITED
  7
SEACAD_arial_ttf
 11
473.4498030642
 21
43.7361567855
 31
0.0
100
AcDbText
 73
     3
  0
TEXT
  5
440
330
1F
100
AcDbEntity
  8
Default
  6
Continuous
 62
     7
 48
25.4
100
AcDbText
 10
474.4044215056
 20
14.2263277309
 30
0.0
 40
5.0
  1
www.kitagawaeurope.com
  7
SEACAD_arial_ttf
 11
474.4044215056
 21
19.2263277309
 31
0.0
100
AcDbText
 73
     3
  0
TEXT
  5
441
330
1F
100
AcDbEntity
  8
Default
  6
Continuous
 62
     7
 48
25.4
100
AcDbText
 10
497.8463064412
 20
26.3210535629
 30
0.0
 40
5.0
  1
BL208A6 POWER CHUCK
  7
SEACAD_arial_ttf
 11
497.8463064412
 21
31.3210535629
 31
0.0
100
AcDbText
 73
     3
  0
LINE
  5
442
330
1F
100
AcDbEntity
  8
Default
  6
Continuous
 62
     7
 48
25.4
100
AcDbLine
 10
471.5030858285
 20
48.4651325162
 30
0.0
 11
586.2292620399
 21
48.4651325162
 31
0.0
  0
LINE
  5
443
330
1F
100
AcDbEntity
  8
Default
  6
Continuous
 62
     7
 48
25.4
100
AcDbLine
 10
471.5030858285
 20
35.1651325162
 30
0.0
 11
586.2292620399
 21
35.1651325162
 31
0.0
  0
LINE
  5
444
330
1F
100
AcDbEntity
  8
Default
  6
Continuous
 62
     7
 48
25.4
100
AcDbLine
 10
586.2292620399
 20
21.8651325162
 30
0.0
 11
471.5030858285
 21
21.8651325162
 31
0.0
  0
LINE
  5
445
330
1F
100
AcDbEntity
  8
Default
  6
Continuous
 62
     7
 48
25.4
100
AcDbLine
 10
471.5030858285
 20
48.4651325162
 30
0.0
 11
471.5030858285
 21
8.4651325162
 31
0.0
  0
ENDSEC
  0
SECTION
  2
OBJECTS
  0
DICTIONARY
  5
C
330
0
100
AcDbDictionary
281
     1
  3
ACAD_GROUP
350
D
  3
ACAD_LAYOUT
350
1A
  3
ACAD_MLINESTYLE
350
17
  3
ACAD_PLOTSETTINGS
350
19
  3
ACAD_PLOTSTYLENAME
350
E
  0
DICTIONARY
  5
D
102
{ACAD_REACTORS
330
C
102
}
330
C
100
AcDbDictionary
281
     1
  0
DICTIONARY
  5
1A
102
{ACAD_REACTORS
330
C
102
}
330
C
100
AcDbDictionary
281
     1
  3
Layout1
350
1E
  3
Model
350
22
  0
DICTIONARY
  5
17
102
{ACAD_REACTORS
330
C
102
}
330
C
100
AcDbDictionary
281
     1
  3
Standard
350
18
  0
DICTIONARY
  5
19
102
{ACAD_REACTORS
330
C
102
}
330
C
100
AcDbDictionary
281
     1
  0
ACDBDICTIONARYWDFLT
  5
E
102
{ACAD_REACTORS
330
C
102
}
330
C
100
AcDbDictionary
281
     1
  3
Normal
350
F
100
AcDbDictionaryWithDefault
340
F
  0
LAYOUT
  5
1E
102
{ACAD_REACTORS
330
1A
102
}
330
1A
100
AcDbPlotSettings
  1

  2

  4

  6

 40
0.0
 41
0.0
 42
0.0
 43
0.0
 44
0.0
 45
0.0
 46
0.0
 47
0.0
 48
0.0
 49
0.0
140
0.0
141
0.0
142
1.0
143
1.0
 70
   688
 72
     0
 73
     0
 74
     5
  7

 75
    16
147
1.0
148
0.0
149
0.0
100
AcDbLayout
  1
Layout1
 70
     1
 71
     1
 10
0.0
 20
0.0
 11
594.0
 21
420.0
 12
0.0
 22
0.0
 32
0.0
 14
0.0
 24
0.0
 34
0.0
 15
594.0
 25
420.0
 35
0.0
146
0.0
 13
0.0
 23
0.0
 33
0.0
 16
1.0
 26
0.0
 36
0.0
 17
0.0
 27
1.0
 37
0.0
 76
     0
330
1B
  0
LAYOUT
  5
22
102
{ACAD_REACTORS
330
1A
102
}
330
1A
100
AcDbPlotSettings
  1

  2

  4

  6

 40
0.0
 41
0.0
 42
0.0
 43
0.0
 44
0.0
 45
0.0
 46
0.0
 47
0.0
 48
0.0
 49
0.0
140
0.0
141
0.0
142
1.0
143
1.0
 70
  1712
 72
     0
 73
     0
 74
     0
  7

 75
     0
147
1.0
148
0.0
149
0.0
100
AcDbLayout
  1
Model
 70
     1
 71
     0
 10
0.0
 20
0.0
 11
594.0
 21
420.0
 12
0.0
 22
0.0
 32
0.0
 14
0.0
 24
0.0
 34
0.0
 15
594.0
 25
420.0
 35
0.0
146
0.0
 13
0.0
 23
0.0
 33
0.0
 16
1.0
 26
0.0
 36
0.0
 17
0.0
 27
1.0
 37
0.0
 76
     0
330
1F
  0
MLINESTYLE
  5
18
102
{ACAD_REACTORS
330
17
102
}
330
17
100
AcDbMlineStyle
  2
Standard
 70
     0
  3

 62
   256
 51
90.0
 52
90.0
 71
     2
 49
0.5
 62
   256
  6
BYLAYER
 49
-0.5
 62
   256
  6
BYLAYER
  0
ACDBPLACEHOLDER
  5
F
102
{ACAD_REACTORS
330
E
102
}
330
E
  0
ENDSEC
  0
EOF
