  0
SECTION
  2
HEADER
  9
$ACADVER
  1
AC1015
  9
$ACADMAINTVER
 70
     6
  9
$DWGCODEPAGE
  3
ANSI_1252
  9
$INSBASE
 10
0.0
 20
0.0
 30
0.0
  9
$EXTMIN
 10
0.0
 20
0.0
 30
0.0
  9
$EXTMAX
 10
594.0
 20
420.0
 30
0.0
  9
$LIMMIN
 10
0.0
 20
0.0
  9
$LIMMAX
 10
594.0
 20
420.0
  9
$ORTHOMODE
 70
     0
  9
$REGENMODE
 70
     1
  9
$FILLMODE
 70
     1
  9
$QTEXTMODE
 70
     0
  9
$MIRRTEXT
 70
     1
  9
$LTSCALE
 40
1.0
  9
$ATTMODE
 70
     1
  9
$TEXTSIZE
 40
0.2
  9
$TRACEWID
 40
0.05
  9
$TEXTSTYLE
  7
Standard
  9
$CLAYER
  8
0
  9
$CELTYPE
  6
ByLayer
  9
$CECOLOR
 62
   256
  9
$CELTSCALE
 40
25.4
  9
$DISPSILH
 70
     0
  9
$DIMSCALE
 40
1.0
  9
$DIMASZ
 40
0.18
  9
$DIMEXO
 40
0.0625
  9
$DIMDLI
 40
0.38
  9
$DIMRND
 40
0.0
  9
$DIMDLE
 40
0.0
  9
$DIMEXE
 40
0.18
  9
$DIMTP
 40
0.0
  9
$DIMTM
 40
0.0
  9
$DIMTXT
 40
0.18
  9
$DIMCEN
 40
0.09
  9
$DIMTSZ
 40
0.0
  9
$DIMTOL
 70
     0
  9
$DIMLIM
 70
     0
  9
$DIMTIH
 70
     1
  9
$DIMTOH
 70
     1
  9
$DIMSE1
 70
     0
  9
$DIMSE2
 70
     0
  9
$DIMTAD
 70
     0
  9
$DIMZIN
 70
     0
  9
$DIMBLK
  1

  9
$DIMASO
 70
     1
  9
$DIMSHO
 70
     1
  9
$DIMPOST
  1

  9
$DIMAPOST
  1

  9
$DIMALT
 70
     0
  9
$DIMALTD
 70
     2
  9
$DIMALTF
 40
25.4
  9
$DIMLFAC
 40
1.0
  9
$DIMTOFL
 70
     0
  9
$DIMTVP
 40
0.0
  9
$DIMTIX
 70
     0
  9
$DIMSOXD
 70
     0
  9
$DIMSAH
 70
     0
  9
$DIMBLK1
  1

  9
$DIMBLK2
  1

  9
$DIMSTYLE
  2
Standard
  9
$DIMCLRD
 70
     0
  9
$DIMCLRE
 70
     0
  9
$DIMCLRT
 70
     0
  9
$DIMTFAC
 40
1.0
  9
$DIMGAP
 40
0.09
  9
$DIMJUST
 70
     0
  9
$DIMSD1
 70
     0
  9
$DIMSD2
 70
     0
  9
$DIMTOLJ
 70
     1
  9
$DIMTZIN
 70
     0
  9
$DIMALTZ
 70
     0
  9
$DIMALTTZ
 70
     0
  9
$DIMUPT
 70
     0
  9
$DIMDEC
 70
     4
  9
$DIMTDEC
 70
     4
  9
$DIMALTU
 70
     2
  9
$DIMALTTD
 70
     2
  9
$DIMTXSTY
  7
Standard
  9
$DIMAUNIT
 70
     0
  9
$DIMADEC
 70
     0
  9
$DIMALTRND
 40
0.0
  9
$DIMAZIN
 70
     0
  9
$DIMDSEP
 70
    46
  9
$DIMATFIT
 70
     3
  9
$DIMFRAC
 70
     0
  9
$DIMLDRBLK
  1

  9
$DIMLUNIT
 70
     2
  9
$DIMLWD
 70
    -2
  9
$DIMLWE
 70
    -2
  9
$DIMTMOVE
 70
     0
  9
$LUNITS
 70
     2
  9
$LUPREC
 70
     4
  9
$SKETCHINC
 40
0.1
  9
$FILLETRAD
 40
0.5
  9
$AUNITS
 70
     0
  9
$AUPREC
 70
     0
  9
$MENU
  1
.
  9
$ELEVATION
 40
0.0
  9
$PELEVATION
 40
0.0
  9
$THICKNESS
 40
0.0
  9
$LIMCHECK
 70
     0
  9
$CHAMFERA
 40
0.5
  9
$CHAMFERB
 40
0.5
  9
$CHAMFERC
 40
1.0
  9
$CHAMFERD
 40
0.0
  9
$SKPOLY
 70
     0
  9
$TDCREATE
 40
2454910.391489028
  9
$TDUCREATE
 40
2454910.391489028
  9
$TDUPDATE
 40
2454910.391489039
  9
$TDUUPDATE
 40
2454910.391489039
  9
$TDINDWG
 40
0.0000000116
  9
$TDUSRTIMER
 40
0.0000000116
  9
$USRTIMER
 70
     1
  9
$ANGBASE
 50
0.0
  9
$ANGDIR
 70
     0
  9
$PDMODE
 70
     0
  9
$PDSIZE
 40
0.0
  9
$PLINEWID
 40
0.0
  9
$SPLFRAME
 70
     0
  9
$SPLINETYPE
 70
     6
  9
$SPLINESEGS
 70
     8
  9
$HANDSEED
  5
468
  9
$SURFTAB1
 70
     6
  9
$SURFTAB2
 70
     6
  9
$SURFTYPE
 70
     6
  9
$SURFU
 70
     6
  9
$SURFV
 70
     6
  9
$UCSBASE
  2

  9
$UCSNAME
  2

  9
$UCSORG
 10
0.0
 20
0.0
 30
0.0
  9
$UCSXDIR
 10
1.0
 20
0.0
 30
0.0
  9
$UCSYDIR
 10
0.0
 20
1.0
 30
0.0
  9
$UCSORTHOREF
  2

  9
$UCSORTHOVIEW
 70
     0
  9
$UCSORGTOP
 10
0.0
 20
0.0
 30
0.0
  9
$UCSORGBOTTOM
 10
0.0
 20
0.0
 30
0.0
  9
$UCSORGLEFT
 10
0.0
 20
0.0
 30
0.0
  9
$UCSORGRIGHT
 10
0.0
 20
0.0
 30
0.0
  9
$UCSORGFRONT
 10
0.0
 20
0.0
 30
0.0
  9
$UCSORGBACK
 10
0.0
 20
0.0
 30
0.0
  9
$PUCSBASE
  2

  9
$PUCSNAME
  2

  9
$PUCSORG
 10
0.0
 20
0.0
 30
0.0
  9
$PUCSXDIR
 10
1.0
 20
0.0
 30
0.0
  9
$PUCSYDIR
 10
0.0
 20
1.0
 30
0.0
  9
$PUCSORTHOREF
  2

  9
$PUCSORTHOVIEW
 70
     0
  9
$PUCSORGTOP
 10
0.0
 20
0.0
 30
0.0
  9
$PUCSORGBOTTOM
 10
0.0
 20
0.0
 30
0.0
  9
$PUCSORGLEFT
 10
0.0
 20
0.0
 30
0.0
  9
$PUCSORGRIGHT
 10
0.0
 20
0.0
 30
0.0
  9
$PUCSORGFRONT
 10
0.0
 20
0.0
 30
0.0
  9
$PUCSORGBACK
 10
0.0
 20
0.0
 30
0.0
  9
$USERI1
 70
     0
  9
$USERI2
 70
     0
  9
$USERI3
 70
     0
  9
$USERI4
 70
     0
  9
$USERI5
 70
     0
  9
$USERR1
 40
0.0
  9
$USERR2
 40
0.0
  9
$USERR3
 40
0.0
  9
$USERR4
 40
0.0
  9
$USERR5
 40
0.0
  9
$WORLDVIEW
 70
     1
  9
$SHADEDGE
 70
     3
  9
$SHADEDIF
 70
    70
  9
$TILEMODE
 70
     1
  9
$MAXACTVP
 70
    64
  9
$PINSBASE
 10
0.0
 20
0.0
 30
0.0
  9
$PLIMCHECK
 70
     0
  9
$PEXTMIN
 10
0.0
 20
0.0
 30
0.0
  9
$PEXTMAX
 10
594.0
 20
420.0
 30
0.0
  9
$PLIMMIN
 10
0.0
 20
0.0
  9
$PLIMMAX
 10
594.0
 20
420.0
  9
$UNITMODE
 70
     0
  9
$VISRETAIN
 70
     1
  9
$PLINEGEN
 70
     0
  9
$PSLTSCALE
 70
     1
  9
$TREEDEPTH
 70
  3020
  9
$CMLSTYLE
  2
Standard
  9
$CMLJUST
 70
     0
  9
$CMLSCALE
 40
1.0
  9
$PROXYGRAPHICS
 70
     1
  9
$MEASUREMENT
 70
     1
  9
$CELWEIGHT
370
    -1
  9
$ENDCAPS
280
     0
  9
$JOINSTYLE
280
     0
  9
$LWDISPLAY
290
     0
  9
$INSUNITS
 70
     1
  9
$HYPERLINKBASE
  1

  9
$STYLESHEET
  1

  9
$XEDIT
290
     1
  9
$CEPSNTYPE
380
     0
  9
$PSTYLEMODE
290
     1
  9
$FINGERPRINTGUID
  2
{A02EB5BE-B31E-41C8-80A2-008511817BC6}
  9
$VERSIONGUID
  2
{FAEB1C32-E019-11D5-929B-00C0DF256EC4}
  9
$EXTNAMES
290
     1
  9
$PSVPSCALE
 40
0.0
  9
$OLESTARTUP
290
     0
  0
ENDSEC
  0
SECTION
  2
CLASSES
  0
CLASS
  1
ACDBDICTIONARYWDFLT
  2
AcDbDictionaryWithDefault
  3
ObjectDBX Classes
 90
        0
280
     0
281
     0
  0
CLASS
  1
ACDBPLACEHOLDER
  2
AcDbPlaceHolder
  3
ObjectDBX Classes
 90
        0
280
     0
281
     0
  0
CLASS
  1
LAYOUT
  2
AcDbLayout
  3
ObjectDBX Classes
 90
        0
280
     0
281
     0
  0
ENDSEC
  0
SECTION
  2
TABLES
  0
TABLE
  2
VPORT
  5
8
330
0
100
AcDbSymbolTable
 70
     1
  0
VPORT
  5
29
330
8
100
AcDbSymbolTableRecord
100
AcDbViewportTableRecord
  2
*Active
 70
     0
 10
0.0
 20
0.0
 11
1.0
 21
1.0
 12
10.4299065421
 22
4.5
 13
0.0
 23
0.0
 14
0.5
 24
0.5
 15
0.5
 25
0.5
 16
0.0
 26
0.0
 36
1.0
 17
0.0
 27
0.0
 37
0.0
 40
9.0
 41
1.9729729729
 42
50.0
 43
0.0
 44
0.0
 50
0.0
 51
0.0
 71
     0
 72
   100
 73
     1
 74
     3
 75
     0
 76
     0
 77
     0
 78
     0
281
     0
 65
     1
110
0.0
120
0.0
130
0.0
111
1.0
121
0.0
131
0.0
112
0.0
122
1.0
132
0.0
 79
     0
146
0.0
  0
ENDTAB
  0
TABLE
  2
LTYPE
  5
5
330
0
100
AcDbSymbolTable
 70
     3
  0
LTYPE
  5
14
330
5
100
AcDbSymbolTableRecord
100
AcDbLinetypeTableRecord
  2
ByBlock
 70
     0
  3

 72
    65
 73
     0
 40
0.0
  0
LTYPE
  5
15
330
5
100
AcDbSymbolTableRecord
100
AcDbLinetypeTableRecord
  2
ByLayer
 70
     0
  3

 72
    65
 73
     0
 40
0.0
  0
LTYPE
  5
16
330
5
100
AcDbSymbolTableRecord
100
AcDbLinetypeTableRecord
  2
Continuous
 70
     0
  3
Solid line
 72
    65
 73
     0
 40
0.0
  0
LTYPE
  5
5A
330
5
100
AcDbSymbolTableRecord
100
AcDbLinetypeTableRecord
  2
CENTER2
 70
     0
  3
___ _ ___ _ ___ _ ___ _ ___ _ ___ _ ___ _ ___ _
 72
    65
 73
     4
 40
1.125
 49
0.75
 74
     4
 75
     0
340
0
 46
0.0
 50
0.0
 44
0.0
 45
0.0
 49
-0.125
 74
     4
 75
     0
340
0
 46
0.0
 50
0.0
 44
0.0
 45
0.0
 49
0.125
 74
     4
 75
     0
340
0
 46
0.0
 50
0.0
 44
0.0
 45
0.0
 49
-0.125
 74
     4
 75
     0
340
0
 46
0.0
 50
0.0
 44
0.0
 45
0.0
  0
LTYPE
  5
195
330
5
100
AcDbSymbolTableRecord
100
AcDbLinetypeTableRecord
  2
HIDDEN2
 70
     0
  3
_ _ _ _ _ _ _ _ _ _ _ _ _ _ _ _ _ _ _ _ _ _ _ _
 72
    65
 73
     2
 40
0.1875
 49
0.125
 74
     4
 75
     0
340
0
 46
0.0
 50
0.0
 44
0.0
 45
0.0
 49
-0.0625
 74
     4
 75
     0
340
0
 46
0.0
 50
0.0
 44
0.0
 45
0.0
  0
ENDTAB
  0
TABLE
  2
LAYER
  5
2
330
0
100
AcDbSymbolTable
 70
     6
  0
LAYER
  5
10
330
2
100
AcDbSymbolTableRecord
100
AcDbLayerTableRecord
  2
0
 70
     0
 62
     7
  6
Continuous
370
    -3
390
F
  0
LAYER
  5
2A
330
2
100
AcDbSymbolTableRecord
100
AcDbLayerTableRecord
  2
Default
 70
     0
 62
     7
  6
Continuous
370
    -3
390
F
  0
LAYER
  5
53
330
2
100
AcDbSymbolTableRecord
100
AcDbLayerTableRecord
  2
DV1_Default
 70
     0
 62
     7
  6
Continuous
370
    -3
390
F
  0
LAYER
  5
169
330
2
100
AcDbSymbolTableRecord
100
AcDbLayerTableRecord
  2
DV2_Default
 70
     0
 62
     7
  6
Continuous
370
    -3
390
F
  0
LAYER
  5
233
330
2
100
AcDbSymbolTableRecord
100
AcDbLayerTableRecord
  2
DV3_Default
 70
     0
 62
     7
  6
Continuous
370
    -3
390
F
  0
LAYER
  5
457
330
2
100
AcDbSymbolTableRecord
100
AcDbLayerTableRecord
  2
BORDER
 70
     0
 62
     7
  6
Continuous
370
    -3
390
F
  0
ENDTAB
  0
TABLE
  2
STYLE
  5
3
330
0
100
AcDbSymbolTable
 70
     3
  0
STYLE
  5
11
330
3
100
AcDbSymbolTableRecord
100
AcDbTextStyleTableRecord
  2
Standard
 70
     0
 40
0.0
 41
1.0
 50
0.0
 71
     0
 42
0.2
  3
txt
  4

  0
STYLE
  5
31
330
3
100
AcDbSymbolTableRecord
100
AcDbTextStyleTableRecord
  2
SEACAD_arial_ttf
 70
     0
 40
0.2
 41
1.0
 50
0.0
 71
     0
 42
0.2
  3
arial.ttf
  4

  0
STYLE
  5
2FE
330
3
100
AcDbSymbolTableRecord
100
AcDbTextStyleTableRecord
  2
SEACAD_semeca1_ttf
 70
     0
 40
0.2
 41
1.0
 50
0.0
 71
     0
 42
0.2
  3
semeca1.ttf
  4

  0
ENDTAB
  0
TABLE
  2
VIEW
  5
6
330
0
100
AcDbSymbolTable
 70
     0
  0
ENDTAB
  0
TABLE
  2
UCS
  5
7
330
0
100
AcDbSymbolTable
 70
     0
  0
ENDTAB
  0
TABLE
  2
APPID
  5
9
330
0
100
AcDbSymbolTable
 70
     1
  0
APPID
  5
12
330
9
100
AcDbSymbolTableRecord
100
AcDbRegAppTableRecord
  2
ACAD
 70
     0
  0
ENDTAB
  0
TABLE
  2
DIMSTYLE
  5
A
330
0
100
AcDbSymbolTable
 70
     1
100
AcDbDimStyleTable
  0
DIMSTYLE
105
27
330
A
100
AcDbSymbolTableRecord
100
AcDbDimStyleTableRecord
  2
Standard
 70
     0
340
11
  0
ENDTAB
  0
TABLE
  2
BLOCK_RECORD
  5
1
330
0
100
AcDbSymbolTable
 70
    41
  0
BLOCK_RECORD
  5
1F
330
1
100
AcDbSymbolTableRecord
100
AcDbBlockTableRecord
  2
*Model_Space
340
22
  0
BLOCK_RECORD
  5
1B
330
1
100
AcDbSymbolTableRecord
100
AcDbBlockTableRecord
  2
*Paper_Space
340
1E
  0
BLOCK_RECORD
  5
2B
330
1
100
AcDbSymbolTableRecord
100
AcDbBlockTableRecord
  2
SEANNOT_GROUP
340
0
102
{BLKREFS
331
2C
102
}
  0
BLOCK_RECORD
  5
36
330
1
100
AcDbSymbolTableRecord
100
AcDbBlockTableRecord
  2
SEANNOT_GROUP1
340
0
102
{BLKREFS
331
37
102
}
  0
BLOCK_RECORD
  5
3F
330
1
100
AcDbSymbolTableRecord
100
AcDbBlockTableRecord
  2
SEANNOT_GROUP2
340
0
102
{BLKREFS
331
40
102
}
  0
BLOCK_RECORD
  5
48
330
1
100
AcDbSymbolTableRecord
100
AcDbBlockTableRecord
  2
SEANNOT_GROUP3
340
0
102
{BLKREFS
331
49
102
}
  0
BLOCK_RECORD
  5
51
330
1
100
AcDbSymbolTableRecord
100
AcDbBlockTableRecord
  2
SE
340
0
102
{BLKREFS
331
52
102
}
  0
BLOCK_RECORD
  5
167
330
1
100
AcDbSymbolTableRecord
100
AcDbBlockTableRecord
  2
SE1
340
0
102
{BLKREFS
331
168
102
}
  0
BLOCK_RECORD
  5
231
330
1
100
AcDbSymbolTableRecord
100
AcDbBlockTableRecord
  2
SE2
340
0
102
{BLKREFS
331
232
102
}
  0
BLOCK_RECORD
  5
2C2
330
1
100
AcDbSymbolTableRecord
100
AcDbBlockTableRecord
  2
GDimGGroup
340
0
102
{BLKREFS
331
2C3
102
}
  0
BLOCK_RECORD
  5
2CF
330
1
100
AcDbSymbolTableRecord
100
AcDbBlockTableRecord
  2
GDimGGroup1
340
0
102
{BLKREFS
331
2D0
102
}
  0
BLOCK_RECORD
  5
2DB
330
1
100
AcDbSymbolTableRecord
100
AcDbBlockTableRecord
  2
GDimGGroup2
340
0
102
{BLKREFS
331
2DC
102
}
  0
BLOCK_RECORD
  5
2E7
330
1
100
AcDbSymbolTableRecord
100
AcDbBlockTableRecord
  2
GDimGGroup3
340
0
102
{BLKREFS
331
2E8
102
}
  0
BLOCK_RECORD
  5
2F3
330
1
100
AcDbSymbolTableRecord
100
AcDbBlockTableRecord
  2
GDimGGroup4
340
0
102
{BLKREFS
331
2F4
102
}
  0
BLOCK_RECORD
  5
302
330
1
100
AcDbSymbolTableRecord
100
AcDbBlockTableRecord
  2
GDimGGroup5
340
0
102
{BLKREFS
331
303
102
}
  0
BLOCK_RECORD
  5
30E
330
1
100
AcDbSymbolTableRecord
100
AcDbBlockTableRecord
  2
GDimGGroup6
340
0
102
{BLKREFS
331
30F
102
}
  0
BLOCK_RECORD
  5
31A
330
1
100
AcDbSymbolTableRecord
100
AcDbBlockTableRecord
  2
GDimGGroup7
340
0
102
{BLKREFS
331
31B
102
}
  0
BLOCK_RECORD
  5
326
330
1
100
AcDbSymbolTableRecord
100
AcDbBlockTableRecord
  2
GDimGGroup8
340
0
102
{BLKREFS
331
327
102
}
  0
BLOCK_RECORD
  5
332
330
1
100
AcDbSymbolTableRecord
100
AcDbBlockTableRecord
  2
GDimGGroup9
340
0
102
{BLKREFS
331
333
102
}
  0
BLOCK_RECORD
  5
33E
330
1
100
AcDbSymbolTableRecord
100
AcDbBlockTableRecord
  2
GDimGGroup10
340
0
102
{BLKREFS
331
33F
102
}
  0
BLOCK_RECORD
  5
34A
330
1
100
AcDbSymbolTableRecord
100
AcDbBlockTableRecord
  2
GDimGGroup11
340
0
102
{BLKREFS
331
34B
102
}
  0
BLOCK_RECORD
  5
357
330
1
100
AcDbSymbolTableRecord
100
AcDbBlockTableRecord
  2
GDimGGroup12
340
0
102
{BLKREFS
331
358
102
}
  0
BLOCK_RECORD
  5
364
330
1
100
AcDbSymbolTableRecord
100
AcDbBlockTableRecord
  2
GDimGGroup13
340
0
102
{BLKREFS
331
365
102
}
  0
BLOCK_RECORD
  5
36F
330
1
100
AcDbSymbolTableRecord
100
AcDbBlockTableRecord
  2
GDimGGroup14
340
0
102
{BLKREFS
331
370
102
}
  0
BLOCK_RECORD
  5
37C
330
1
100
AcDbSymbolTableRecord
100
AcDbBlockTableRecord
  2
GDimGGroup15
340
0
102
{BLKREFS
331
37D
102
}
  0
BLOCK_RECORD
  5
388
330
1
100
AcDbSymbolTableRecord
100
AcDbBlockTableRecord
  2
GDimGGroup16
340
0
102
{BLKREFS
331
389
102
}
  0
BLOCK_RECORD
  5
394
330
1
100
AcDbSymbolTableRecord
100
AcDbBlockTableRecord
  2
GDimGGroup17
340
0
102
{BLKREFS
331
395
102
}
  0
BLOCK_RECORD
  5
3A2
330
1
100
AcDbSymbolTableRecord
100
AcDbBlockTableRecord
  2
GDimGGroup18
340
0
102
{BLKREFS
331
3A3
102
}
  0
BLOCK_RECORD
  5
3B0
330
1
100
AcDbSymbolTableRecord
100
AcDbBlockTableRecord
  2
GDimGGroup19
340
0
102
{BLKREFS
331
3B1
102
}
  0
BLOCK_RECORD
  5
3BC
330
1
100
AcDbSymbolTableRecord
100
AcDbBlockTableRecord
  2
GDimGGroup20
340
0
102
{BLKREFS
331
3BD
102
}
  0
BLOCK_RECORD
  5
3C9
330
1
100
AcDbSymbolTableRecord
100
AcDbBlockTableRecord
  2
GDimGGroup21
340
0
102
{BLKREFS
331
3CA
102
}
  0
BLOCK_RECORD
  5
3D5
330
1
100
AcDbSymbolTableRecord
100
AcDbBlockTableRecord
  2
GDimGGroup22
340
0
102
{BLKREFS
331
3D6
102
}
  0
BLOCK_RECORD
  5
3DF
330
1
100
AcDbSymbolTableRecord
100
AcDbBlockTableRecord
  2
GDimGGroup23
340
0
102
{BLKREFS
331
3E0
102
}
  0
BLOCK_RECORD
  5
3EC
330
1
100
AcDbSymbolTableRecord
100
AcDbBlockTableRecord
  2
GDimGGroup24
340
0
102
{BLKREFS
331
3ED
102
}
  0
BLOCK_RECORD
  5
3F8
330
1
100
AcDbSymbolTableRecord
100
AcDbBlockTableRecord
  2
GDimGGroup25
340
0
102
{BLKREFS
331
3F9
102
}
  0
BLOCK_RECORD
  5
404
330
1
100
AcDbSymbolTableRecord
100
AcDbBlockTableRecord
  2
GDimGGroup26
340
0
102
{BLKREFS
331
405
102
}
  0
BLOCK_RECORD
  5
410
330
1
100
AcDbSymbolTableRecord
100
AcDbBlockTableRecord
  2
GDimGGroup27
340
0
102
{BLKREFS
331
411
102
}
  0
BLOCK_RECORD
  5
41C
330
1
100
AcDbSymbolTableRecord
100
AcDbBlockTableRecord
  2
GDimGGroup28
340
0
102
{BLKREFS
331
41D
102
}
  0
BLOCK_RECORD
  5
428
330
1
100
AcDbSymbolTableRecord
100
AcDbBlockTableRecord
  2
GDimGGroup29
340
0
102
{BLKREFS
331
429
102
}
  0
BLOCK_RECORD
  5
435
330
1
100
AcDbSymbolTableRecord
100
AcDbBlockTableRecord
  2
GDimGGroup30
340
0
102
{BLKREFS
331
436
102
}
  0
BLOCK_RECORD
  5
443
330
1
100
AcDbSymbolTableRecord
100
AcDbBlockTableRecord
  2
GDimGGroup31
340
0
102
{BLKREFS
331
444
102
}
  0
BLOCK_RECORD
  5
44D
330
1
100
AcDbSymbolTableRecord
100
AcDbBlockTableRecord
  2
GDimGGroup32
340
0
102
{BLKREFS
331
44E
102
}
  0
ENDTAB
  0
ENDSEC
  0
SECTION
  2
BLOCKS
  0
BLOCK
  5
20
330
1F
100
AcDbEntity
  8
0
100
AcDbBlockBegin
  2
*Model_Space
 70
     0
 71
     0
 10
0.0
 20
0.0
 30
0.0
  3
*Model_Space
  1

  0
ENDBLK
  5
21
330
1F
100
AcDbEntity
  8
0
100
AcDbBlockEnd
  0
BLOCK
  5
1C
330
1B
100
AcDbEntity
 67
     1
  8
0
100
AcDbBlockBegin
  2
*Paper_Space
 70
     0
 71
     0
 10
0.0
 20
0.0
 30
0.0
  3
*Paper_Space
  1

  0
ENDBLK
  5
1D
330
1B
100
AcDbEntity
 67
     1
  8
0
100
AcDbBlockEnd
  0
BLOCK
  5
34
330
2B
100
AcDbEntity
  8
0
100
AcDbBlockBegin
  2
SEANNOT_GROUP
 70
     0
 71
     0
 10
0.0
 20
0.0
 30
0.0
  3
SEANNOT_GROUP
  1

  0
LWPOLYLINE
  5
2D
330
2B
100
AcDbEntity
  8
Default
  6
Continuous
 62
     7
 48
25.4
100
AcDbPolyline
 90
        2
 70
     0
 43
0.0
 10
256.2965567577
 20
397.8969305638
 10
220.4911812871
 20
381.969279323
  0
HATCH
  5
2E
330
2B
100
AcDbEntity
  8
Default
  6
Continuous
 62
     7
 48
25.4
100
AcDbHatch
 10
0.0
 20
0.0
 30
0.0
210
0.0
220
0.0
230
1.0
  2
SOLID
 70
     1
 71
     0
 91
        1
 92
        1
 93
        3
 72
     1
 10
223.8749313809462
 20
384.2041576885845
 11
220.4911812871033
 21
381.9692793229903
 72
     1
 10
220.4911812871033
 20
381.9692793229903
 11
224.4168513863366
 21
382.9859209897384
 72
     1
 10
224.4168513863366
 20
382.9859209897384
 11
223.8749313809462
 21
384.2041576885844
 97
        0
 75
     0
 76
     1
 98
        0
  0
LWPOLYLINE
  5
2F
330
2B
100
AcDbEntity
  8
Default
  6
Continuous
 62
     7
 48
25.4
370
    20
100
AcDbPolyline
 90
        4
 70
     1
 43
0.0
 10
223.8749313809
 20
384.2041576886
 10
220.4911812871
 20
381.969279323
 10
224.4168513863
 20
382.9859209897
 10
223.8749313809
 20
384.2041576886
  0
LINE
  5
30
330
2B
100
AcDbEntity
  8
Default
  6
Continuous
 62
     7
 48
25.4
100
AcDbLine
 10
256.2965567577
 20
397.8969305638
 30
0.0
 11
328.1371364678
 21
397.8969305638
 31
0.0
  0
TEXT
  5
32
330
2B
100
AcDbEntity
  8
Default
  6
Continuous
 62
     7
 48
25.4
100
AcDbText
 10
256.2965567577
 20
398.8969305638
 30
0.0
 40
4.0
  1
SERRATION PITCH 1.5X60
  7
SEACAD_arial_ttf
 11
256.2965567577
 21
402.8969305638
 31
0.0
100
AcDbText
 73
     3
  0
TEXT
  5
33
330
2B
100
AcDbEntity
  8
Default
  6
Continuous
 62
     7
 48
25.4
100
AcDbText
 10
326.4704698012
 20
398.8969305638
 30
0.0
 40
4.0
  1
°
  7
SEACAD_arial_ttf
 11
326.4704698012
 21
402.8969305638
 31
0.0
100
AcDbText
 73
     3
  0
ENDBLK
  5
35
330
2B
100
AcDbEntity
  8
0
100
AcDbBlockEnd
  0
BLOCK
  5
3D
330
36
100
AcDbEntity
  8
0
100
AcDbBlockBegin
  2
SEANNOT_GROUP1
 70
     0
 71
     0
 10
0.0
 20
0.0
 30
0.0
  3
SEANNOT_GROUP1
  1

  0
LWPOLYLINE
  5
38
330
36
100
AcDbEntity
  8
Default
  6
Continuous
 62
     7
 48
25.4
100
AcDbPolyline
 90
        2
 70
     0
 43
0.0
 10
166.1211296435
 20
355.3808026764
 10
150.1535160653
 20
319.1549154327
  0
HATCH
  5
39
330
36
100
AcDbEntity
  8
Default
  6
Continuous
 62
     7
 48
25.4
100
AcDbHatch
 10
0.0
 20
0.0
 30
0.0
210
0.0
220
0.0
230
1.0
  2
SOLID
 70
     1
 71
     0
 91
        1
 92
        1
 93
        3
 72
     1
 10
151.1568246344093
 20
323.0840143016181
 11
150.1535160653038
 21
319.1549154326989
 72
     1
 10
150.1535160653038
 20
319.1549154326989
 11
152.3768940746477
 21
322.5462332052099
 72
     1
 10
152.3768940746477
 20
322.5462332052099
 11
151.1568246344093
 21
323.0840143016182
 97
        0
 75
     0
 76
     1
 98
        0
  0
LWPOLYLINE
  5
3A
330
36
100
AcDbEntity
  8
Default
  6
Continuous
 62
     7
 48
25.4
370
    20
100
AcDbPolyline
 90
        4
 70
     1
 43
0.0
 10
151.1568246344
 20
323.0840143016
 10
150.1535160653
 20
319.1549154327
 10
152.3768940746
 20
322.5462332052
 10
151.1568246344
 20
323.0840143016
  0
LINE
  5
3B
330
36
100
AcDbEntity
  8
Default
  6
Continuous
 62
     7
 48
25.4
100
AcDbLine
 10
166.1211296435
 20
355.3808026764
 30
0.0
 11
201.8602600783
 21
355.3808026764
 31
0.0
  0
TEXT
  5
3C
330
36
100
AcDbEntity
  8
Default
  6
Continuous
 62
     7
 48
25.4
100
AcDbText
 10
166.1211296435
 20
356.3808026764
 30
0.0
 40
4.0
  1
MAX M65X2.0
  7
SEACAD_arial_ttf
 11
166.1211296435
 21
360.3808026764
 31
0.0
100
AcDbText
 73
     3
  0
ENDBLK
  5
3E
330
36
100
AcDbEntity
  8
0
100
AcDbBlockEnd
  0
BLOCK
  5
46
330
3F
100
AcDbEntity
  8
0
100
AcDbBlockBegin
  2
SEANNOT_GROUP2
 70
     0
 71
     0
 10
0.0
 20
0.0
 30
0.0
  3
SEANNOT_GROUP2
  1

  0
LWPOLYLINE
  5
41
330
3F
100
AcDbEntity
  8
Default
  6
Continuous
 62
     7
 48
25.4
100
AcDbPolyline
 90
        2
 70
     0
 43
0.0
 10
100.5757211923
 20
194.8757975577
 10
134.3484945458
 20
230.7744019463
  0
HATCH
  5
42
330
3F
100
AcDbEntity
  8
Default
  6
Continuous
 62
     7
 48
25.4
100
AcDbHatch
 10
0.0
 20
0.0
 30
0.0
210
0.0
220
0.0
230
1.0
  2
SOLID
 70
     1
 71
     0
 91
        1
 92
        1
 93
        3
 72
     1
 10
132.0932067382322
 20
227.404220510318
 11
134.3484945458377
 21
230.7744019463017
 72
     1
 10
134.3484945458377
 20
230.7744019463017
 11
131.1220823702162
 21
228.3178371741892
 72
     1
 10
131.1220823702162
 20
228.3178371741892
 11
132.0932067382322
 21
227.404220510318
 97
        0
 75
     0
 76
     1
 98
        0
  0
LWPOLYLINE
  5
43
330
3F
100
AcDbEntity
  8
Default
  6
Continuous
 62
     7
 48
25.4
370
    20
100
AcDbPolyline
 90
        4
 70
     1
 43
0.0
 10
132.0932067382
 20
227.4042205103
 10
134.3484945458
 20
230.7744019463
 10
131.1220823702
 20
228.3178371742
 10
132.0932067382
 20
227.4042205103
  0
LINE
  5
44
330
3F
100
AcDbEntity
  8
Default
  6
Continuous
 62
     7
 48
25.4
100
AcDbLine
 10
100.5757211923
 20
194.8757975577
 30
0.0
 11
84.7496342357
 21
194.8757975577
 31
0.0
  0
TEXT
  5
45
330
3F
100
AcDbEntity
  8
Default
  6
Continuous
 62
     7
 48
25.4
100
AcDbText
 10
84.7496342357
 20
195.8757975577
 30
0.0
 40
4.0
  1
3-M16
  7
SEACAD_arial_ttf
 11
84.7496342357
 21
199.8757975577
 31
0.0
100
AcDbText
 73
     3
  0
ENDBLK
  5
47
330
3F
100
AcDbEntity
  8
0
100
AcDbBlockEnd
  0
BLOCK
  5
4F
330
48
100
AcDbEntity
  8
0
100
AcDbBlockBegin
  2
SEANNOT_GROUP3
 70
     0
 71
     0
 10
0.0
 20
0.0
 30
0.0
  3
SEANNOT_GROUP3
  1

  0
LWPOLYLINE
  5
4A
330
48
100
AcDbEntity
  8
Default
  6
Continuous
 62
     7
 48
25.4
100
AcDbPolyline
 90
        2
 70
     0
 43
0.0
 10
99.2167814035
 20
227.5845235288
 10
114.5944193996
 20
245.4019599178
  0
HATCH
  5
4B
330
48
100
AcDbEntity
  8
Default
  6
Continuous
 62
     7
 48
25.4
100
AcDbHatch
 10
0.0
 20
0.0
 30
0.0
210
0.0
220
0.0
230
1.0
  2
SOLID
 70
     1
 71
     0
 91
        1
 92
        1
 93
        3
 72
     1
 10
112.4856186650243
 20
241.9382328113277
 11
114.5944193996266
 21
245.4019599178308
 72
     1
 10
114.5944193996266
 20
245.4019599178308
 11
111.4762369404613
 21
242.8093966769556
 72
     1
 10
111.4762369404613
 20
242.8093966769556
 11
112.4856186650243
 21
241.9382328113277
 97
        0
 75
     0
 76
     1
 98
        0
  0
LWPOLYLINE
  5
4C
330
48
100
AcDbEntity
  8
Default
  6
Continuous
 62
     7
 48
25.4
370
    20
100
AcDbPolyline
 90
        4
 70
     1
 43
0.0
 10
112.485618665
 20
241.9382328113
 10
114.5944193996
 20
245.4019599178
 10
111.4762369405
 20
242.809396677
 10
112.485618665
 20
241.9382328113
  0
LINE
  5
4D
330
48
100
AcDbEntity
  8
Default
  6
Continuous
 62
     7
 48
25.4
100
AcDbLine
 10
99.2167814035
 20
227.5845235288
 30
0.0
 11
83.390694447
 21
227.5845235288
 31
0.0
  0
TEXT
  5
4E
330
48
100
AcDbEntity
  8
Default
  6
Continuous
 62
     7
 48
25.4
100
AcDbText
 10
83.390694447
 20
228.5845235288
 30
0.0
 40
4.0
  1
6-M12
  7
SEACAD_arial_ttf
 11
83.390694447
 21
232.5845235288
 31
0.0
100
AcDbText
 73
     3
  0
ENDBLK
  5
50
330
48
100
AcDbEntity
  8
0
100
AcDbBlockEnd
  0
BLOCK
  5
165
330
51
100
AcDbEntity
  8
0
100
AcDbBlockBegin
  2
SE
 70
     0
 71
     0
 10
0.0
 20
0.0
 30
0.0
  3
SE
  1

  0
LINE
  5
54
330
51
100
AcDbEntity
  8
DV1_Default
  6
Continuous
 62
     7
 48
25.4
100
AcDbLine
 10
141.0411962543
 20
321.983810518
 30
0.0
 11
141.0411962543
 21
372.6760203474
 31
0.0
  0
LINE
  5
55
330
51
100
AcDbEntity
  8
DV1_Default
  6
Continuous
 62
     7
 48
25.4
100
AcDbLine
 10
140.3411962543
 20
373.3760203474
 30
0.0
 11
124.2411962543
 21
373.3760203474
 31
0.0
  0
LINE
  5
56
330
51
100
AcDbEntity
  8
DV1_Default
  6
Continuous
 62
     7
 48
25.4
100
AcDbLine
 10
123.5411962543
 20
372.6760203474
 30
0.0
 11
123.5411962543
 21
253.8019599178
 31
0.0
  0
LINE
  5
57
330
51
100
AcDbEntity
  8
DV1_Default
  6
Continuous
 62
     7
 48
25.4
100
AcDbLine
 10
124.2411962543
 20
219.3760203474
 30
0.0
 11
140.3411962543
 21
219.3760203474
 31
0.0
  0
LINE
  5
58
330
51
100
AcDbEntity
  8
DV1_Default
  6
Continuous
 62
     7
 48
25.4
100
AcDbLine
 10
141.0411962543
 20
243.0360179118
 30
0.0
 11
141.0411962543
 21
260.3260203474
 31
0.0
  0
LINE
  5
59
330
51
100
AcDbEntity
  8
DV1_Default
  6
Continuous
 62
     7
 48
25.4
100
AcDbLine
 10
137.5411962543
 20
270.8260203474
 30
0.0
 11
137.5411962543
 21
260.8926492853
 31
0.0
  0
LINE
  5
5B
330
51
100
AcDbEntity
  8
DV1_Default
  6
CENTER2
 62
     7
 48
25.4
100
AcDbLine
 10
225.6833234388
 20
236.3860203474
 30
0.0
 11
116.7068512105
 21
236.3860203474
 31
0.0
  0
LINE
  5
5C
330
51
100
AcDbEntity
  8
DV1_Default
  6
Continuous
 62
     7
 48
25.4
100
AcDbLine
 10
202.6411812871
 20
245.1882623095
 30
0.0
 11
202.6411812871
 21
236.3860203474
 31
0.0
  0
LINE
  5
5D
330
51
100
AcDbEntity
  8
DV1_Default
  6
Continuous
 62
     7
 48
25.4
100
AcDbLine
 10
202.6411812871
 20
242.3360179118
 30
0.0
 11
152.9459023825
 21
242.3360179118
 31
0.0
  0
LINE
  5
5E
330
51
100
AcDbEntity
  8
DV1_Default
  6
Continuous
 62
     7
 48
25.4
100
AcDbLine
 10
141.0411962543
 20
220.0760203474
 30
0.0
 11
141.0411962543
 21
229.7360227829
 31
0.0
  0
LINE
  5
5F
330
51
100
AcDbEntity
  8
DV1_Default
  6
Continuous
 62
     7
 48
25.4
100
AcDbLine
 10
149.9839713403
 20
241.9860179118
 30
0.0
 11
149.9839713403
 21
236.3860203474
 31
0.0
  0
LINE
  5
60
330
51
100
AcDbEntity
  8
DV1_Default
  6
CENTER2
 62
     7
 48
25.4
100
AcDbLine
 10
91.3435825041
 20
296.4049154327
 30
0.0
 11
257.5569555764
 21
296.4049154327
 31
0.0
  0
LINE
  5
61
330
51
100
AcDbEntity
  8
DV1_Default
  6
Continuous
 62
     7
 48
25.4
100
AcDbLine
 10
216.9911812871
 20
261.0874141671
 30
0.0
 11
212.44263272
 21
261.0874141671
 31
0.0
  0
LINE
  5
62
330
51
100
AcDbEntity
  8
DV1_Default
  6
Continuous
 62
     7
 48
25.4
100
AcDbLine
 10
216.9911812871
 20
260.7536076811
 30
0.0
 11
212.44263272
 21
260.7536076811
 31
0.0
  0
LINE
  5
63
330
51
100
AcDbEntity
  8
DV1_Default
  6
Continuous
 62
     7
 48
25.4
100
AcDbLine
 10
216.9911812871
 20
257.9536076811
 30
0.0
 11
212.44263272
 21
257.9536076811
 31
0.0
  0
LINE
  5
64
330
51
100
AcDbEntity
  8
DV1_Default
  6
Continuous
 62
     7
 48
25.4
100
AcDbLine
 10
202.6411812871
 20
244.8382623095
 30
0.0
 11
212.7911812871
 21
244.8382623095
 31
0.0
  0
LINE
  5
65
330
51
100
AcDbEntity
  8
DV1_Default
  6
Continuous
 62
     7
 48
25.4
100
AcDbLine
 10
202.6411812871
 20
227.5837783853
 30
0.0
 11
202.6411812871
 21
236.3860203474
 31
0.0
  0
LINE
  5
66
330
51
100
AcDbEntity
  8
DV1_Default
  6
Continuous
 62
     7
 48
25.4
100
AcDbLine
 10
202.6411812871
 20
230.4360227829
 30
0.0
 11
152.9459023825
 21
230.4360227829
 31
0.0
  0
LINE
  5
67
330
51
100
AcDbEntity
  8
DV1_Default
  6
Continuous
 62
     7
 48
25.4
100
AcDbLine
 10
149.9839713403
 20
230.7860227829
 30
0.0
 11
149.9839713403
 21
236.3860203474
 31
0.0
  0
LINE
  5
68
330
51
100
AcDbEntity
  8
DV1_Default
  6
Continuous
 62
     7
 48
25.4
100
AcDbLine
 10
202.6411812871
 20
227.9337783853
 30
0.0
 11
212.7911812871
 21
227.9337783853
 31
0.0
  0
LINE
  5
69
330
51
100
AcDbEntity
  8
DV1_Default
  6
Continuous
 62
     7
 48
25.4
100
AcDbLine
 10
220.4911812871
 20
389.508029161
 30
0.0
 11
249.5411812871
 21
389.508029161
 31
0.0
  0
LINE
  5
6A
330
51
100
AcDbEntity
  8
DV1_Default
  6
Continuous
 62
     7
 48
25.4
100
AcDbLine
 10
249.5411812871
 20
389.508029161
 30
0.0
 11
249.5411812871
 21
312.508029161
 31
0.0
  0
LINE
  5
6B
330
51
100
AcDbEntity
  8
DV1_Default
  6
Continuous
 62
     7
 48
25.4
100
AcDbLine
 10
249.5411812871
 20
312.508029161
 30
0.0
 11
221.8911812871
 21
312.508029161
 31
0.0
  0
LINE
  5
6C
330
51
100
AcDbEntity
  8
DV1_Default
  6
Continuous
 62
     7
 48
25.4
100
AcDbLine
 10
220.1411812871
 20
326.1372661319
 30
0.0
 11
220.1411812871
 21
389.158029161
 31
0.0
  0
LINE
  5
6D
330
51
100
AcDbEntity
  8
DV1_Default
  6
Continuous
 62
     7
 48
25.4
100
AcDbLine
 10
221.8911812871
 20
312.508029161
 30
0.0
 11
223.6411812871
 21
312.508029161
 31
0.0
  0
LINE
  5
6E
330
51
100
AcDbEntity
  8
DV1_Default
  6
Continuous
 62
     7
 48
25.4
100
AcDbLine
 10
223.2911812871
 20
312.508029161
 30
0.0
 11
223.2911812871
 21
342.8997095439
 31
0.0
  0
LINE
  5
6F
330
51
100
AcDbEntity
  8
DV1_Default
  6
Continuous
 62
     7
 48
25.4
100
AcDbLine
 10
223.6411812871
 20
312.508029161
 30
0.0
 11
221.8911812871
 21
312.508029161
 31
0.0
  0
LINE
  5
70
330
51
100
AcDbEntity
  8
DV1_Default
  6
Continuous
 62
     7
 48
25.4
100
AcDbLine
 10
221.8911812871
 20
312.508029161
 30
0.0
 11
221.8911812871
 21
325.7076936922
 31
0.0
  0
ARC
  5
71
330
51
100
AcDbEntity
  8
DV1_Default
  6
Continuous
 62
     7
 48
25.4
100
AcDbCircle
 10
221.4324126611
 20
327.6181308365
 30
0.0
 40
1.96474902581835
100
AcDbArc
 50
228.9133883584
 51
283.5032112508
  0
LINE
  5
72
330
51
100
AcDbEntity
  8
DV1_Default
  6
Continuous
 62
     7
 48
25.4
100
AcDbLine
 10
249.5411812871
 20
361.858029161
 30
0.0
 11
230.6411812871
 21
361.858029161
 31
0.0
  0
LINE
  5
73
330
51
100
AcDbEntity
  8
DV1_Default
  6
Continuous
 62
     7
 48
25.4
100
AcDbLine
 10
230.6411812871
 20
361.858029161
 30
0.0
 11
230.6411812871
 21
375.158029161
 31
0.0
  0
LINE
  5
74
330
51
100
AcDbEntity
  8
DV1_Default
  6
Continuous
 62
     7
 48
25.4
100
AcDbLine
 10
230.6411812871
 20
375.158029161
 30
0.0
 11
249.5411812871
 21
375.158029161
 31
0.0
  0
LINE
  5
75
330
51
100
AcDbEntity
  8
DV1_Default
  6
Continuous
 62
     7
 48
25.4
100
AcDbLine
 10
230.6411812871
 20
373.1161912947
 30
0.0
 11
223.6411812871
 21
373.1161912947
 31
0.0
  0
LINE
  5
76
330
51
100
AcDbEntity
  8
DV1_Default
  6
Continuous
 62
     7
 48
25.4
100
AcDbLine
 10
230.6411812871
 20
364.0161912947
 30
0.0
 11
223.6411812871
 21
364.0161912947
 31
0.0
  0
LINE
  5
77
330
51
100
AcDbEntity
  8
DV1_Default
  6
Continuous
 62
     7
 48
25.4
100
AcDbLine
 10
230.6411812871
 20
372.6632786824
 30
0.0
 11
222.9411812871
 21
372.6632786824
 31
0.0
  0
LINE
  5
78
330
51
100
AcDbEntity
  8
DV1_Default
  6
Continuous
 62
     7
 48
25.4
100
AcDbLine
 10
230.6411812871
 20
372.0765472319
 30
0.0
 11
222.9411812871
 21
372.0765472319
 31
0.0
  0
LINE
  5
79
330
51
100
AcDbEntity
  8
DV1_Default
  6
Continuous
 62
     7
 48
25.4
100
AcDbLine
 10
230.6411812871
 20
364.4490383745
 30
0.0
 11
222.9411812871
 21
364.4490383745
 31
0.0
  0
LINE
  5
7A
330
51
100
AcDbEntity
  8
DV1_Default
  6
Continuous
 62
     7
 48
25.4
100
AcDbLine
 10
230.6411812871
 20
364.8890869624
 30
0.0
 11
222.9411812871
 21
364.8890869624
 31
0.0
  0
LINE
  5
7B
330
51
100
AcDbEntity
  8
DV1_Default
  6
Continuous
 62
     7
 48
25.4
100
AcDbLine
 10
223.2911812871
 20
373.1161912947
 30
0.0
 11
223.2911812871
 21
389.508029161
 31
0.0
  0
LINE
  5
7C
330
51
100
AcDbEntity
  8
DV1_Default
  6
Continuous
 62
     7
 48
25.4
100
AcDbLine
 10
230.6411812871
 20
375.158029161
 30
0.0
 11
230.6411812871
 21
374.808029161
 31
0.0
  0
LINE
  5
7D
330
51
100
AcDbEntity
  8
DV1_Default
  6
Continuous
 62
     7
 48
25.4
100
AcDbLine
 10
230.6411812871
 20
374.808029161
 30
0.0
 11
238.6911812871
 21
374.808029161
 31
0.0
  0
LINE
  5
7E
330
51
100
AcDbEntity
  8
DV1_Default
  6
Continuous
 62
     7
 48
25.4
100
AcDbLine
 10
239.0411812871
 20
374.458029161
 30
0.0
 11
239.0411812871
 21
362.5583574948
 31
0.0
  0
LINE
  5
7F
330
51
100
AcDbEntity
  8
DV1_Default
  6
Continuous
 62
     7
 48
25.4
100
AcDbLine
 10
238.6911812871
 20
362.2083574948
 30
0.0
 11
230.6411812871
 21
362.2083574948
 31
0.0
  0
LINE
  5
80
330
51
100
AcDbEntity
  8
DV1_Default
  6
Continuous
 62
     7
 48
25.4
100
AcDbLine
 10
238.6911812871
 20
374.808029161
 30
0.0
 11
239.0411812871
 21
374.458029161
 31
0.0
  0
LINE
  5
81
330
51
100
AcDbEntity
  8
DV1_Default
  6
Continuous
 62
     7
 48
25.4
100
AcDbLine
 10
238.6911812871
 20
362.2083574948
 30
0.0
 11
239.0411812871
 21
362.5583574948
 31
0.0
  0
LINE
  5
82
330
51
100
AcDbEntity
  8
DV1_Default
  6
Continuous
 62
     7
 48
25.4
100
AcDbLine
 10
238.6911812871
 20
374.808029161
 30
0.0
 11
238.6911812871
 21
362.2083574948
 31
0.0
  0
LINE
  5
83
330
51
100
AcDbEntity
  8
DV1_Default
  6
Continuous
 62
     7
 48
25.4
100
AcDbLine
 10
220.1411812871
 20
389.158029161
 30
0.0
 11
220.4911812871
 21
389.508029161
 31
0.0
  0
LINE
  5
84
330
51
100
AcDbEntity
  8
DV1_Default
  6
Continuous
 62
     7
 48
25.4
100
AcDbLine
 10
220.4911812871
 20
389.508029161
 30
0.0
 11
220.4911812871
 21
325.8935084909
 31
0.0
  0
LINE
  5
85
330
51
100
AcDbEntity
  8
DV1_Default
  6
Continuous
 62
     7
 48
25.4
100
AcDbLine
 10
249.5411812871
 20
354.1578716776
 30
0.0
 11
230.6411812871
 21
354.1578716776
 31
0.0
  0
LINE
  5
86
330
51
100
AcDbEntity
  8
DV1_Default
  6
Continuous
 62
     7
 48
25.4
100
AcDbLine
 10
230.6411812871
 20
354.1578716776
 30
0.0
 11
230.6411812871
 21
340.8578716776
 31
0.0
  0
LINE
  5
87
330
51
100
AcDbEntity
  8
DV1_Default
  6
Continuous
 62
     7
 48
25.4
100
AcDbLine
 10
230.6411812871
 20
340.8578716776
 30
0.0
 11
249.5411812871
 21
340.8578716776
 31
0.0
  0
LINE
  5
88
330
51
100
AcDbEntity
  8
DV1_Default
  6
Continuous
 62
     7
 48
25.4
100
AcDbLine
 10
230.6411812871
 20
342.8997095439
 30
0.0
 11
223.6411812871
 21
342.8997095439
 31
0.0
  0
LINE
  5
89
330
51
100
AcDbEntity
  8
DV1_Default
  6
Continuous
 62
     7
 48
25.4
100
AcDbLine
 10
230.6411812871
 20
351.9997095439
 30
0.0
 11
223.6411812871
 21
351.9997095439
 31
0.0
  0
LINE
  5
8A
330
51
100
AcDbEntity
  8
DV1_Default
  6
Continuous
 62
     7
 48
25.4
100
AcDbLine
 10
220.4911812871
 20
340.4923063346
 30
0.0
 11
222.5911812871
 21
340.4923063346
 31
0.0
  0
LINE
  5
8B
330
51
100
AcDbEntity
  8
DV1_Default
  6
Continuous
 62
     7
 48
25.4
100
AcDbLine
 10
230.6411812871
 20
343.3526221561
 30
0.0
 11
222.9411812871
 21
343.3526221561
 31
0.0
  0
LINE
  5
8C
330
51
100
AcDbEntity
  8
DV1_Default
  6
Continuous
 62
     7
 48
25.4
100
AcDbLine
 10
230.6411812871
 20
343.9393536067
 30
0.0
 11
222.9411812871
 21
343.9393536067
 31
0.0
  0
LINE
  5
8D
330
51
100
AcDbEntity
  8
DV1_Default
  6
Continuous
 62
     7
 48
25.4
100
AcDbLine
 10
230.6411812871
 20
351.5668624641
 30
0.0
 11
222.9411812871
 21
351.5668624641
 31
0.0
  0
LINE
  5
8E
330
51
100
AcDbEntity
  8
DV1_Default
  6
Continuous
 62
     7
 48
25.4
100
AcDbLine
 10
230.6411812871
 20
351.1268138762
 30
0.0
 11
222.9411812871
 21
351.1268138762
 31
0.0
  0
LINE
  5
8F
330
51
100
AcDbEntity
  8
DV1_Default
  6
Continuous
 62
     7
 48
25.4
100
AcDbLine
 10
230.6411812871
 20
340.8578716776
 30
0.0
 11
230.6411812871
 21
341.2078716776
 31
0.0
  0
LINE
  5
90
330
51
100
AcDbEntity
  8
DV1_Default
  6
Continuous
 62
     7
 48
25.4
100
AcDbLine
 10
230.6411812871
 20
341.2078716776
 30
0.0
 11
238.6911812871
 21
341.2078716776
 31
0.0
  0
LINE
  5
91
330
51
100
AcDbEntity
  8
DV1_Default
  6
Continuous
 62
     7
 48
25.4
100
AcDbLine
 10
239.0411812871
 20
341.5578716776
 30
0.0
 11
239.0411812871
 21
353.4575433437
 31
0.0
  0
LINE
  5
92
330
51
100
AcDbEntity
  8
DV1_Default
  6
Continuous
 62
     7
 48
25.4
100
AcDbLine
 10
238.6911812871
 20
353.8075433437
 30
0.0
 11
230.6411812871
 21
353.8075433437
 31
0.0
  0
LINE
  5
93
330
51
100
AcDbEntity
  8
DV1_Default
  6
Continuous
 62
     7
 48
25.4
100
AcDbLine
 10
238.6911812871
 20
341.2078716776
 30
0.0
 11
239.0411812871
 21
341.5578716776
 31
0.0
  0
LINE
  5
94
330
51
100
AcDbEntity
  8
DV1_Default
  6
Continuous
 62
     7
 48
25.4
100
AcDbLine
 10
238.6911812871
 20
353.8075433437
 30
0.0
 11
239.0411812871
 21
353.4575433437
 31
0.0
  0
LINE
  5
95
330
51
100
AcDbEntity
  8
DV1_Default
  6
Continuous
 62
     7
 48
25.4
100
AcDbLine
 10
238.6911812871
 20
341.2078716776
 30
0.0
 11
238.6911812871
 21
353.8075433437
 31
0.0
  0
LINE
  5
96
330
51
100
AcDbEntity
  8
DV1_Default
  6
Continuous
 62
     7
 48
25.4
100
AcDbLine
 10
223.2911812871
 20
351.9997095439
 30
0.0
 11
223.2911812871
 21
364.0161912947
 31
0.0
  0
LINE
  5
97
330
51
100
AcDbEntity
  8
DV1_Default
  6
Continuous
 62
     7
 48
25.4
100
AcDbLine
 10
249.5411812871
 20
375.158029161
 30
0.0
 11
249.5411812871
 21
361.858029161
 31
0.0
  0
LINE
  5
98
330
51
100
AcDbEntity
  8
DV1_Default
  6
Continuous
 62
     7
 48
25.4
100
AcDbLine
 10
249.5411812871
 20
354.1578716776
 30
0.0
 11
249.5411812871
 21
340.8578716776
 31
0.0
  0
LINE
  5
99
330
51
100
AcDbEntity
  8
DV1_Default
  6
CENTER2
 62
     7
 48
25.4
100
AcDbLine
 10
104.7996117343
 20
249.6063078244
 30
0.0
 11
145.1517796338
 21
249.6063078244
 31
0.0
  0
LINE
  5
9A
330
51
100
AcDbEntity
  8
DV1_Default
  6
Continuous
 62
     7
 48
25.4
100
AcDbLine
 10
141.0411962543
 20
249.6063078244
 30
0.0
 11
141.0411962543
 21
256.2563078244
 31
0.0
  0
LINE
  5
9B
330
51
100
AcDbEntity
  8
DV1_Default
  6
Continuous
 62
     7
 48
25.4
100
AcDbLine
 10
141.0411962543
 20
256.2563078244
 30
0.0
 11
132.6411962543
 21
256.2563078244
 31
0.0
  0
LINE
  5
9C
330
51
100
AcDbEntity
  8
DV1_Default
  6
Continuous
 62
     7
 48
25.4
100
AcDbLine
 10
132.6411962543
 20
256.2563078244
 30
0.0
 11
132.6411962543
 21
242.9563078244
 31
0.0
  0
LINE
  5
9D
330
51
100
AcDbEntity
  8
DV1_Default
  6
Continuous
 62
     7
 48
25.4
100
AcDbLine
 10
132.6411962543
 20
242.9563078244
 30
0.0
 11
141.0411962543
 21
242.9563078244
 31
0.0
  0
LINE
  5
9E
330
51
100
AcDbEntity
  8
DV1_Default
  6
Continuous
 62
     7
 48
25.4
100
AcDbLine
 10
132.6411962543
 20
249.6019599178
 30
0.0
 11
132.6411962543
 21
253.8019599178
 31
0.0
  0
LINE
  5
9F
330
51
100
AcDbEntity
  8
DV1_Default
  6
Continuous
 62
     7
 48
25.4
100
AcDbLine
 10
132.6411962543
 20
253.8019599178
 30
0.0
 11
123.5411962543
 21
253.8019599178
 31
0.0
  0
LINE
  5
A0
330
51
100
AcDbEntity
  8
DV1_Default
  6
Continuous
 62
     7
 48
25.4
100
AcDbLine
 10
123.5411962543
 20
253.8019599178
 30
0.0
 11
110.5911962543
 21
253.8019599178
 31
0.0
  0
LINE
  5
A1
330
51
100
AcDbEntity
  8
DV1_Default
  6
Continuous
 62
     7
 48
25.4
100
AcDbLine
 10
110.5911962543
 20
253.8019599178
 30
0.0
 11
110.5911962543
 21
245.4019599178
 31
0.0
  0
LINE
  5
A2
330
51
100
AcDbEntity
  8
DV1_Default
  6
Continuous
 62
     7
 48
25.4
100
AcDbLine
 10
110.5911962543
 20
245.4019599178
 30
0.0
 11
123.5411962543
 21
245.4019599178
 31
0.0
  0
LINE
  5
A3
330
51
100
AcDbEntity
  8
DV1_Default
  6
Continuous
 62
     7
 48
25.4
100
AcDbLine
 10
123.5411962543
 20
245.4019599178
 30
0.0
 11
132.6411962543
 21
245.4019599178
 31
0.0
  0
LINE
  5
A4
330
51
100
AcDbEntity
  8
DV1_Default
  6
Continuous
 62
     7
 48
25.4
100
AcDbLine
 10
132.6411962543
 20
253.4519599178
 30
0.0
 11
110.5911962543
 21
253.4519599178
 31
0.0
  0
LINE
  5
A5
330
51
100
AcDbEntity
  8
DV1_Default
  6
Continuous
 62
     7
 48
25.4
100
AcDbLine
 10
132.6411962543
 20
245.7519599178
 30
0.0
 11
110.5911962543
 21
245.7519599178
 31
0.0
  0
LINE
  5
A6
330
51
100
AcDbEntity
  8
DV1_Default
  6
Continuous
 62
     7
 48
25.4
100
AcDbLine
 10
132.6411962543
 20
254.1519599178
 30
0.0
 11
123.5411962543
 21
254.1519599178
 31
0.0
  0
LINE
  5
A7
330
51
100
AcDbEntity
  8
DV1_Default
  6
Continuous
 62
     7
 48
25.4
100
AcDbLine
 10
132.6411962543
 20
245.0519599178
 30
0.0
 11
123.5411962543
 21
245.0519599178
 31
0.0
  0
LINE
  5
A8
330
51
100
AcDbEntity
  8
DV1_Default
  6
Continuous
 62
     7
 48
25.4
100
AcDbLine
 10
132.6411962543
 20
256.2563078244
 30
0.0
 11
132.6411962543
 21
255.9063078244
 31
0.0
  0
LINE
  5
A9
330
51
100
AcDbEntity
  8
DV1_Default
  6
Continuous
 62
     7
 48
25.4
100
AcDbLine
 10
132.6411962543
 20
255.9063078244
 30
0.0
 11
140.3411962543
 21
255.9063078244
 31
0.0
  0
LINE
  5
AA
330
51
100
AcDbEntity
  8
DV1_Default
  6
Continuous
 62
     7
 48
25.4
100
AcDbLine
 10
140.6911962543
 20
255.5563078244
 30
0.0
 11
140.6911962543
 21
243.6563078244
 31
0.0
  0
LINE
  5
AB
330
51
100
AcDbEntity
  8
DV1_Default
  6
Continuous
 62
     7
 48
25.4
100
AcDbLine
 10
140.3411962543
 20
243.3063078244
 30
0.0
 11
132.6411962543
 21
243.3063078244
 31
0.0
  0
LINE
  5
AC
330
51
100
AcDbEntity
  8
DV1_Default
  6
Continuous
 62
     7
 48
25.4
100
AcDbLine
 10
140.6911962543
 20
255.5563078244
 30
0.0
 11
140.3411962543
 21
255.9063078244
 31
0.0
  0
LINE
  5
AD
330
51
100
AcDbEntity
  8
DV1_Default
  6
Continuous
 62
     7
 48
25.4
100
AcDbLine
 10
140.3411962543
 20
243.3063078244
 30
0.0
 11
140.6911962543
 21
243.6563078244
 31
0.0
  0
LINE
  5
AE
330
51
100
AcDbEntity
  8
DV1_Default
  6
Continuous
 62
     7
 48
25.4
100
AcDbLine
 10
140.3411962543
 20
255.9063078244
 30
0.0
 11
140.3411962543
 21
243.3063078244
 31
0.0
  0
LINE
  5
AF
330
51
100
AcDbEntity
  8
DV1_Default
  6
Continuous
 62
     7
 48
25.4
100
AcDbLine
 10
218.0411812871
 20
207.5049154327
 30
0.0
 11
141.0411962543
 21
207.5049154327
 31
0.0
  0
LINE
  5
B0
330
51
100
AcDbEntity
  8
DV1_Default
  6
Continuous
 62
     7
 48
25.4
100
AcDbLine
 10
141.0411962543
 20
207.5049154327
 30
0.0
 11
138.9411962543
 21
207.5049154327
 31
0.0
  0
LINE
  5
B1
330
51
100
AcDbEntity
  8
DV1_Default
  6
Continuous
 62
     7
 48
25.4
100
AcDbLine
 10
137.5411962543
 20
208.9049154327
 30
0.0
 11
137.5411962543
 21
219.3760203474
 31
0.0
  0
LINE
  5
B2
330
51
100
AcDbEntity
  8
DV1_Default
  6
Continuous
 62
     7
 48
25.4
100
AcDbLine
 10
128.0911962543
 20
241.9860179118
 30
0.0
 11
202.6411812871
 21
241.9860179118
 31
0.0
  0
LINE
  5
B3
330
51
100
AcDbEntity
  8
DV1_Default
  6
Continuous
 62
     7
 48
25.4
100
AcDbLine
 10
128.0911962543
 20
230.7860227829
 30
0.0
 11
202.6411812871
 21
230.7860227829
 31
0.0
  0
LINE
  5
B4
330
51
100
AcDbEntity
  8
DV1_Default
  6
Continuous
 62
     7
 48
25.4
100
AcDbLine
 10
128.0911962543
 20
241.2860179118
 30
0.0
 11
149.9839713403
 21
241.2860179118
 31
0.0
  0
LINE
  5
B5
330
51
100
AcDbEntity
  8
DV1_Default
  6
Continuous
 62
     7
 48
25.4
100
AcDbLine
 10
128.0911962543
 20
231.4860227829
 30
0.0
 11
149.9839713403
 21
231.4860227829
 31
0.0
  0
LINE
  5
B6
330
51
100
AcDbEntity
  8
DV1_Default
  6
Continuous
 62
     7
 48
25.4
100
AcDbLine
 10
152.9459023825
 20
230.4360227829
 30
0.0
 11
141.7411962543
 21
230.4360227829
 31
0.0
  0
LINE
  5
B7
330
51
100
AcDbEntity
  8
DV1_Default
  6
Continuous
 62
     7
 48
25.4
100
AcDbLine
 10
152.9459023825
 20
242.3360179118
 30
0.0
 11
141.7411962543
 21
242.3360179118
 31
0.0
  0
ARC
  5
B8
330
51
100
AcDbEntity
  8
DV1_Default
  6
Continuous
 62
     7
 48
25.4
100
AcDbCircle
 10
141.7411962543
 20
229.7360227829
 30
0.0
 40
0.7000000000000001
100
AcDbArc
 50
90.0
 51
180.0
  0
ARC
  5
B9
330
51
100
AcDbEntity
  8
DV1_Default
  6
Continuous
 62
     7
 48
25.4
100
AcDbCircle
 10
141.7411962543
 20
243.0360179118
 30
0.0
 40
0.7000000000000001
100
AcDbArc
 50
180.0
 51
270.0
  0
LINE
  5
BA
330
51
100
AcDbEntity
  8
DV1_Default
  6
Continuous
 62
     7
 48
25.4
100
AcDbLine
 10
202.6411812871
 20
245.1882623095
 30
0.0
 11
218.7411812871
 21
245.1882623095
 31
0.0
  0
LINE
  5
BB
330
51
100
AcDbEntity
  8
DV1_Default
  6
Continuous
 62
     7
 48
25.4
100
AcDbLine
 10
202.6411812871
 20
227.5837783853
 30
0.0
 11
218.7411812871
 21
227.5837783853
 31
0.0
  0
LINE
  5
BC
330
51
100
AcDbEntity
  8
DV1_Default
  6
Continuous
 62
     7
 48
25.4
100
AcDbLine
 10
219.4411812871
 20
226.8837783853
 30
0.0
 11
218.7411812871
 21
227.5837783853
 31
0.0
  0
LINE
  5
BD
330
51
100
AcDbEntity
  8
DV1_Default
  6
Continuous
 62
     7
 48
25.4
100
AcDbLine
 10
219.4411812871
 20
245.8882623095
 30
0.0
 11
218.7411812871
 21
245.1882623095
 31
0.0
  0
LINE
  5
BE
330
51
100
AcDbEntity
  8
DV1_Default
  6
Continuous
 62
     7
 48
25.4
100
AcDbLine
 10
219.4411812871
 20
208.9049154327
 30
0.0
 11
219.4411812871
 21
276.8049154327
 31
0.0
  0
LINE
  5
BF
330
51
100
AcDbEntity
  8
DV1_Default
  6
Continuous
 62
     7
 48
25.4
100
AcDbLine
 10
213.8411812871
 20
228.9837783853
 30
0.0
 11
213.8411812871
 21
243.7882623095
 31
0.0
  0
LINE
  5
C0
330
51
100
AcDbEntity
  8
DV1_Default
  6
Continuous
 62
     7
 48
25.4
100
AcDbLine
 10
213.8411812871
 20
243.7882623095
 30
0.0
 11
212.7911812871
 21
244.8382623095
 31
0.0
  0
LINE
  5
C1
330
51
100
AcDbEntity
  8
DV1_Default
  6
Continuous
 62
     7
 48
25.4
100
AcDbLine
 10
212.7911812871
 20
227.9337783853
 30
0.0
 11
213.8411812871
 21
228.9837783853
 31
0.0
  0
LINE
  5
C2
330
51
100
AcDbEntity
  8
DV1_Default
  6
Continuous
 62
     7
 48
25.4
100
AcDbLine
 10
212.7911812871
 20
244.8382623095
 30
0.0
 11
212.7911812871
 21
227.9337783853
 31
0.0
  0
LINE
  5
C3
330
51
100
AcDbEntity
  8
DV1_Default
  6
Continuous
 62
     7
 48
25.4
100
AcDbLine
 10
141.0411962543
 20
243.0360179118
 30
0.0
 11
141.0411962543
 21
241.9860179118
 31
0.0
  0
LINE
  5
C4
330
51
100
AcDbEntity
  8
DV1_Default
  6
Continuous
 62
     7
 48
25.4
100
AcDbLine
 10
141.0411962543
 20
229.7360227829
 30
0.0
 11
141.0411962543
 21
230.7860227829
 31
0.0
  0
LINE
  5
C5
330
51
100
AcDbEntity
  8
DV1_Default
  6
Continuous
 62
     7
 48
25.4
100
AcDbLine
 10
140.3411962543
 20
373.3760203474
 30
0.0
 11
141.0411962543
 21
372.6760203474
 31
0.0
  0
LINE
  5
C6
330
51
100
AcDbEntity
  8
DV1_Default
  6
Continuous
 62
     7
 48
25.4
100
AcDbLine
 10
123.5411962543
 20
372.6760203474
 30
0.0
 11
124.2411962543
 21
373.3760203474
 31
0.0
  0
LINE
  5
C7
330
51
100
AcDbEntity
  8
DV1_Default
  6
Continuous
 62
     7
 48
25.4
100
AcDbLine
 10
124.2411962543
 20
219.3760203474
 30
0.0
 11
123.5411962543
 21
220.0760203474
 31
0.0
  0
LINE
  5
C8
330
51
100
AcDbEntity
  8
DV1_Default
  6
Continuous
 62
     7
 48
25.4
100
AcDbLine
 10
140.3411962543
 20
219.3760203474
 30
0.0
 11
141.0411962543
 21
220.0760203474
 31
0.0
  0
LINE
  5
C9
330
51
100
AcDbEntity
  8
DV1_Default
  6
Continuous
 62
     7
 48
25.4
100
AcDbLine
 10
137.5411962543
 20
208.9049154327
 30
0.0
 11
138.9411962543
 21
207.5049154327
 31
0.0
  0
LINE
  5
CA
330
51
100
AcDbEntity
  8
DV1_Default
  6
Continuous
 62
     7
 48
25.4
100
AcDbLine
 10
218.0411812871
 20
207.5049154327
 30
0.0
 11
219.4411812871
 21
208.9049154327
 31
0.0
  0
LINE
  5
CB
330
51
100
AcDbEntity
  8
DV1_Default
  6
Continuous
 62
     7
 48
25.4
100
AcDbLine
 10
218.0411812871
 20
385.3049154327
 30
0.0
 11
141.0411962543
 21
385.3049154327
 31
0.0
  0
LINE
  5
CC
330
51
100
AcDbEntity
  8
DV1_Default
  6
Continuous
 62
     7
 48
25.4
100
AcDbLine
 10
141.0411962543
 20
385.3049154327
 30
0.0
 11
138.9411962543
 21
385.3049154327
 31
0.0
  0
LINE
  5
CD
330
51
100
AcDbEntity
  8
DV1_Default
  6
Continuous
 62
     7
 48
25.4
100
AcDbLine
 10
137.5411962543
 20
383.9049154327
 30
0.0
 11
137.5411962543
 21
373.433810518
 31
0.0
  0
LINE
  5
CE
330
51
100
AcDbEntity
  8
DV1_Default
  6
Continuous
 62
     7
 48
25.4
100
AcDbLine
 10
137.5411962543
 20
383.9049154327
 30
0.0
 11
138.9411962543
 21
385.3049154327
 31
0.0
  0
LINE
  5
CF
330
51
100
AcDbEntity
  8
DV1_Default
  6
Continuous
 62
     7
 48
25.4
100
AcDbLine
 10
219.4411812871
 20
296.4049154327
 30
0.0
 11
219.4411812871
 21
383.9049154327
 31
0.0
  0
LINE
  5
D0
330
51
100
AcDbEntity
  8
DV1_Default
  6
Continuous
 62
     7
 48
25.4
100
AcDbLine
 10
220.4911812871
 20
375.523594504
 30
0.0
 11
222.5911812871
 21
375.523594504
 31
0.0
  0
LINE
  5
D1
330
51
100
AcDbEntity
  8
DV1_Default
  6
Continuous
 62
     7
 48
25.4
100
AcDbLine
 10
222.5911812871
 20
375.523594504
 30
0.0
 11
222.5911812871
 21
340.4923063346
 31
0.0
  0
LINE
  5
D2
330
51
100
AcDbEntity
  8
DV1_Default
  6
Continuous
 62
     7
 48
25.4
100
AcDbLine
 10
222.9411812871
 20
343.3526221561
 30
0.0
 11
222.5911812871
 21
343.3526221561
 31
0.0
  0
LINE
  5
D3
330
51
100
AcDbEntity
  8
DV1_Default
  6
Continuous
 62
     7
 48
25.4
100
AcDbLine
 10
222.9411812871
 20
343.9393536067
 30
0.0
 11
222.5911812871
 21
343.9393536067
 31
0.0
  0
LINE
  5
D4
330
51
100
AcDbEntity
  8
DV1_Default
  6
Continuous
 62
     7
 48
25.4
100
AcDbLine
 10
222.9411812871
 20
351.1268138762
 30
0.0
 11
222.5911812871
 21
351.1268138762
 31
0.0
  0
LINE
  5
D5
330
51
100
AcDbEntity
  8
DV1_Default
  6
Continuous
 62
     7
 48
25.4
100
AcDbLine
 10
222.9411812871
 20
351.5668624641
 30
0.0
 11
222.5911812871
 21
351.5668624641
 31
0.0
  0
LINE
  5
D6
330
51
100
AcDbEntity
  8
DV1_Default
  6
Continuous
 62
     7
 48
25.4
100
AcDbLine
 10
222.9411812871
 20
364.4490383745
 30
0.0
 11
222.5911812871
 21
364.4490383745
 31
0.0
  0
LINE
  5
D7
330
51
100
AcDbEntity
  8
DV1_Default
  6
Continuous
 62
     7
 48
25.4
100
AcDbLine
 10
222.9411812871
 20
364.8890869624
 30
0.0
 11
222.5911812871
 21
364.8890869624
 31
0.0
  0
LINE
  5
D8
330
51
100
AcDbEntity
  8
DV1_Default
  6
Continuous
 62
     7
 48
25.4
100
AcDbLine
 10
222.9411812871
 20
372.0765472319
 30
0.0
 11
222.5911812871
 21
372.0765472319
 31
0.0
  0
LINE
  5
D9
330
51
100
AcDbEntity
  8
DV1_Default
  6
Continuous
 62
     7
 48
25.4
100
AcDbLine
 10
222.9411812871
 20
372.6632786824
 30
0.0
 11
222.5911812871
 21
372.6632786824
 31
0.0
  0
LINE
  5
DA
330
51
100
AcDbEntity
  8
DV1_Default
  6
CENTER2
 62
     7
 48
25.4
100
AcDbLine
 10
214.9903345059
 20
347.5078716776
 30
0.0
 11
253.5652356839
 21
347.5078716776
 31
0.0
  0
LINE
  5
DB
330
51
100
AcDbEntity
  8
DV1_Default
  6
CENTER2
 62
     7
 48
25.4
100
AcDbLine
 10
214.344911031
 20
368.508029161
 30
0.0
 11
253.1964222697
 21
368.508029161
 31
0.0
  0
LINE
  5
DC
330
51
100
AcDbEntity
  8
DV1_Default
  6
Continuous
 62
     7
 48
25.4
100
AcDbLine
 10
223.2911812871
 20
373.1161912947
 30
0.0
 11
223.6411812871
 21
373.1161912947
 31
0.0
  0
LINE
  5
DD
330
51
100
AcDbEntity
  8
DV1_Default
  6
Continuous
 62
     7
 48
25.4
100
AcDbLine
 10
223.2911812871
 20
364.0161912947
 30
0.0
 11
223.6411812871
 21
364.0161912947
 31
0.0
  0
LINE
  5
DE
330
51
100
AcDbEntity
  8
DV1_Default
  6
Continuous
 62
     7
 48
25.4
100
AcDbLine
 10
223.6411812871
 20
351.9997095439
 30
0.0
 11
223.2911812871
 21
351.9997095439
 31
0.0
  0
LINE
  5
DF
330
51
100
AcDbEntity
  8
DV1_Default
  6
Continuous
 62
     7
 48
25.4
100
AcDbLine
 10
223.2911812871
 20
342.8997095439
 30
0.0
 11
223.6411812871
 21
342.8997095439
 31
0.0
  0
LINE
  5
E0
330
51
100
AcDbEntity
  8
DV1_Default
  6
Continuous
 62
     7
 48
25.4
100
AcDbLine
 10
136.8411962543
 20
296.4049154327
 30
0.0
 11
136.8411962543
 21
271.5549154327
 31
0.0
  0
LINE
  5
E1
330
51
100
AcDbEntity
  8
DV1_Default
  6
Continuous
 62
     7
 48
25.4
100
AcDbLine
 10
137.5411962543
 20
270.8549154327
 30
0.0
 11
184.6156358364
 21
270.8549154327
 31
0.0
  0
LINE
  5
E2
330
51
100
AcDbEntity
  8
DV1_Default
  6
Continuous
 62
     7
 48
25.4
100
AcDbLine
 10
136.8411962543
 20
280.6549154327
 30
0.0
 11
162.0411962543
 21
280.6549154327
 31
0.0
  0
LINE
  5
E3
330
51
100
AcDbEntity
  8
DV1_Default
  6
Continuous
 62
     7
 48
25.4
100
AcDbLine
 10
136.8411962543
 20
296.4049154327
 30
0.0
 11
136.8411962543
 21
273.6549154327
 31
0.0
  0
LINE
  5
E4
330
51
100
AcDbEntity
  8
DV1_Default
  6
Continuous
 62
     7
 48
25.4
100
AcDbLine
 10
136.8411962543
 20
273.6549154327
 30
0.0
 11
162.0411962543
 21
273.6549154327
 31
0.0
  0
LINE
  5
E5
330
51
100
AcDbEntity
  8
DV1_Default
  6
Continuous
 62
     7
 48
25.4
100
AcDbLine
 10
164.4911962543
 20
272.9549154327
 30
0.0
 11
162.3911962543
 21
272.9549154327
 31
0.0
  0
LINE
  5
E6
330
51
100
AcDbEntity
  8
DV1_Default
  6
Continuous
 62
     7
 48
25.4
100
AcDbLine
 10
162.0411962543
 20
273.3049154327
 30
0.0
 11
162.0411962543
 21
296.433810518
 31
0.0
  0
LINE
  5
E7
330
51
100
AcDbEntity
  8
DV1_Default
  6
Continuous
 62
     7
 48
25.4
100
AcDbLine
 10
164.8411962543
 20
273.3049154327
 30
0.0
 11
164.8411962543
 21
296.433810518
 31
0.0
  0
LINE
  5
E8
330
51
100
AcDbEntity
  8
DV1_Default
  6
Continuous
 62
     7
 48
25.4
100
AcDbLine
 10
162.0411962543
 20
275.0549154327
 30
0.0
 11
136.8411962543
 21
275.0549154327
 31
0.0
  0
LINE
  5
E9
330
51
100
AcDbEntity
  8
DV1_Default
  6
Continuous
 62
     7
 48
25.4
100
AcDbLine
 10
136.8411962543
 20
271.5549154327
 30
0.0
 11
137.5411962543
 21
270.8549154327
 31
0.0
  0
LINE
  5
EA
330
51
100
AcDbEntity
  8
DV1_Default
  6
Continuous
 62
     7
 48
25.4
100
AcDbLine
 10
162.3911962543
 20
272.9549154327
 30
0.0
 11
162.0411962543
 21
273.3049154327
 31
0.0
  0
LINE
  5
EB
330
51
100
AcDbEntity
  8
DV1_Default
  6
Continuous
 62
     7
 48
25.4
100
AcDbLine
 10
164.4911962543
 20
272.9549154327
 30
0.0
 11
164.8411962543
 21
273.3049154327
 31
0.0
  0
LINE
  5
EC
330
51
100
AcDbEntity
  8
DV1_Default
  6
CENTER2
 62
     7
 48
25.4
100
AcDbLine
 10
220.1411812871
 20
259.3049154327
 30
0.0
 11
209.7531460003
 21
259.3049154327
 31
0.0
  0
LINE
  5
ED
330
51
100
AcDbEntity
  8
DV1_Default
  6
Continuous
 62
     7
 48
25.4
100
AcDbLine
 10
219.4411812871
 20
259.3049154327
 30
0.0
 11
219.4411812871
 21
255.8049154327
 31
0.0
  0
LINE
  5
EE
330
51
100
AcDbEntity
  8
DV1_Default
  6
Continuous
 62
     7
 48
25.4
100
AcDbLine
 10
219.4411812871
 20
255.8049154327
 30
0.0
 11
216.9911812871
 21
255.8049154327
 31
0.0
  0
LINE
  5
EF
330
51
100
AcDbEntity
  8
DV1_Default
  6
Continuous
 62
     7
 48
25.4
100
AcDbLine
 10
216.9911812871
 20
255.8049154327
 30
0.0
 11
216.9911812871
 21
262.8049154327
 31
0.0
  0
LINE
  5
F0
330
51
100
AcDbEntity
  8
DV1_Default
  6
Continuous
 62
     7
 48
25.4
100
AcDbLine
 10
216.9911812871
 20
262.8049154327
 30
0.0
 11
219.4411812871
 21
262.8049154327
 31
0.0
  0
LINE
  5
F1
330
51
100
AcDbEntity
  8
DV1_Default
  6
Continuous
 62
     7
 48
25.4
100
AcDbLine
 10
209.9911812871
 20
257.5874141671
 30
0.0
 11
209.9911812871
 21
261.0874141671
 31
0.0
  0
LINE
  5
F2
330
51
100
AcDbEntity
  8
DV1_Default
  6
Continuous
 62
     7
 48
25.4
100
AcDbLine
 10
209.9911812871
 20
261.0874141671
 30
0.0
 11
212.44263272
 21
261.0874141671
 31
0.0
  0
LINE
  5
F3
330
51
100
AcDbEntity
  8
DV1_Default
  6
Continuous
 62
     7
 48
25.4
100
AcDbLine
 10
212.44263272
 20
260.7536076811
 30
0.0
 11
209.9911812871
 21
260.7536076811
 31
0.0
  0
LINE
  5
F4
330
51
100
AcDbEntity
  8
DV1_Default
  6
Continuous
 62
     7
 48
25.4
100
AcDbLine
 10
212.44263272
 20
257.9536076811
 30
0.0
 11
209.9911812871
 21
257.9536076811
 31
0.0
  0
LINE
  5
F5
330
51
100
AcDbEntity
  8
DV1_Default
  6
Continuous
 62
     7
 48
25.4
100
AcDbLine
 10
209.9911812871
 20
257.5874141671
 30
0.0
 11
216.9911812871
 21
257.5874141671
 31
0.0
  0
LINE
  5
F6
330
51
100
AcDbEntity
  8
DV1_Default
  6
Continuous
 62
     7
 48
25.4
100
AcDbLine
 10
216.9911812871
 20
262.8049154327
 30
0.0
 11
216.9911812871
 21
262.4549154327
 31
0.0
  0
LINE
  5
F7
330
51
100
AcDbEntity
  8
DV1_Default
  6
Continuous
 62
     7
 48
25.4
100
AcDbLine
 10
216.9911812871
 20
262.4549154327
 30
0.0
 11
218.0411812871
 21
262.4549154327
 31
0.0
  0
LINE
  5
F8
330
51
100
AcDbEntity
  8
DV1_Default
  6
Continuous
 62
     7
 48
25.4
100
AcDbLine
 10
219.0911812871
 20
261.4049154327
 30
0.0
 11
219.0911812871
 21
257.2049154327
 31
0.0
  0
LINE
  5
F9
330
51
100
AcDbEntity
  8
DV1_Default
  6
Continuous
 62
     7
 48
25.4
100
AcDbLine
 10
218.0411812871
 20
256.1549154327
 30
0.0
 11
216.9911812871
 21
256.1549154327
 31
0.0
  0
ARC
  5
FA
330
51
100
AcDbEntity
  8
DV1_Default
  6
Continuous
 62
     7
 48
25.4
100
AcDbCircle
 10
218.0411812871
 20
261.4049154327
 30
0.0
 40
1.05
100
AcDbArc
 50
0.0
 51
90.0
  0
ARC
  5
FB
330
51
100
AcDbEntity
  8
DV1_Default
  6
Continuous
 62
     7
 48
25.4
100
AcDbCircle
 10
218.0411812871
 20
257.2049154327
 30
0.0
 40
1.05
100
AcDbArc
 50
270.0
 51
360.0
  0
LINE
  5
FC
330
51
100
AcDbEntity
  8
DV1_Default
  6
Continuous
 62
     7
 48
25.4
100
AcDbLine
 10
216.9911812871
 20
257.5874141671
 30
0.0
 11
216.2911812871
 21
257.5874141671
 31
0.0
  0
LINE
  5
FD
330
51
100
AcDbEntity
  8
DV1_Default
  6
Continuous
 62
     7
 48
25.4
100
AcDbLine
 10
216.2911812871
 20
257.2374141671
 30
0.0
 11
216.9911812871
 21
257.2374141671
 31
0.0
  0
LINE
  5
FE
330
51
100
AcDbEntity
  8
DV1_Default
  6
Continuous
 62
     7
 48
25.4
100
AcDbLine
 10
216.2911812871
 20
257.2374141671
 30
0.0
 11
216.2911812871
 21
254.4049154327
 31
0.0
  0
LINE
  5
FF
330
51
100
AcDbEntity
  8
DV1_Default
  6
Continuous
 62
     7
 48
25.4
100
AcDbLine
 10
216.2911812871
 20
254.4049154327
 30
0.0
 11
219.4411812871
 21
254.4049154327
 31
0.0
  0
LINE
  5
100
330
51
100
AcDbEntity
  8
DV1_Default
  6
Continuous
 62
     7
 48
25.4
100
AcDbLine
 10
141.3911962543
 20
260.6760203474
 30
0.0
 11
182.9570224013
 21
260.6760203474
 31
0.0
  0
LINE
  5
101
330
51
100
AcDbEntity
  8
DV1_Default
  6
Continuous
 62
     7
 48
25.4
100
AcDbLine
 10
192.4108118789
 20
260.6760203474
 30
0.0
 11
192.4108118789
 21
263.1260203474
 31
0.0
  0
LINE
  5
102
330
51
100
AcDbEntity
  8
DV1_Default
  6
Continuous
 62
     7
 48
25.4
100
AcDbLine
 10
192.7608118789
 20
263.4760203474
 30
0.0
 11
207.019425314
 21
263.4760203474
 31
0.0
  0
LINE
  5
103
330
51
100
AcDbEntity
  8
DV1_Default
  6
Continuous
 62
     7
 48
25.4
100
AcDbLine
 10
216.2911812871
 20
277.1549154327
 30
0.0
 11
216.2911812871
 21
261.4374141671
 31
0.0
  0
LINE
  5
104
330
51
100
AcDbEntity
  8
DV1_Default
  6
Continuous
 62
     7
 48
25.4
100
AcDbLine
 10
216.2911812871
 20
261.4374141671
 30
0.0
 11
216.9911812871
 21
261.4374141671
 31
0.0
  0
LINE
  5
105
330
51
100
AcDbEntity
  8
DV1_Default
  6
Continuous
 62
     7
 48
25.4
100
AcDbLine
 10
193.019425314
 20
270.8260203474
 30
0.0
 11
193.019425314
 21
267.3260203474
 31
0.0
  0
LINE
  5
106
330
51
100
AcDbEntity
  8
DV1_Default
  6
Continuous
 62
     7
 48
25.4
100
AcDbLine
 10
193.019425314
 20
267.3260203474
 30
0.0
 11
198.619425314
 21
267.3260203474
 31
0.0
  0
LINE
  5
107
330
51
100
AcDbEntity
  8
DV1_Default
  6
Continuous
 62
     7
 48
25.4
100
AcDbLine
 10
198.619425314
 20
277.1549154327
 30
0.0
 11
198.619425314
 21
265.2549154327
 31
0.0
  0
LINE
  5
108
330
51
100
AcDbEntity
  8
DV1_Default
  6
Continuous
 62
     7
 48
25.4
100
AcDbLine
 10
198.619425314
 20
265.2549154327
 30
0.0
 11
200.719425314
 21
265.2549154327
 31
0.0
  0
LINE
  5
109
330
51
100
AcDbEntity
  8
DV1_Default
  6
Continuous
 62
     7
 48
25.4
100
AcDbLine
 10
207.719425314
 20
277.1549154327
 30
0.0
 11
207.719425314
 21
264.1760203474
 31
0.0
  0
LINE
  5
10A
330
51
100
AcDbEntity
  8
DV1_Default
  6
Continuous
 62
     7
 48
25.4
100
AcDbLine
 10
191.7108118789
 20
261.0260203474
 30
0.0
 11
191.7108118789
 21
263.1052593734
 31
0.0
  0
LINE
  5
10B
330
51
100
AcDbEntity
  8
DV1_Default
  6
Continuous
 62
     7
 48
25.4
100
AcDbLine
 10
192.4108118789
 20
263.1260203474
 30
0.0
 11
192.7608118789
 21
263.4760203474
 31
0.0
  0
LINE
  5
10C
330
51
100
AcDbEntity
  8
DV1_Default
  6
Continuous
 62
     7
 48
25.4
100
AcDbLine
 10
191.7108118789
 20
261.0260203474
 30
0.0
 11
191.3608118789
 21
260.6760203474
 31
0.0
  0
LINE
  5
10D
330
51
100
AcDbEntity
  8
DV1_Default
  6
Continuous
 62
     7
 48
25.4
100
AcDbLine
 10
191.3608118789
 20
260.6760203474
 30
0.0
 11
192.4108118789
 21
260.6760203474
 31
0.0
  0
ARC
  5
10E
330
51
100
AcDbEntity
  8
DV1_Default
  6
Continuous
 62
     7
 48
25.4
100
AcDbCircle
 10
192.2172806493
 20
263.3431205486
 30
0.0
 40
0.5595431654946019
100
AcDbArc
 50
13.7399097898
 51
205.156922602
  0
LINE
  5
10F
330
51
100
AcDbEntity
  8
DV1_Default
  6
Continuous
 62
     7
 48
25.4
100
AcDbLine
 10
198.9836919447
 20
265.2549154327
 30
0.0
 11
198.619425314
 21
265.2549154327
 31
0.0
  0
LINE
  5
110
330
51
100
AcDbEntity
  8
DV1_Default
  6
Continuous
 62
     7
 48
25.4
100
AcDbLine
 10
198.619425314
 20
266.3049154327
 30
0.0
 11
200.719425314
 21
266.3049154327
 31
0.0
  0
LINE
  5
111
330
51
100
AcDbEntity
  8
DV1_Default
  6
Continuous
 62
     7
 48
25.4
100
AcDbLine
 10
200.719425314
 20
266.3049154327
 30
0.0
 11
207.719425314
 21
266.3049154327
 31
0.0
  0
LINE
  5
112
330
51
100
AcDbEntity
  8
DV1_Default
  6
Continuous
 62
     7
 48
25.4
100
AcDbLine
 10
198.619425314
 20
266.3049154327
 30
0.0
 11
199.1144000608
 21
265.8099406859
 31
0.0
  0
LINE
  5
113
330
51
100
AcDbEntity
  8
DV1_Default
  6
Continuous
 62
     7
 48
25.4
100
AcDbLine
 10
199.1144000608
 20
265.8099406859
 30
0.0
 11
207.719425314
 21
265.8099406859
 31
0.0
  0
LINE
  5
114
330
51
100
AcDbEntity
  8
DV1_Default
  6
Continuous
 62
     7
 48
25.4
100
AcDbLine
 10
200.719425314
 20
265.2549154327
 30
0.0
 11
200.719425314
 21
266.3049154327
 31
0.0
  0
LINE
  5
115
330
51
100
AcDbEntity
  8
DV1_Default
  6
Continuous
 62
     7
 48
25.4
100
AcDbLine
 10
216.2911812871
 20
277.8549154327
 30
0.0
 11
175.6911962543
 21
277.8549154327
 31
0.0
  0
LINE
  5
116
330
51
100
AcDbEntity
  8
DV1_Default
  6
Continuous
 62
     7
 48
25.4
100
AcDbLine
 10
164.8411962543
 20
277.1549154327
 30
0.0
 11
216.2911812871
 21
277.1549154327
 31
0.0
  0
LINE
  5
117
330
51
100
AcDbEntity
  8
DV1_Default
  6
Continuous
 62
     7
 48
25.4
100
AcDbLine
 10
175.3411962543
 20
277.1549154327
 30
0.0
 11
175.3411962543
 21
277.5049154327
 31
0.0
  0
LINE
  5
118
330
51
100
AcDbEntity
  8
DV1_Default
  6
Continuous
 62
     7
 48
25.4
100
AcDbLine
 10
216.2911812871
 20
277.8549154327
 30
0.0
 11
218.3911812871
 21
277.8549154327
 31
0.0
  0
LINE
  5
119
330
51
100
AcDbEntity
  8
DV1_Default
  6
Continuous
 62
     7
 48
25.4
100
AcDbLine
 10
218.3911812871
 20
277.8549154327
 30
0.0
 11
219.4411812871
 21
276.8049154327
 31
0.0
  0
LINE
  5
11A
330
51
100
AcDbEntity
  8
DV1_Default
  6
Continuous
 62
     7
 48
25.4
100
AcDbLine
 10
219.4411812871
 20
276.8049154327
 30
0.0
 11
219.4411812871
 21
296.4049154327
 31
0.0
  0
LINE
  5
11B
330
51
100
AcDbEntity
  8
DV1_Default
  6
Continuous
 62
     7
 48
25.4
100
AcDbLine
 10
218.3911812871
 20
277.8549154327
 30
0.0
 11
218.3911812871
 21
296.4049154327
 31
0.0
  0
LINE
  5
11C
330
51
100
AcDbEntity
  8
DV1_Default
  6
Continuous
 62
     7
 48
25.4
100
AcDbLine
 10
175.3411962543
 20
277.5049154327
 30
0.0
 11
175.6911962543
 21
277.8549154327
 31
0.0
  0
LINE
  5
11D
330
51
100
AcDbEntity
  8
DV1_Default
  6
Continuous
 62
     7
 48
25.4
100
AcDbLine
 10
175.3411962543
 20
277.5049154327
 30
0.0
 11
175.3411962543
 21
296.4049154327
 31
0.0
  0
LINE
  5
11E
330
51
100
AcDbEntity
  8
DV1_Default
  6
Continuous
 62
     7
 48
25.4
100
AcDbLine
 10
156.4411962543
 20
260.6760203474
 30
0.0
 11
156.4411962543
 21
270.8260203474
 31
0.0
  0
LINE
  5
11F
330
51
100
AcDbEntity
  8
DV1_Default
  6
Continuous
 62
     7
 48
25.4
100
AcDbLine
 10
141.0411962543
 20
260.3260203474
 30
0.0
 11
141.3911962543
 21
260.6760203474
 31
0.0
  0
LINE
  5
120
330
51
100
AcDbEntity
  8
DV1_Default
  6
Continuous
 62
     7
 48
25.4
100
AcDbLine
 10
141.0411962543
 20
260.3260203474
 30
0.0
 11
141.0411962543
 21
260.8637542
 31
0.0
  0
LINE
  5
121
330
51
100
AcDbEntity
  8
DV1_Default
  6
Continuous
 62
     7
 48
25.4
100
AcDbLine
 10
184.6156358364
 20
270.8260203474
 30
0.0
 11
193.019425314
 21
270.8260203474
 31
0.0
  0
LINE
  5
122
330
51
100
AcDbEntity
  8
DV1_Default
  6
Continuous
 62
     7
 48
25.4
100
AcDbLine
 10
182.9570224013
 20
260.6760203474
 30
0.0
 11
191.3608118789
 21
260.6760203474
 31
0.0
  0
ARC
  5
123
330
51
100
AcDbEntity
  8
DV1_Default
  6
Continuous
 62
     7
 48
25.4
100
AcDbCircle
 10
207.019425314
 20
264.1760203474
 30
0.0
 40
0.7000000000000001
100
AcDbArc
 50
270.0
 51
360.0
  0
LINE
  5
124
330
51
100
AcDbEntity
  8
DV1_Default
  6
Continuous
 62
     7
 48
25.4
100
AcDbLine
 10
194.6662987721
 20
263.4760203474
 30
0.0
 11
194.6662987721
 21
262.7760203474
 31
0.0
  0
LINE
  5
125
330
51
100
AcDbEntity
  8
DV1_Default
  6
Continuous
 62
     7
 48
25.4
100
AcDbLine
 10
194.6662987721
 20
262.7760203474
 30
0.0
 11
216.2911812871
 21
262.7760203474
 31
0.0
  0
LINE
  5
126
330
51
100
AcDbEntity
  8
DV1_Default
  6
Continuous
 62
     7
 48
25.4
100
AcDbLine
 10
207.719425314
 20
275.7549154327
 30
0.0
 11
198.619425314
 21
275.7549154327
 31
0.0
  0
LINE
  5
127
330
51
100
AcDbEntity
  8
DV1_Default
  6
CENTER2
 62
     7
 48
25.4
100
AcDbLine
 10
159.9411962543
 20
257.1703235047
 30
0.0
 11
159.9411962543
 21
265.7058300293
 31
0.0
  0
LINE
  5
128
330
51
100
AcDbEntity
  8
DV1_Default
  6
Continuous
 62
     7
 48
25.4
100
AcDbLine
 10
158.5411962543
 20
260.6760203474
 30
0.0
 11
158.5411962543
 21
258.5760203474
 31
0.0
  0
LINE
  5
129
330
51
100
AcDbEntity
  8
DV1_Default
  6
Continuous
 62
     7
 48
25.4
100
AcDbLine
 10
159.2411962543
 20
257.8760203474
 30
0.0
 11
160.6411962543
 21
257.8760203474
 31
0.0
  0
LINE
  5
12A
330
51
100
AcDbEntity
  8
DV1_Default
  6
Continuous
 62
     7
 48
25.4
100
AcDbLine
 10
161.3411962543
 20
258.5760203474
 30
0.0
 11
161.3411962543
 21
260.6760203474
 31
0.0
  0
LINE
  5
12B
330
51
100
AcDbEntity
  8
DV1_Default
  6
Continuous
 62
     7
 48
25.4
100
AcDbLine
 10
159.2411962543
 20
257.8760203474
 30
0.0
 11
158.5411962543
 21
258.5760203474
 31
0.0
  0
LINE
  5
12C
330
51
100
AcDbEntity
  8
DV1_Default
  6
Continuous
 62
     7
 48
25.4
100
AcDbLine
 10
160.6411962543
 20
257.8760203474
 30
0.0
 11
161.3411962543
 21
258.5760203474
 31
0.0
  0
LINE
  5
12D
330
51
100
AcDbEntity
  8
DV1_Default
  6
Continuous
 62
     7
 48
25.4
100
AcDbLine
 10
158.5411962543
 20
258.5760203474
 30
0.0
 11
161.3411962543
 21
258.5760203474
 31
0.0
  0
LINE
  5
12E
330
51
100
AcDbEntity
  8
DV1_Default
  6
Continuous
 62
     7
 48
25.4
100
AcDbLine
 10
141.0411962543
 20
260.8637542
 30
0.0
 11
141.0411962543
 21
270.8260203474
 31
0.0
  0
LINE
  5
12F
330
51
100
AcDbEntity
  8
DV1_Default
  6
Continuous
 62
     7
 48
25.4
100
AcDbLine
 10
137.5411962543
 20
321.983810518
 30
0.0
 11
137.5411962543
 21
331.9171815801
 31
0.0
  0
LINE
  5
130
330
51
100
AcDbEntity
  8
DV1_Default
  6
Continuous
 62
     7
 48
25.4
100
AcDbLine
 10
136.8411962543
 20
296.4049154327
 30
0.0
 11
136.8411962543
 21
321.2549154327
 31
0.0
  0
LINE
  5
131
330
51
100
AcDbEntity
  8
DV1_Default
  6
Continuous
 62
     7
 48
25.4
100
AcDbLine
 10
137.5411962543
 20
321.9549154327
 30
0.0
 11
162.8440025639
 21
321.9549154327
 31
0.0
  0
LINE
  5
132
330
51
100
AcDbEntity
  8
DV1_Default
  6
Continuous
 62
     7
 48
25.4
100
AcDbLine
 10
136.8411962543
 20
312.1549154327
 30
0.0
 11
162.0411962543
 21
312.1549154327
 31
0.0
  0
LINE
  5
133
330
51
100
AcDbEntity
  8
DV1_Default
  6
Continuous
 62
     7
 48
25.4
100
AcDbLine
 10
136.8411962543
 20
296.4049154327
 30
0.0
 11
136.8411962543
 21
319.1549154327
 31
0.0
  0
LINE
  5
134
330
51
100
AcDbEntity
  8
DV1_Default
  6
Continuous
 62
     7
 48
25.4
100
AcDbLine
 10
136.8411962543
 20
319.1549154327
 30
0.0
 11
162.0411962543
 21
319.1549154327
 31
0.0
  0
LINE
  5
135
330
51
100
AcDbEntity
  8
DV1_Default
  6
Continuous
 62
     7
 48
25.4
100
AcDbLine
 10
164.4911962543
 20
319.8549154327
 30
0.0
 11
162.3911962543
 21
319.8549154327
 31
0.0
  0
LINE
  5
136
330
51
100
AcDbEntity
  8
DV1_Default
  6
Continuous
 62
     7
 48
25.4
100
AcDbLine
 10
162.0411962543
 20
319.5049154327
 30
0.0
 11
162.0411962543
 21
296.3760203474
 31
0.0
  0
LINE
  5
137
330
51
100
AcDbEntity
  8
DV1_Default
  6
Continuous
 62
     7
 48
25.4
100
AcDbLine
 10
164.8411962543
 20
319.5049154327
 30
0.0
 11
164.8411962543
 21
296.3760203474
 31
0.0
  0
LINE
  5
138
330
51
100
AcDbEntity
  8
DV1_Default
  6
Continuous
 62
     7
 48
25.4
100
AcDbLine
 10
162.0411962543
 20
317.7549154327
 30
0.0
 11
136.8411962543
 21
317.7549154327
 31
0.0
  0
LINE
  5
139
330
51
100
AcDbEntity
  8
DV1_Default
  6
Continuous
 62
     7
 48
25.4
100
AcDbLine
 10
136.8411962543
 20
321.2549154327
 30
0.0
 11
137.5411962543
 21
321.9549154327
 31
0.0
  0
LINE
  5
13A
330
51
100
AcDbEntity
  8
DV1_Default
  6
Continuous
 62
     7
 48
25.4
100
AcDbLine
 10
162.3911962543
 20
319.8549154327
 30
0.0
 11
162.0411962543
 21
319.5049154327
 31
0.0
  0
LINE
  5
13B
330
51
100
AcDbEntity
  8
DV1_Default
  6
Continuous
 62
     7
 48
25.4
100
AcDbLine
 10
164.4911962543
 20
319.8549154327
 30
0.0
 11
164.8411962543
 21
319.5049154327
 31
0.0
  0
LINE
  5
13C
330
51
100
AcDbEntity
  8
DV1_Default
  6
Continuous
 62
     7
 48
25.4
100
AcDbLine
 10
216.2911812871
 20
314.9549154327
 30
0.0
 11
175.6911962543
 21
314.9549154327
 31
0.0
  0
LINE
  5
13D
330
51
100
AcDbEntity
  8
DV1_Default
  6
Continuous
 62
     7
 48
25.4
100
AcDbLine
 10
164.8411962543
 20
315.6549154327
 30
0.0
 11
216.2911812871
 21
315.6549154327
 31
0.0
  0
LINE
  5
13E
330
51
100
AcDbEntity
  8
DV1_Default
  6
Continuous
 62
     7
 48
25.4
100
AcDbLine
 10
175.3411962543
 20
315.6549154327
 30
0.0
 11
175.3411962543
 21
315.3049154327
 31
0.0
  0
LINE
  5
13F
330
51
100
AcDbEntity
  8
DV1_Default
  6
Continuous
 62
     7
 48
25.4
100
AcDbLine
 10
216.2911812871
 20
314.9549154327
 30
0.0
 11
218.3911812871
 21
314.9549154327
 31
0.0
  0
LINE
  5
140
330
51
100
AcDbEntity
  8
DV1_Default
  6
Continuous
 62
     7
 48
25.4
100
AcDbLine
 10
219.4411812871
 20
316.0049154327
 30
0.0
 11
219.4411812871
 21
296.4049154327
 31
0.0
  0
LINE
  5
141
330
51
100
AcDbEntity
  8
DV1_Default
  6
Continuous
 62
     7
 48
25.4
100
AcDbLine
 10
218.3911812871
 20
314.9549154327
 30
0.0
 11
218.3911812871
 21
296.4049154327
 31
0.0
  0
LINE
  5
142
330
51
100
AcDbEntity
  8
DV1_Default
  6
Continuous
 62
     7
 48
25.4
100
AcDbLine
 10
175.3411962543
 20
315.3049154327
 30
0.0
 11
175.6911962543
 21
314.9549154327
 31
0.0
  0
LINE
  5
143
330
51
100
AcDbEntity
  8
DV1_Default
  6
Continuous
 62
     7
 48
25.4
100
AcDbLine
 10
175.3411962543
 20
315.3049154327
 30
0.0
 11
175.3411962543
 21
296.4049154327
 31
0.0
  0
LINE
  5
144
330
51
100
AcDbEntity
  8
DV1_Default
  6
Continuous
 62
     7
 48
25.4
100
AcDbLine
 10
156.4411962543
 20
326.8284994942
 30
0.0
 11
156.4411962543
 21
321.983810518
 31
0.0
  0
LINE
  5
145
330
51
100
AcDbEntity
  8
DV1_Default
  6
Continuous
 62
     7
 48
25.4
100
AcDbLine
 10
141.0411962543
 20
332.483810518
 30
0.0
 11
141.3911962543
 21
332.133810518
 31
0.0
  0
LINE
  5
146
330
51
100
AcDbEntity
  8
DV1_Default
  6
Continuous
 62
     7
 48
25.4
100
AcDbLine
 10
141.0411962543
 20
332.483810518
 30
0.0
 11
141.0411962543
 21
331.9460766654
 31
0.0
  0
LINE
  5
147
330
51
100
AcDbEntity
  8
DV1_Default
  6
Continuous
 62
     7
 48
25.4
100
AcDbLine
 10
141.0411962543
 20
331.9460766654
 30
0.0
 11
141.0411962543
 21
321.983810518
 31
0.0
  0
SPLINE
  5
148
330
51
100
AcDbEntity
  8
DV1_Default
  6
Continuous
 62
     7
 48
25.4
100
AcDbSpline
210
0.0
220
0.0
230
1.0
 70
     8
 71
     3
 72
    12
 73
     8
 74
     0
 42
0.0000000001
 43
0.0000000001
 40
0.0
 40
0.0
 40
0.0
 40
0.0
 40
0.1677684130224822
 40
0.6268915170878521
 40
0.818292995771978
 40
0.9466001608876863
 40
1.0
 40
1.0
 40
1.0
 40
1.0
 10
137.5411962542984
 20
378.6693629753676
 30
0.0
 10
142.8326101643969
 20
376.7211436329891
 30
0.0
 10
161.3986717052874
 20
370.2640215231801
 30
0.0
 10
143.4214377389681
 20
333.4424193159662
 30
0.0
 10
167.0176075058863
 20
318.2380635511075
 30
0.0
 10
179.8349467560622
 20
321.3484483457589
 30
0.0
 10
183.4529122792678
 20
317.0221170194764
 30
0.0
 10
184.6156358363776
 20
315.6549154326989
 30
0.0
  0
LINE
  5
149
330
51
100
AcDbEntity
  8
DV1_Default
  6
Continuous
 62
     7
 48
25.4
100
AcDbLine
 10
141.3911962543
 20
332.133810518
 30
0.0
 11
153.3580511063
 21
332.133810518
 31
0.0
  0
LINE
  5
14A
330
51
100
AcDbEntity
  8
DV1_Default
  6
Continuous
 62
     7
 48
25.4
100
AcDbLine
 10
216.2911812871
 20
315.6549154327
 30
0.0
 11
216.2911812871
 21
340.1549154327
 31
0.0
  0
LINE
  5
14B
330
51
100
AcDbEntity
  8
DV1_Default
  6
Continuous
 62
     7
 48
25.4
100
AcDbLine
 10
216.2911812871
 20
340.1549154327
 30
0.0
 11
219.4411812871
 21
340.1549154327
 31
0.0
  0
LINE
  5
14C
330
51
100
AcDbEntity
  8
DV1_Default
  6
Continuous
 62
     7
 48
25.4
100
AcDbLine
 10
219.0911812871
 20
340.1549154327
 30
0.0
 11
220.1411812871
 21
340.1549154327
 31
0.0
  0
LINE
  5
14D
330
51
100
AcDbEntity
  8
DV1_Default
  6
Continuous
 62
     7
 48
25.4
100
AcDbLine
 10
220.1411812871
 20
340.1549154327
 30
0.0
 11
220.4911812871
 21
340.5049154327
 31
0.0
  0
LINE
  5
14E
330
51
100
AcDbEntity
  8
DV1_Default
  6
Continuous
 62
     7
 48
25.4
100
AcDbLine
 10
141.0411962543
 20
344.1353077651
 30
0.0
 11
152.0047592408
 21
344.1353077651
 31
0.0
  0
LINE
  5
14F
330
51
100
AcDbEntity
  8
DV1_Default
  6
Continuous
 62
     7
 48
25.4
100
AcDbLine
 10
189.7550599107
 20
385.3049154327
 30
0.0
 11
189.7550599107
 21
387.4049154327
 31
0.0
  0
LINE
  5
150
330
51
100
AcDbEntity
  8
DV1_Default
  6
Continuous
 62
     7
 48
25.4
100
AcDbLine
 10
189.7550599107
 20
387.4049154327
 30
0.0
 11
220.1411812871
 21
387.4049154327
 31
0.0
  0
LINE
  5
151
330
51
100
AcDbEntity
  8
DV1_Default
  6
Continuous
 62
     7
 48
25.4
100
AcDbLine
 10
220.1411812871
 20
387.4049154327
 30
0.0
 11
220.4911812871
 21
387.0549154327
 31
0.0
  0
LINE
  5
152
330
51
100
AcDbEntity
  8
DV1_Default
  6
Continuous
 62
     7
 48
25.4
100
AcDbLine
 10
216.2911812871
 20
327.9049154327
 30
0.0
 11
216.9911812871
 21
327.9049154327
 31
0.0
  0
LINE
  5
153
330
51
100
AcDbEntity
  8
DV1_Default
  6
Continuous
 62
     7
 48
25.4
100
AcDbLine
 10
137.5411962543
 20
270.8260203474
 30
0.0
 11
137.5411962543
 21
270.8549154327
 31
0.0
  0
LINE
  5
154
330
51
100
AcDbEntity
  8
DV1_Default
  6
Continuous
 62
     7
 48
25.4
100
AcDbLine
 10
141.0411962543
 20
270.8260203474
 30
0.0
 11
141.0411962543
 21
270.8549154327
 31
0.0
  0
LINE
  5
155
330
51
100
AcDbEntity
  8
DV1_Default
  6
Continuous
 62
     7
 48
25.4
100
AcDbLine
 10
156.4411962543
 20
270.8260203474
 30
0.0
 11
156.4411962543
 21
270.8549154327
 31
0.0
  0
LINE
  5
156
330
51
100
AcDbEntity
  8
DV1_Default
  6
Continuous
 62
     7
 48
25.4
100
AcDbLine
 10
137.5411962543
 20
321.983810518
 30
0.0
 11
137.5411962543
 21
321.9549154327
 31
0.0
  0
LINE
  5
157
330
51
100
AcDbEntity
  8
DV1_Default
  6
Continuous
 62
     7
 48
25.4
100
AcDbLine
 10
141.0411962543
 20
321.983810518
 30
0.0
 11
141.0411962543
 21
321.9549154327
 31
0.0
  0
LINE
  5
158
330
51
100
AcDbEntity
  8
DV1_Default
  6
Continuous
 62
     7
 48
25.4
100
AcDbLine
 10
156.4411962543
 20
321.983810518
 30
0.0
 11
156.4411962543
 21
321.9549154327
 31
0.0
  0
LINE
  5
159
330
51
100
AcDbEntity
  8
DV1_Default
  6
Continuous
 62
     7
 48
25.4
100
AcDbLine
 10
136.8411962543
 20
296.4049154327
 30
0.0
 11
123.5411962543
 21
296.4049154327
 31
0.0
  0
LINE
  5
15A
330
51
100
AcDbEntity
  8
DV1_Default
  6
Continuous
 62
     7
 48
25.4
100
AcDbLine
 10
123.5411962543
 20
259.1736654327
 30
0.0
 11
137.5411962543
 21
260.8926492853
 31
0.0
  0
LINE
  5
15B
330
51
100
AcDbEntity
  8
DV1_Default
  6
Continuous
 62
     7
 48
25.4
100
AcDbLine
 10
137.5411962543
 20
260.8926492853
 30
0.0
 11
141.0411962543
 21
260.8926492853
 31
0.0
  0
LINE
  5
15C
330
51
100
AcDbEntity
  8
DV1_Default
  6
Continuous
 62
     7
 48
25.4
100
AcDbLine
 10
141.0411962543
 20
332.483810518
 30
0.0
 11
141.3911962543
 21
332.133810518
 31
0.0
  0
LINE
  5
15D
330
51
100
AcDbEntity
  8
DV1_Default
  6
Continuous
 62
     7
 48
25.4
100
AcDbLine
 10
141.0411962543
 20
332.483810518
 30
0.0
 11
141.0411962543
 21
331.9460766654
 31
0.0
  0
LINE
  5
15E
330
51
100
AcDbEntity
  8
DV1_Default
  6
Continuous
 62
     7
 48
25.4
100
AcDbLine
 10
123.5411962543
 20
333.6361654327
 30
0.0
 11
137.5411962543
 21
331.9171815801
 31
0.0
  0
LINE
  5
15F
330
51
100
AcDbEntity
  8
DV1_Default
  6
Continuous
 62
     7
 48
25.4
100
AcDbLine
 10
137.5411962543
 20
331.9171815801
 30
0.0
 11
141.0411962543
 21
331.9171815801
 31
0.0
  0
LINE
  5
160
330
51
100
AcDbEntity
  8
DV1_Default
  6
Continuous
 62
     7
 48
25.4
100
AcDbLine
 10
128.0911962543
 20
230.7860227829
 30
0.0
 11
128.0911962543
 21
241.9860179118
 31
0.0
  0
LINE
  5
161
330
51
100
AcDbEntity
  8
DV1_Default
  6
Continuous
 62
     7
 48
25.4
100
AcDbLine
 10
123.5411962543
 20
220.0760203474
 30
0.0
 11
123.5411962543
 21
245.4019599178
 31
0.0
  0
LINE
  5
162
330
51
100
AcDbEntity
  8
DV1_Default
  6
Continuous
 62
     7
 48
25.4
100
AcDbLine
 10
218.0411812871
 20
385.3049154327
 30
0.0
 11
219.4411812871
 21
383.9049154327
 31
0.0
  0
LINE
  5
163
330
51
100
AcDbEntity
  8
DV1_Default
  6
Continuous
 62
     7
 48
25.4
100
AcDbLine
 10
218.3911812871
 20
314.9549154327
 30
0.0
 11
219.4411812871
 21
316.0049154327
 31
0.0
  0
LINE
  5
164
330
51
100
AcDbEntity
  8
DV1_Default
  6
Continuous
 62
     7
 48
25.4
100
AcDbLine
 10
216.9911812871
 20
327.9049154327
 30
0.0
 11
219.4411812871
 21
326.4904072732
 31
0.0
  0
ENDBLK
  5
166
330
51
100
AcDbEntity
  8
0
100
AcDbBlockEnd
  0
BLOCK
  5
22F
330
167
100
AcDbEntity
  8
0
100
AcDbBlockBegin
  2
SE1
 70
     0
 71
     0
 10
0.0
 20
0.0
 30
0.0
  3
SE1
  1

  0
LINE
  5
16A
330
167
100
AcDbEntity
  8
DV2_Default
  6
Continuous
 62
     7
 48
25.4
100
AcDbLine
 10
438.527078839
 20
260.3502427898
 30
0.0
 11
437.827078839
 21
259.1378072245
 31
0.0
  0
LINE
  5
16B
330
167
100
AcDbEntity
  8
DV2_Default
  6
Continuous
 62
     7
 48
25.4
100
AcDbLine
 10
437.827078839
 20
259.1378072245
 30
0.0
 11
438.527078839
 21
257.9253716592
 31
0.0
  0
LINE
  5
16C
330
167
100
AcDbEntity
  8
DV2_Default
  6
Continuous
 62
     7
 48
25.4
100
AcDbLine
 10
438.527078839
 20
257.9253716592
 30
0.0
 11
439.927078839
 21
257.9253716592
 31
0.0
  0
LINE
  5
16D
330
167
100
AcDbEntity
  8
DV2_Default
  6
Continuous
 62
     7
 48
25.4
100
AcDbLine
 10
439.927078839
 20
257.9253716592
 30
0.0
 11
440.627078839
 21
259.1378072245
 31
0.0
  0
LINE
  5
16E
330
167
100
AcDbEntity
  8
DV2_Default
  6
Continuous
 62
     7
 48
25.4
100
AcDbLine
 10
440.627078839
 20
259.1378072245
 30
0.0
 11
439.927078839
 21
260.3502427898
 31
0.0
  0
LINE
  5
16F
330
167
100
AcDbEntity
  8
DV2_Default
  6
Continuous
 62
     7
 48
25.4
100
AcDbLine
 10
438.527078839
 20
260.3502427898
 30
0.0
 11
439.927078839
 21
260.3502427898
 31
0.0
  0
CIRCLE
  5
170
330
167
100
AcDbEntity
  8
DV2_Default
  6
Continuous
 62
     7
 48
25.4
100
AcDbCircle
 10
439.2257410969
 20
259.1378072245
 30
0.0
 40
3.5
  0
LINE
  5
171
330
167
100
AcDbEntity
  8
DV2_Default
  6
Continuous
 62
     7
 48
25.4
100
AcDbLine
 10
453.2257410969
 20
389.3378072245
 30
0.0
 11
453.2257410969
 21
317.3704232012
 31
0.0
  0
LINE
  5
172
330
167
100
AcDbEntity
  8
DV2_Default
  6
Continuous
 62
     7
 48
25.4
100
AcDbLine
 10
425.2257410969
 20
317.4088209586
 30
0.0
 11
425.2257410969
 21
389.3378072245
 31
0.0
  0
LINE
  5
173
330
167
100
AcDbEntity
  8
DV2_Default
  6
Continuous
 62
     7
 48
25.4
100
AcDbLine
 10
425.2257410969
 20
389.3378072245
 30
0.0
 11
453.2257410969
 21
389.3378072245
 31
0.0
  0
LINE
  5
174
330
167
100
AcDbEntity
  8
DV2_Default
  6
Continuous
 62
     7
 48
25.4
100
AcDbLine
 10
434.0089945303
 20
312.3378072245
 30
0.0
 11
425.2257410969
 21
317.4088209586
 31
0.0
  0
LINE
  5
175
330
167
100
AcDbEntity
  8
DV2_Default
  6
Continuous
 62
     7
 48
25.4
100
AcDbLine
 10
444.5089945303
 20
312.3378072245
 30
0.0
 11
453.2257410969
 21
317.3704232012
 31
0.0
  0
CIRCLE
  5
176
330
167
100
AcDbEntity
  8
DV2_Default
  6
Continuous
 62
     7
 48
25.4
100
AcDbCircle
 10
439.2257410969
 20
368.3628483995
 30
0.0
 40
6.65
  0
CIRCLE
  5
177
330
167
100
AcDbEntity
  8
DV2_Default
  6
Continuous
 62
     7
 48
25.4
100
AcDbCircle
 10
439.2257410969
 20
347.3628483995
 30
0.0
 40
6.65
  0
CIRCLE
  5
178
330
167
100
AcDbEntity
  8
DV2_Default
  6
Continuous
 62
     7
 48
25.4
100
AcDbCircle
 10
439.2257410969
 20
368.3628483995
 30
0.0
 40
6.3
  0
CIRCLE
  5
179
330
167
100
AcDbEntity
  8
DV2_Default
  6
Continuous
 62
     7
 48
25.4
100
AcDbCircle
 10
439.2257410969
 20
347.3628483995
 30
0.0
 40
6.3
  0
LINE
  5
17A
330
167
100
AcDbEntity
  8
DV2_Default
  6
Continuous
 62
     7
 48
25.4
100
AcDbLine
 10
439.2257410969
 20
372.5692055035
 30
0.0
 11
435.588434401
 21
370.4692055035
 31
0.0
  0
LINE
  5
17B
330
167
100
AcDbEntity
  8
DV2_Default
  6
Continuous
 62
     7
 48
25.4
100
AcDbLine
 10
435.588434401
 20
370.4692055035
 30
0.0
 11
435.588434401
 21
366.2692055035
 31
0.0
  0
LINE
  5
17C
330
167
100
AcDbEntity
  8
DV2_Default
  6
Continuous
 62
     7
 48
25.4
100
AcDbLine
 10
435.588434401
 20
366.2692055035
 30
0.0
 11
439.2257410969
 21
364.1692055035
 31
0.0
  0
LINE
  5
17D
330
167
100
AcDbEntity
  8
DV2_Default
  6
Continuous
 62
     7
 48
25.4
100
AcDbLine
 10
439.2257410969
 20
364.1692055035
 30
0.0
 11
442.8630477928
 21
366.2692055035
 31
0.0
  0
LINE
  5
17E
330
167
100
AcDbEntity
  8
DV2_Default
  6
Continuous
 62
     7
 48
25.4
100
AcDbLine
 10
442.8630477928
 20
366.2692055035
 30
0.0
 11
442.8630477928
 21
370.4692055035
 31
0.0
  0
LINE
  5
17F
330
167
100
AcDbEntity
  8
DV2_Default
  6
Continuous
 62
     7
 48
25.4
100
AcDbLine
 10
442.8630477928
 20
370.4692055035
 30
0.0
 11
439.2257410969
 21
372.5692055035
 31
0.0
  0
LINE
  5
180
330
167
100
AcDbEntity
  8
DV2_Default
  6
Continuous
 62
     7
 48
25.4
100
AcDbLine
 10
439.2257410969
 20
343.15195328
 30
0.0
 11
435.588434401
 21
345.25195328
 31
0.0
  0
LINE
  5
181
330
167
100
AcDbEntity
  8
DV2_Default
  6
Continuous
 62
     7
 48
25.4
100
AcDbLine
 10
435.588434401
 20
345.25195328
 30
0.0
 11
435.588434401
 21
349.45195328
 31
0.0
  0
LINE
  5
182
330
167
100
AcDbEntity
  8
DV2_Default
  6
Continuous
 62
     7
 48
25.4
100
AcDbLine
 10
435.588434401
 20
349.45195328
 30
0.0
 11
439.2257410969
 21
351.55195328
 31
0.0
  0
LINE
  5
183
330
167
100
AcDbEntity
  8
DV2_Default
  6
Continuous
 62
     7
 48
25.4
100
AcDbLine
 10
439.2257410969
 20
351.55195328
 30
0.0
 11
442.8630477928
 21
349.45195328
 31
0.0
  0
LINE
  5
184
330
167
100
AcDbEntity
  8
DV2_Default
  6
Continuous
 62
     7
 48
25.4
100
AcDbLine
 10
442.8630477928
 20
349.45195328
 30
0.0
 11
442.8630477928
 21
345.25195328
 31
0.0
  0
LINE
  5
185
330
167
100
AcDbEntity
  8
DV2_Default
  6
Continuous
 62
     7
 48
25.4
100
AcDbLine
 10
442.8630477928
 20
345.25195328
 30
0.0
 11
439.2257410969
 21
343.15195328
 31
0.0
  0
CIRCLE
  5
186
330
167
100
AcDbEntity
  8
DV2_Default
  6
Continuous
 62
     7
 48
25.4
100
AcDbCircle
 10
439.2257410969
 20
296.2378072245
 30
0.0
 40
15.75
  0
LINE
  5
187
330
167
100
AcDbEntity
  8
DV2_Default
  6
CENTER2
 62
     7
 48
25.4
100
AcDbLine
 10
439.2257410969
 20
244.9978072245
 30
0.0
 11
439.2257410969
 21
227.4978072245
 31
0.0
  0
CIRCLE
  5
188
330
167
100
AcDbEntity
  8
DV2_Default
  6
Continuous
 62
     7
 48
25.4
100
AcDbCircle
 10
439.2257410969
 20
236.2478072245
 30
0.0
 40
8.749999999999998
  0
CIRCLE
  5
189
330
167
100
AcDbEntity
  8
DV2_Default
  6
Continuous
 62
     7
 48
25.4
100
AcDbCircle
 10
439.2257410969
 20
236.2478072245
 30
0.0
 40
5.6
  0
ARC
  5
18A
330
167
100
AcDbEntity
  8
DV2_Default
  6
CENTER2
 62
     7
 48
25.4
100
AcDbCircle
 10
439.2257410969
 20
296.2378072245
 30
0.0
 40
59.98999999999999
100
AcDbArc
 50
261.6355468977
 51
278.3644531023
  0
LINE
  5
18B
330
167
100
AcDbEntity
  8
DV2_Default
  6
Continuous
 62
     7
 48
25.4
100
AcDbLine
 10
424.5257410969
 20
387.2378072245
 30
0.0
 11
425.2257410969
 21
387.2378072245
 31
0.0
  0
LINE
  5
18C
330
167
100
AcDbEntity
  8
DV2_Default
  6
Continuous
 62
     7
 48
25.4
100
AcDbLine
 10
424.5257410969
 20
387.2378072245
 30
0.0
 11
424.5257410969
 21
327.0378072245
 31
0.0
  0
LINE
  5
18D
330
167
100
AcDbEntity
  8
DV2_Default
  6
Continuous
 62
     7
 48
25.4
100
AcDbLine
 10
424.5257410969
 20
327.0378072245
 30
0.0
 11
425.2257410969
 21
327.0378072245
 31
0.0
  0
LINE
  5
18E
330
167
100
AcDbEntity
  8
DV2_Default
  6
CENTER2
 62
     7
 48
25.4
100
AcDbLine
 10
439.2257410969
 20
296.2378072245
 30
0.0
 11
439.2257410969
 21
396.4292117989
 31
0.0
  0
LINE
  5
18F
330
167
100
AcDbEntity
  8
DV2_Default
  6
Continuous
 62
     7
 48
25.4
100
AcDbLine
 10
424.5257410969
 20
387.2378072245
 30
0.0
 11
416.6323230823
 21
384.3648380205
 31
0.0
  0
LINE
  5
190
330
167
100
AcDbEntity
  8
DV2_Default
  6
Continuous
 62
     7
 48
25.4
100
AcDbLine
 10
416.6323230823
 20
384.3648380205
 30
0.0
 11
416.6323230823
 21
382.2188950428
 31
0.0
  0
LINE
  5
191
330
167
100
AcDbEntity
  8
DV2_Default
  6
CENTER2
 62
     7
 48
25.4
100
AcDbLine
 10
439.2257410969
 20
296.2378072245
 30
0.0
 11
439.2257410969
 21
196.1378072245
 31
0.0
  0
LINE
  5
192
330
167
100
AcDbEntity
  8
DV2_Default
  6
Continuous
 62
     7
 48
25.4
100
AcDbLine
 10
453.2257410969
 20
389.3378072245
 30
0.0
 11
453.2257410969
 21
368.3378072245
 31
0.0
  0
LINE
  5
193
330
167
100
AcDbEntity
  8
DV2_Default
  6
CENTER2
 62
     7
 48
25.4
100
AcDbLine
 10
430.7836397252
 20
347.3378072245
 30
0.0
 11
448.8271406063
 21
347.3378072245
 31
0.0
  0
LINE
  5
194
330
167
100
AcDbEntity
  8
DV2_Default
  6
CENTER2
 62
     7
 48
25.4
100
AcDbLine
 10
430.7836397252
 20
368.3378072245
 30
0.0
 11
448.0249934989
 21
368.3378072245
 31
0.0
  0
CIRCLE
  5
196
330
167
100
AcDbEntity
  8
DV2_Default
  6
HIDDEN2
 62
     7
 48
25.4
100
AcDbCircle
 10
427.1414798811
 20
251.138730395
 30
0.0
 40
4.2
  0
CIRCLE
  5
197
330
167
100
AcDbEntity
  8
DV2_Default
  6
HIDDEN2
 62
     7
 48
25.4
100
AcDbCircle
 10
427.1414798811
 20
251.138730395
 30
0.0
 40
3.849999999999999
  0
ARC
  5
198
330
167
100
AcDbEntity
  8
DV2_Default
  6
CENTER2
 62
     7
 48
25.4
100
AcDbCircle
 10
439.2257410969
 20
296.2378072245
 30
0.0
 40
37.09999999999999
100
AcDbArc
 50
264.5927313286
 51
275.4072686714
  0
LINE
  5
199
330
167
100
AcDbEntity
  8
DV2_Default
  6
CENTER2
 62
     7
 48
25.4
100
AcDbLine
 10
428.4299991165
 20
256.4205494421
 30
0.0
 11
425.387011771
 21
245.0639660618
 31
0.0
  0
LINE
  5
19A
330
167
100
AcDbEntity
  8
DV2_Default
  6
CENTER2
 62
     7
 48
25.4
100
AcDbLine
 10
439.2257410969
 20
254.2378072245
 30
0.0
 11
439.2257410969
 21
263.3178923369
 31
0.0
  0
LINE
  5
19B
330
167
100
AcDbEntity
  8
DV2_Default
  6
Continuous
 62
     7
 48
25.4
100
AcDbLine
 10
470.6546147063
 20
313.5765301778
 30
0.0
 11
472.0546147063
 21
313.5765301778
 31
0.0
  0
LINE
  5
19C
330
167
100
AcDbEntity
  8
DV2_Default
  6
Continuous
 62
     7
 48
25.4
100
AcDbLine
 10
472.0546147063
 20
313.5765301778
 30
0.0
 11
472.7546147063
 21
314.7889657431
 31
0.0
  0
LINE
  5
19D
330
167
100
AcDbEntity
  8
DV2_Default
  6
Continuous
 62
     7
 48
25.4
100
AcDbLine
 10
472.7546147063
 20
314.7889657431
 30
0.0
 11
472.0546147063
 21
316.0014013084
 31
0.0
  0
LINE
  5
19E
330
167
100
AcDbEntity
  8
DV2_Default
  6
Continuous
 62
     7
 48
25.4
100
AcDbLine
 10
472.0546147063
 20
316.0014013084
 30
0.0
 11
470.6546147063
 21
316.0014013084
 31
0.0
  0
LINE
  5
19F
330
167
100
AcDbEntity
  8
DV2_Default
  6
Continuous
 62
     7
 48
25.4
100
AcDbLine
 10
470.6546147063
 20
316.0014013084
 30
0.0
 11
469.9546147063
 21
314.7889657431
 31
0.0
  0
LINE
  5
1A0
330
167
100
AcDbEntity
  8
DV2_Default
  6
Continuous
 62
     7
 48
25.4
100
AcDbLine
 10
470.6546147063
 20
313.5765301778
 30
0.0
 11
469.9546147063
 21
314.7889657431
 31
0.0
  0
CIRCLE
  5
1A1
330
167
100
AcDbEntity
  8
DV2_Default
  6
Continuous
 62
     7
 48
25.4
100
AcDbCircle
 10
471.3552835773
 20
314.7878072245
 30
0.0
 40
3.5
  0
LINE
  5
1A2
330
167
100
AcDbEntity
  8
DV2_Default
  6
CENTER2
 62
     7
 48
25.4
100
AcDbLine
 10
483.6008827868
 20
321.8578072245
 30
0.0
 11
498.7563273531
 21
330.6078072245
 31
0.0
  0
CIRCLE
  5
1A3
330
167
100
AcDbEntity
  8
DV2_Default
  6
Continuous
 62
     7
 48
25.4
100
AcDbCircle
 10
491.17860507
 20
326.2328072245
 30
0.0
 40
8.749999999999998
  0
CIRCLE
  5
1A4
330
167
100
AcDbEntity
  8
DV2_Default
  6
Continuous
 62
     7
 48
25.4
100
AcDbCircle
 10
491.17860507
 20
326.2328072245
 30
0.0
 40
5.6
  0
ARC
  5
1A5
330
167
100
AcDbEntity
  8
DV2_Default
  6
CENTER2
 62
     7
 48
25.4
100
AcDbCircle
 10
439.2257410969
 20
296.2378072245
 30
0.0
 40
59.98999999999999
100
AcDbArc
 50
21.6355468977
 51
38.3644531023
  0
CIRCLE
  5
1A6
330
167
100
AcDbEntity
  8
DV2_Default
  6
HIDDEN2
 62
     7
 48
25.4
100
AcDbCircle
 10
484.3248179264
 20
308.3220684403
 30
0.0
 40
4.2
  0
CIRCLE
  5
1A7
330
167
100
AcDbEntity
  8
DV2_Default
  6
HIDDEN2
 62
     7
 48
25.4
100
AcDbCircle
 10
484.3248179264
 20
308.3220684403
 30
0.0
 40
3.849999999999999
  0
ARC
  5
1A8
330
167
100
AcDbEntity
  8
DV2_Default
  6
CENTER2
 62
     7
 48
25.4
100
AcDbCircle
 10
439.2257410969
 20
296.2378072245
 30
0.0
 40
37.09999999999999
100
AcDbArc
 50
24.5927313286
 51
35.4072686714
  0
LINE
  5
1A9
330
167
100
AcDbEntity
  8
DV2_Default
  6
CENTER2
 62
     7
 48
25.4
100
AcDbLine
 10
479.4277426481
 20
306.9656427344
 30
0.0
 11
489.1053366488
 21
309.5587462315
 31
0.0
  0
LINE
  5
1AA
330
167
100
AcDbEntity
  8
DV2_Default
  6
CENTER2
 62
     7
 48
25.4
100
AcDbLine
 10
475.5988080559
 20
317.2378072245
 30
0.0
 11
467.73522368
 21
312.6977646682
 31
0.0
  0
LINE
  5
1AB
330
167
100
AcDbEntity
  8
DV2_Default
  6
Continuous
 62
     7
 48
25.4
100
AcDbLine
 10
408.4955297455
 20
314.7866487058
 30
0.0
 11
407.7955297455
 21
315.9990842711
 31
0.0
  0
LINE
  5
1AC
330
167
100
AcDbEntity
  8
DV2_Default
  6
Continuous
 62
     7
 48
25.4
100
AcDbLine
 10
407.7955297455
 20
315.9990842711
 30
0.0
 11
406.3955297455
 21
315.9990842711
 31
0.0
  0
LINE
  5
1AD
330
167
100
AcDbEntity
  8
DV2_Default
  6
Continuous
 62
     7
 48
25.4
100
AcDbLine
 10
406.3955297455
 20
315.9990842711
 30
0.0
 11
405.6955297455
 21
314.7866487058
 31
0.0
  0
LINE
  5
1AE
330
167
100
AcDbEntity
  8
DV2_Default
  6
Continuous
 62
     7
 48
25.4
100
AcDbLine
 10
405.6955297455
 20
314.7866487058
 30
0.0
 11
406.3955297455
 21
313.5742131405
 31
0.0
  0
LINE
  5
1AF
330
167
100
AcDbEntity
  8
DV2_Default
  6
Continuous
 62
     7
 48
25.4
100
AcDbLine
 10
406.3955297455
 20
313.5742131405
 30
0.0
 11
407.7955297455
 21
313.5742131405
 31
0.0
  0
LINE
  5
1B0
330
167
100
AcDbEntity
  8
DV2_Default
  6
Continuous
 62
     7
 48
25.4
100
AcDbLine
 10
408.4955297455
 20
314.7866487058
 30
0.0
 11
407.7955297455
 21
313.5742131405
 31
0.0
  0
CIRCLE
  5
1B1
330
167
100
AcDbEntity
  8
DV2_Default
  6
Continuous
 62
     7
 48
25.4
100
AcDbCircle
 10
407.0961986165
 20
314.7878072245
 30
0.0
 40
3.5
  0
LINE
  5
1B2
330
167
100
AcDbEntity
  8
DV2_Default
  6
CENTER2
 62
     7
 48
25.4
100
AcDbLine
 10
394.850599407
 20
321.8578072245
 30
0.0
 11
379.6951548408
 21
330.6078072245
 31
0.0
  0
CIRCLE
  5
1B3
330
167
100
AcDbEntity
  8
DV2_Default
  6
Continuous
 62
     7
 48
25.4
100
AcDbCircle
 10
387.2728771239
 20
326.2328072245
 30
0.0
 40
8.749999999999998
  0
CIRCLE
  5
1B4
330
167
100
AcDbEntity
  8
DV2_Default
  6
Continuous
 62
     7
 48
25.4
100
AcDbCircle
 10
387.2728771239
 20
326.2328072245
 30
0.0
 40
5.6
  0
ARC
  5
1B5
330
167
100
AcDbEntity
  8
DV2_Default
  6
CENTER2
 62
     7
 48
25.4
100
AcDbCircle
 10
439.2257410969
 20
296.2378072245
 30
0.0
 40
59.98999999999999
100
AcDbArc
 50
141.6355468977
 51
158.3644531023
  0
LINE
  5
1B6
330
167
100
AcDbEntity
  8
DV2_Default
  6
Continuous
 62
     7
 48
25.4
100
AcDbLine
 10
424.5257410969
 20
327.0378072245
 30
0.0
 11
425.2257410969
 21
327.0378072245
 31
0.0
  0
CIRCLE
  5
1B7
330
167
100
AcDbEntity
  8
DV2_Default
  6
HIDDEN2
 62
     7
 48
25.4
100
AcDbCircle
 10
406.2109254833
 20
329.2526228381
 30
0.0
 40
4.2
  0
CIRCLE
  5
1B8
330
167
100
AcDbEntity
  8
DV2_Default
  6
HIDDEN2
 62
     7
 48
25.4
100
AcDbCircle
 10
406.2109254833
 20
329.2526228381
 30
0.0
 40
3.849999999999999
  0
ARC
  5
1B9
330
167
100
AcDbEntity
  8
DV2_Default
  6
CENTER2
 62
     7
 48
25.4
100
AcDbCircle
 10
439.2257410969
 20
296.2378072245
 30
0.0
 40
37.09999999999999
100
AcDbArc
 50
144.5927313286
 51
155.4072686714
  0
LINE
  5
1BA
330
167
100
AcDbEntity
  8
DV2_Default
  6
CENTER2
 62
     7
 48
25.4
100
AcDbLine
 10
409.6642490259
 20
325.7992992955
 30
0.0
 11
402.9462943661
 21
332.5172539553
 31
0.0
  0
LINE
  5
1BB
330
167
100
AcDbEntity
  8
DV2_Default
  6
CENTER2
 62
     7
 48
25.4
100
AcDbLine
 10
402.852674138
 20
317.2378072245
 30
0.0
 11
410.7162585139
 21
312.6977646682
 31
0.0
  0
LINE
  5
1BC
330
167
100
AcDbEntity
  8
DV2_Default
  6
Continuous
 62
     7
 48
25.4
100
AcDbLine
 10
424.5257410969
 20
330.5378072245
 30
0.0
 11
425.2257410969
 21
330.5378072245
 31
0.0
  0
ARC
  5
1BD
330
167
100
AcDbEntity
  8
DV2_Default
  6
Continuous
 62
     7
 48
25.4
100
AcDbCircle
 10
439.2257410969
 20
296.2378072245
 30
0.0
 40
19.25
100
AcDbArc
 50
113.9272332619
 51
185.9504080941
  0
ARC
  5
1BE
330
167
100
AcDbEntity
  8
DV2_Default
  6
Continuous
 62
     7
 48
25.4
100
AcDbCircle
 10
439.2257410969
 20
296.2378072245
 30
0.0
 40
19.25
100
AcDbArc
 50
233.9272332619
 51
305.9504080941
  0
ARC
  5
1BF
330
167
100
AcDbEntity
  8
DV2_Default
  6
Continuous
 62
     7
 48
25.4
100
AcDbCircle
 10
439.2257410969
 20
296.2378072245
 30
0.0
 40
19.25
100
AcDbArc
 50
353.9272332619
 51
65.9504080941
  0
LINE
  5
1C0
330
167
100
AcDbEntity
  8
DV2_Default
  6
Continuous
 62
     7
 48
25.4
100
AcDbLine
 10
453.9257410969
 20
387.2378072245
 30
0.0
 11
453.2257410969
 21
387.2378072245
 31
0.0
  0
LINE
  5
1C1
330
167
100
AcDbEntity
  8
DV2_Default
  6
Continuous
 62
     7
 48
25.4
100
AcDbLine
 10
453.9257410969
 20
387.2378072245
 30
0.0
 11
453.9257410969
 21
327.0378072245
 31
0.0
  0
LINE
  5
1C2
330
167
100
AcDbEntity
  8
DV2_Default
  6
Continuous
 62
     7
 48
25.4
100
AcDbLine
 10
453.9257410969
 20
327.0378072245
 30
0.0
 11
453.2257410969
 21
327.0378072245
 31
0.0
  0
LINE
  5
1C3
330
167
100
AcDbEntity
  8
DV2_Default
  6
Continuous
 62
     7
 48
25.4
100
AcDbLine
 10
453.9257410969
 20
387.2378072245
 30
0.0
 11
461.8191591115
 21
384.3648380205
 31
0.0
  0
LINE
  5
1C4
330
167
100
AcDbEntity
  8
DV2_Default
  6
Continuous
 62
     7
 48
25.4
100
AcDbLine
 10
461.8191591115
 20
384.3648380205
 30
0.0
 11
461.8191591115
 21
382.2188950428
 31
0.0
  0
LINE
  5
1C5
330
167
100
AcDbEntity
  8
DV2_Default
  6
Continuous
 62
     7
 48
25.4
100
AcDbLine
 10
453.9257410969
 20
327.0378072245
 30
0.0
 11
453.2257410969
 21
327.0378072245
 31
0.0
  0
LINE
  5
1C6
330
167
100
AcDbEntity
  8
DV2_Default
  6
Continuous
 62
     7
 48
25.4
100
AcDbLine
 10
453.9257410969
 20
330.5378072245
 30
0.0
 11
453.2257410969
 21
330.5378072245
 31
0.0
  0
LINE
  5
1C7
330
167
100
AcDbEntity
  8
DV2_Default
  6
Continuous
 62
     7
 48
25.4
100
AcDbLine
 10
434.0089945303
 20
312.3378072245
 30
0.0
 11
444.5089945303
 21
312.3378072245
 31
0.0
  0
LINE
  5
1C8
330
167
100
AcDbEntity
  8
DV2_Default
  6
Continuous
 62
     7
 48
25.4
100
AcDbLine
 10
351.5987760046
 20
261.8121628775
 30
0.0
 11
413.9243588127
 21
297.7958548891
 31
0.0
  0
LINE
  5
1C9
330
167
100
AcDbEntity
  8
DV2_Default
  6
Continuous
 62
     7
 48
25.4
100
AcDbLine
 10
427.8911053793
 20
273.5279447044
 30
0.0
 11
365.5987760046
 21
237.5634515715
 31
0.0
  0
LINE
  5
1CA
330
167
100
AcDbEntity
  8
DV2_Default
  6
Continuous
 62
     7
 48
25.4
100
AcDbLine
 10
365.5987760046
 20
237.5634515715
 30
0.0
 11
351.5987760046
 21
261.8121628775
 31
0.0
  0
LINE
  5
1CB
330
167
100
AcDbEntity
  8
DV2_Default
  6
Continuous
 62
     7
 48
25.4
100
AcDbLine
 10
427.8911053793
 20
283.6699721727
 30
0.0
 11
427.8911053793
 21
273.5279447044
 31
0.0
  0
LINE
  5
1CC
330
167
100
AcDbEntity
  8
DV2_Default
  6
Continuous
 62
     7
 48
25.4
100
AcDbLine
 10
422.6411053793
 20
292.7632389124
 30
0.0
 11
413.9243588127
 21
297.7958548891
 31
0.0
  0
CIRCLE
  5
1CD
330
167
100
AcDbEntity
  8
DV2_Default
  6
Continuous
 62
     7
 48
25.4
100
AcDbCircle
 10
376.7636231904
 20
260.175286637
 30
0.0
 40
6.65
  0
CIRCLE
  5
1CE
330
167
100
AcDbEntity
  8
DV2_Default
  6
Continuous
 62
     7
 48
25.4
100
AcDbCircle
 10
394.9501566699
 20
270.675286637
 30
0.0
 40
6.65
  0
CIRCLE
  5
1CF
330
167
100
AcDbEntity
  8
DV2_Default
  6
Continuous
 62
     7
 48
25.4
100
AcDbCircle
 10
376.7636231904
 20
260.175286637
 30
0.0
 40
6.3
  0
CIRCLE
  5
1D0
330
167
100
AcDbEntity
  8
DV2_Default
  6
Continuous
 62
     7
 48
25.4
100
AcDbCircle
 10
394.9501566699
 20
270.675286637
 30
0.0
 40
6.3
  0
LINE
  5
1D1
330
167
100
AcDbEntity
  8
DV2_Default
  6
Continuous
 62
     7
 48
25.4
100
AcDbLine
 10
373.1208110809
 20
258.0721080849
 30
0.0
 11
376.7581177768
 21
255.9721080849
 31
0.0
  0
LINE
  5
1D2
330
167
100
AcDbEntity
  8
DV2_Default
  6
Continuous
 62
     7
 48
25.4
100
AcDbLine
 10
376.7581177768
 20
255.9721080849
 30
0.0
 11
380.3954244727
 21
258.0721080849
 31
0.0
  0
LINE
  5
1D3
330
167
100
AcDbEntity
  8
DV2_Default
  6
Continuous
 62
     7
 48
25.4
100
AcDbLine
 10
380.3954244727
 20
258.0721080849
 30
0.0
 11
380.3954244727
 21
262.2721080849
 31
0.0
  0
LINE
  5
1D4
330
167
100
AcDbEntity
  8
DV2_Default
  6
Continuous
 62
     7
 48
25.4
100
AcDbLine
 10
380.3954244727
 20
262.2721080849
 30
0.0
 11
376.7581177768
 21
264.3721080849
 31
0.0
  0
LINE
  5
1D5
330
167
100
AcDbEntity
  8
DV2_Default
  6
Continuous
 62
     7
 48
25.4
100
AcDbLine
 10
376.7581177768
 20
264.3721080849
 30
0.0
 11
373.1208110809
 21
262.2721080849
 31
0.0
  0
LINE
  5
1D6
330
167
100
AcDbEntity
  8
DV2_Default
  6
Continuous
 62
     7
 48
25.4
100
AcDbLine
 10
373.1208110809
 20
262.2721080849
 30
0.0
 11
373.1208110809
 21
258.0721080849
 31
0.0
  0
LINE
  5
1D7
330
167
100
AcDbEntity
  8
DV2_Default
  6
Continuous
 62
     7
 48
25.4
100
AcDbLine
 10
398.596898816
 20
272.7807341967
 30
0.0
 11
398.596898816
 21
268.5807341967
 31
0.0
  0
LINE
  5
1D8
330
167
100
AcDbEntity
  8
DV2_Default
  6
Continuous
 62
     7
 48
25.4
100
AcDbLine
 10
398.596898816
 20
268.5807341967
 30
0.0
 11
394.9595921201
 21
266.4807341967
 31
0.0
  0
LINE
  5
1D9
330
167
100
AcDbEntity
  8
DV2_Default
  6
Continuous
 62
     7
 48
25.4
100
AcDbLine
 10
394.9595921201
 20
266.4807341967
 30
0.0
 11
391.3222854242
 21
268.5807341967
 31
0.0
  0
LINE
  5
1DA
330
167
100
AcDbEntity
  8
DV2_Default
  6
Continuous
 62
     7
 48
25.4
100
AcDbLine
 10
391.3222854242
 20
268.5807341967
 30
0.0
 11
391.3222854242
 21
272.7807341967
 31
0.0
  0
LINE
  5
1DB
330
167
100
AcDbEntity
  8
DV2_Default
  6
Continuous
 62
     7
 48
25.4
100
AcDbLine
 10
391.3222854242
 20
272.7807341967
 30
0.0
 11
394.9595921201
 21
274.8807341967
 31
0.0
  0
LINE
  5
1DC
330
167
100
AcDbEntity
  8
DV2_Default
  6
Continuous
 62
     7
 48
25.4
100
AcDbLine
 10
394.9595921201
 20
274.8807341967
 30
0.0
 11
398.596898816
 21
272.7807341967
 31
0.0
  0
LINE
  5
1DD
330
167
100
AcDbEntity
  8
DV2_Default
  6
Continuous
 62
     7
 48
25.4
100
AcDbLine
 10
367.7674293525
 20
238.0072337888
 30
0.0
 11
367.4174293525
 21
238.6134515715
 31
0.0
  0
LINE
  5
1DE
330
167
100
AcDbEntity
  8
DV2_Default
  6
Continuous
 62
     7
 48
25.4
100
AcDbLine
 10
367.7674293525
 20
238.0072337888
 30
0.0
 11
419.9021586604
 21
268.1072337888
 31
0.0
  0
LINE
  5
1DF
330
167
100
AcDbEntity
  8
DV2_Default
  6
Continuous
 62
     7
 48
25.4
100
AcDbLine
 10
419.9021586604
 20
268.1072337888
 30
0.0
 11
419.5521586604
 21
268.7134515715
 31
0.0
  0
LINE
  5
1E0
330
167
100
AcDbEntity
  8
DV2_Default
  6
Continuous
 62
     7
 48
25.4
100
AcDbLine
 10
367.7674293525
 20
238.0072337888
 30
0.0
 11
374.2022026747
 21
232.6078178675
 31
0.0
  0
LINE
  5
1E1
330
167
100
AcDbEntity
  8
DV2_Default
  6
Continuous
 62
     7
 48
25.4
100
AcDbLine
 10
374.2022026747
 20
232.6078178675
 30
0.0
 11
376.0606438086
 21
233.6807893564
 31
0.0
  0
LINE
  5
1E2
330
167
100
AcDbEntity
  8
DV2_Default
  6
Continuous
 62
     7
 48
25.4
100
AcDbLine
 10
351.5987760046
 20
261.8121628775
 30
0.0
 11
369.7853094841
 21
272.3121628775
 31
0.0
  0
LINE
  5
1E3
330
167
100
AcDbEntity
  8
DV2_Default
  6
CENTER2
 62
     7
 48
25.4
100
AcDbLine
 10
399.1928936494
 20
263.3767329752
 30
0.0
 11
390.1711432089
 21
279.0028631115
 31
0.0
  0
LINE
  5
1E4
330
167
100
AcDbEntity
  8
DV2_Default
  6
CENTER2
 62
     7
 48
25.4
100
AcDbLine
 10
381.0063601699
 20
252.8767329752
 30
0.0
 11
372.3856832831
 21
267.8081833389
 31
0.0
  0
LINE
  5
1E5
330
167
100
AcDbEntity
  8
DV2_Default
  6
Continuous
 62
     7
 48
25.4
100
AcDbLine
 10
419.9021586604
 20
268.1072337888
 30
0.0
 11
419.5521586604
 21
268.7134515715
 31
0.0
  0
LINE
  5
1E6
330
167
100
AcDbEntity
  8
DV2_Default
  6
Continuous
 62
     7
 48
25.4
100
AcDbLine
 10
416.8710697471
 20
266.3572337888
 30
0.0
 11
416.5210697471
 21
266.9634515715
 31
0.0
  0
LINE
  5
1E7
330
167
100
AcDbEntity
  8
DV2_Default
  6
Continuous
 62
     7
 48
25.4
100
AcDbLine
 10
353.0674293525
 20
263.4683806601
 30
0.0
 11
353.4174293525
 21
262.8621628775
 31
0.0
  0
LINE
  5
1E8
330
167
100
AcDbEntity
  8
DV2_Default
  6
Continuous
 62
     7
 48
25.4
100
AcDbLine
 10
353.0674293525
 20
263.4683806601
 30
0.0
 11
405.2021586604
 21
293.5683806601
 31
0.0
  0
LINE
  5
1E9
330
167
100
AcDbEntity
  8
DV2_Default
  6
Continuous
 62
     7
 48
25.4
100
AcDbLine
 10
405.2021586604
 20
293.5683806601
 30
0.0
 11
405.5521586604
 21
292.9621628775
 31
0.0
  0
LINE
  5
1EA
330
167
100
AcDbEntity
  8
DV2_Default
  6
Continuous
 62
     7
 48
25.4
100
AcDbLine
 10
353.0674293525
 20
263.4683806601
 30
0.0
 11
351.6087846601
 21
271.7407657854
 31
0.0
  0
LINE
  5
1EB
330
167
100
AcDbEntity
  8
DV2_Default
  6
Continuous
 62
     7
 48
25.4
100
AcDbLine
 10
351.6087846601
 20
271.7407657854
 30
0.0
 11
353.467225794
 21
272.8137372743
 31
0.0
  0
LINE
  5
1EC
330
167
100
AcDbEntity
  8
DV2_Default
  6
Continuous
 62
     7
 48
25.4
100
AcDbLine
 10
405.2021586604
 20
293.5683806601
 30
0.0
 11
405.5521586604
 21
292.9621628775
 31
0.0
  0
LINE
  5
1ED
330
167
100
AcDbEntity
  8
DV2_Default
  6
Continuous
 62
     7
 48
25.4
100
AcDbLine
 10
402.1710697471
 20
291.8183806601
 30
0.0
 11
402.5210697471
 21
291.2121628775
 31
0.0
  0
LINE
  5
1EE
330
167
100
AcDbEntity
  8
DV2_Default
  6
Continuous
 62
     7
 48
25.4
100
AcDbLine
 10
427.8911053793
 20
283.6699721727
 30
0.0
 11
422.6411053793
 21
292.7632389124
 31
0.0
  0
LINE
  5
1EF
330
167
100
AcDbEntity
  8
DV2_Default
  6
Continuous
 62
     7
 48
25.4
100
AcDbLine
 10
512.8527061893
 20
237.5634515715
 30
0.0
 11
450.5271233812
 21
273.5471435831
 31
0.0
  0
LINE
  5
1F0
330
167
100
AcDbEntity
  8
DV2_Default
  6
Continuous
 62
     7
 48
25.4
100
AcDbLine
 10
464.5603768145
 20
297.7766560104
 30
0.0
 11
526.8527061893
 21
261.8121628775
 31
0.0
  0
LINE
  5
1F1
330
167
100
AcDbEntity
  8
DV2_Default
  6
Continuous
 62
     7
 48
25.4
100
AcDbLine
 10
526.8527061893
 20
261.8121628775
 30
0.0
 11
512.8527061893
 21
237.5634515715
 31
0.0
  0
LINE
  5
1F2
330
167
100
AcDbEntity
  8
DV2_Default
  6
Continuous
 62
     7
 48
25.4
100
AcDbLine
 10
455.7771233812
 20
292.7056422763
 30
0.0
 11
464.5603768145
 21
297.7766560104
 31
0.0
  0
LINE
  5
1F3
330
167
100
AcDbEntity
  8
DV2_Default
  6
Continuous
 62
     7
 48
25.4
100
AcDbLine
 10
450.5271233812
 20
283.6123755365
 30
0.0
 11
450.5271233812
 21
273.5471435831
 31
0.0
  0
CIRCLE
  5
1F4
330
167
100
AcDbEntity
  8
DV2_Default
  6
Continuous
 62
     7
 48
25.4
100
AcDbCircle
 10
501.6878590035
 20
260.175286637
 30
0.0
 40
6.65
  0
CIRCLE
  5
1F5
330
167
100
AcDbEntity
  8
DV2_Default
  6
Continuous
 62
     7
 48
25.4
100
AcDbCircle
 10
483.501325524
 20
270.675286637
 30
0.0
 40
6.65
  0
CIRCLE
  5
1F6
330
167
100
AcDbEntity
  8
DV2_Default
  6
Continuous
 62
     7
 48
25.4
100
AcDbCircle
 10
501.6878590035
 20
260.175286637
 30
0.0
 40
6.3
  0
CIRCLE
  5
1F7
330
167
100
AcDbEntity
  8
DV2_Default
  6
Continuous
 62
     7
 48
25.4
100
AcDbCircle
 10
483.501325524
 20
270.675286637
 30
0.0
 40
6.3
  0
LINE
  5
1F8
330
167
100
AcDbEntity
  8
DV2_Default
  6
Continuous
 62
     7
 48
25.4
100
AcDbLine
 10
505.330671113
 20
258.0721080849
 30
0.0
 11
505.330671113
 21
262.2721080849
 31
0.0
  0
LINE
  5
1F9
330
167
100
AcDbEntity
  8
DV2_Default
  6
Continuous
 62
     7
 48
25.4
100
AcDbLine
 10
505.330671113
 20
262.2721080849
 30
0.0
 11
501.6933644171
 21
264.3721080849
 31
0.0
  0
LINE
  5
1FA
330
167
100
AcDbEntity
  8
DV2_Default
  6
Continuous
 62
     7
 48
25.4
100
AcDbLine
 10
501.6933644171
 20
264.3721080849
 30
0.0
 11
498.0560577212
 21
262.2721080849
 31
0.0
  0
LINE
  5
1FB
330
167
100
AcDbEntity
  8
DV2_Default
  6
Continuous
 62
     7
 48
25.4
100
AcDbLine
 10
498.0560577212
 20
262.2721080849
 30
0.0
 11
498.0560577212
 21
258.0721080849
 31
0.0
  0
LINE
  5
1FC
330
167
100
AcDbEntity
  8
DV2_Default
  6
Continuous
 62
     7
 48
25.4
100
AcDbLine
 10
498.0560577212
 20
258.0721080849
 30
0.0
 11
501.6933644171
 21
255.9721080849
 31
0.0
  0
LINE
  5
1FD
330
167
100
AcDbEntity
  8
DV2_Default
  6
Continuous
 62
     7
 48
25.4
100
AcDbLine
 10
501.6933644171
 20
255.9721080849
 30
0.0
 11
505.330671113
 21
258.0721080849
 31
0.0
  0
LINE
  5
1FE
330
167
100
AcDbEntity
  8
DV2_Default
  6
Continuous
 62
     7
 48
25.4
100
AcDbLine
 10
479.8545833778
 20
272.7807341967
 30
0.0
 11
483.4918900737
 21
274.8807341967
 31
0.0
  0
LINE
  5
1FF
330
167
100
AcDbEntity
  8
DV2_Default
  6
Continuous
 62
     7
 48
25.4
100
AcDbLine
 10
483.4918900737
 20
274.8807341967
 30
0.0
 11
487.1291967696
 21
272.7807341967
 31
0.0
  0
LINE
  5
200
330
167
100
AcDbEntity
  8
DV2_Default
  6
Continuous
 62
     7
 48
25.4
100
AcDbLine
 10
487.1291967696
 20
272.7807341967
 30
0.0
 11
487.1291967696
 21
268.5807341967
 31
0.0
  0
LINE
  5
201
330
167
100
AcDbEntity
  8
DV2_Default
  6
Continuous
 62
     7
 48
25.4
100
AcDbLine
 10
487.1291967696
 20
268.5807341967
 30
0.0
 11
483.4918900737
 21
266.4807341967
 31
0.0
  0
LINE
  5
202
330
167
100
AcDbEntity
  8
DV2_Default
  6
Continuous
 62
     7
 48
25.4
100
AcDbLine
 10
483.4918900737
 20
266.4807341967
 30
0.0
 11
479.8545833778
 21
268.5807341967
 31
0.0
  0
LINE
  5
203
330
167
100
AcDbEntity
  8
DV2_Default
  6
Continuous
 62
     7
 48
25.4
100
AcDbLine
 10
479.8545833778
 20
268.5807341967
 30
0.0
 11
479.8545833778
 21
272.7807341967
 31
0.0
  0
LINE
  5
204
330
167
100
AcDbEntity
  8
DV2_Default
  6
Continuous
 62
     7
 48
25.4
100
AcDbLine
 10
525.3840528413
 20
263.4683806601
 30
0.0
 11
525.0340528413
 21
262.8621628775
 31
0.0
  0
LINE
  5
205
330
167
100
AcDbEntity
  8
DV2_Default
  6
Continuous
 62
     7
 48
25.4
100
AcDbLine
 10
525.3840528413
 20
263.4683806601
 30
0.0
 11
473.2493235335
 21
293.5683806601
 31
0.0
  0
LINE
  5
206
330
167
100
AcDbEntity
  8
DV2_Default
  6
Continuous
 62
     7
 48
25.4
100
AcDbLine
 10
473.2493235335
 20
293.5683806601
 30
0.0
 11
472.8993235335
 21
292.9621628775
 31
0.0
  0
LINE
  5
207
330
167
100
AcDbEntity
  8
DV2_Default
  6
Continuous
 62
     7
 48
25.4
100
AcDbLine
 10
525.3840528413
 20
263.4683806601
 30
0.0
 11
526.8426975337
 21
271.7407657854
 31
0.0
  0
LINE
  5
208
330
167
100
AcDbEntity
  8
DV2_Default
  6
Continuous
 62
     7
 48
25.4
100
AcDbLine
 10
526.8426975337
 20
271.7407657854
 30
0.0
 11
524.9842563999
 21
272.8137372743
 31
0.0
  0
LINE
  5
209
330
167
100
AcDbEntity
  8
DV2_Default
  6
Continuous
 62
     7
 48
25.4
100
AcDbLine
 10
512.8527061893
 20
237.5634515715
 30
0.0
 11
494.6661727098
 21
248.0634515715
 31
0.0
  0
LINE
  5
20A
330
167
100
AcDbEntity
  8
DV2_Default
  6
CENTER2
 62
     7
 48
25.4
100
AcDbLine
 10
487.7006899162
 20
277.9988814737
 30
0.0
 11
478.6789394756
 21
262.3727513375
 31
0.0
  0
LINE
  5
20B
330
167
100
AcDbEntity
  8
DV2_Default
  6
CENTER2
 62
     7
 48
25.4
100
AcDbLine
 10
505.8872233956
 20
267.4988814737
 30
0.0
 11
497.2665465088
 21
252.5674311101
 31
0.0
  0
LINE
  5
20C
330
167
100
AcDbEntity
  8
DV2_Default
  6
Continuous
 62
     7
 48
25.4
100
AcDbLine
 10
473.2493235335
 20
293.5683806601
 30
0.0
 11
472.8993235335
 21
292.9621628775
 31
0.0
  0
LINE
  5
20D
330
167
100
AcDbEntity
  8
DV2_Default
  6
Continuous
 62
     7
 48
25.4
100
AcDbLine
 10
476.2804124467
 20
291.8183806601
 30
0.0
 11
475.9304124467
 21
291.2121628775
 31
0.0
  0
LINE
  5
20E
330
167
100
AcDbEntity
  8
DV2_Default
  6
Continuous
 62
     7
 48
25.4
100
AcDbLine
 10
510.6840528413
 20
238.0072337888
 30
0.0
 11
511.0340528413
 21
238.6134515715
 31
0.0
  0
LINE
  5
20F
330
167
100
AcDbEntity
  8
DV2_Default
  6
Continuous
 62
     7
 48
25.4
100
AcDbLine
 10
510.6840528413
 20
238.0072337888
 30
0.0
 11
458.5493235335
 21
268.1072337888
 31
0.0
  0
LINE
  5
210
330
167
100
AcDbEntity
  8
DV2_Default
  6
Continuous
 62
     7
 48
25.4
100
AcDbLine
 10
458.5493235335
 20
268.1072337888
 30
0.0
 11
458.8993235335
 21
268.7134515715
 31
0.0
  0
LINE
  5
211
330
167
100
AcDbEntity
  8
DV2_Default
  6
Continuous
 62
     7
 48
25.4
100
AcDbLine
 10
510.6840528413
 20
238.0072337888
 30
0.0
 11
504.2492795191
 21
232.6078178675
 31
0.0
  0
LINE
  5
212
330
167
100
AcDbEntity
  8
DV2_Default
  6
Continuous
 62
     7
 48
25.4
100
AcDbLine
 10
504.2492795191
 20
232.6078178675
 30
0.0
 11
502.3908383853
 21
233.6807893564
 31
0.0
  0
LINE
  5
213
330
167
100
AcDbEntity
  8
DV2_Default
  6
Continuous
 62
     7
 48
25.4
100
AcDbLine
 10
458.5493235335
 20
268.1072337888
 30
0.0
 11
458.8993235335
 21
268.7134515715
 31
0.0
  0
LINE
  5
214
330
167
100
AcDbEntity
  8
DV2_Default
  6
Continuous
 62
     7
 48
25.4
100
AcDbLine
 10
461.5804124467
 20
266.3572337888
 30
0.0
 11
461.9304124467
 21
266.9634515715
 31
0.0
  0
LINE
  5
215
330
167
100
AcDbEntity
  8
DV2_Default
  6
Continuous
 62
     7
 48
25.4
100
AcDbLine
 10
455.7771233812
 20
292.7056422763
 30
0.0
 11
450.5271233812
 21
283.6123755365
 31
0.0
  0
ARC
  5
216
330
167
100
AcDbEntity
  8
DV2_Default
  6
Continuous
 62
     7
 48
25.4
100
AcDbCircle
 10
439.2257410969
 20
296.2378072245
 30
0.0
 40
88.89999999999999
100
AcDbArc
 50
339.517818872
 51
80.482181128
  0
ARC
  5
217
330
167
100
AcDbEntity
  8
DV2_Default
  6
Continuous
 62
     7
 48
25.4
100
AcDbCircle
 10
439.2257410969
 20
296.2378072245
 30
0.0
 40
88.89999999999999
100
AcDbArc
 50
99.517818872
 51
200.482181128
  0
ARC
  5
218
330
167
100
AcDbEntity
  8
DV2_Default
  6
Continuous
 62
     7
 48
25.4
100
AcDbCircle
 10
439.2257410969
 20
296.2378072245
 30
0.0
 40
88.89999999999999
100
AcDbArc
 50
219.517818872
 51
320.482181128
  0
ARC
  5
219
330
167
100
AcDbEntity
  8
DV2_Default
  6
Continuous
 62
     7
 48
25.4
100
AcDbCircle
 10
439.2257410969
 20
296.2378072245
 30
0.0
 40
41.99999999999999
100
AcDbArc
 50
350.4873151147
 51
69.5126848853
  0
ARC
  5
21A
330
167
100
AcDbEntity
  8
DV2_Default
  6
Continuous
 62
     7
 48
25.4
100
AcDbCircle
 10
439.2257410969
 20
296.2378072245
 30
0.0
 40
41.99999999999999
100
AcDbArc
 50
110.4873151147
 51
189.5126848853
  0
ARC
  5
21B
330
167
100
AcDbEntity
  8
DV2_Default
  6
Continuous
 62
     7
 48
25.4
100
AcDbCircle
 10
439.2257410969
 20
296.2378072245
 30
0.0
 40
41.99999999999999
100
AcDbArc
 50
230.4873151147
 51
309.5126848853
  0
LINE
  5
21C
330
167
100
AcDbEntity
  8
DV2_Default
  6
CENTER2
 62
     7
 48
25.4
100
AcDbLine
 10
439.2257410969
 20
296.2378072245
 30
0.0
 11
524.0962306678
 21
247.2378072245
 31
0.0
  0
LINE
  5
21D
330
167
100
AcDbEntity
  8
DV2_Default
  6
CENTER2
 62
     7
 48
25.4
100
AcDbLine
 10
439.2257410969
 20
296.2378072245
 30
0.0
 11
354.355251526
 21
247.2378072245
 31
0.0
  0
LINE
  5
21E
330
167
100
AcDbEntity
  8
DV2_Default
  6
CENTER2
 62
     7
 48
25.4
100
AcDbLine
 10
439.2257410969
 20
296.2378072245
 30
0.0
 11
344.7257410969
 21
296.2378072245
 31
0.0
  0
LINE
  5
21F
330
167
100
AcDbEntity
  8
DV2_Default
  6
CENTER2
 62
     7
 48
25.4
100
AcDbLine
 10
439.2257410969
 20
296.2378072245
 30
0.0
 11
533.7257410969
 21
296.2378072245
 31
0.0
  0
ARC
  5
220
330
167
100
AcDbEntity
  8
DV2_Default
  6
CENTER2
 62
     7
 48
25.4
100
AcDbCircle
 10
439.2257410969
 20
296.2378072245
 30
0.0
 40
46.69000000000001
100
AcDbArc
 50
129.8442175302
 51
140.1557824698
  0
ARC
  5
221
330
167
100
AcDbEntity
  8
DV2_Default
  6
CENTER2
 62
     7
 48
25.4
100
AcDbCircle
 10
439.2257410969
 20
296.2378072245
 30
0.0
 40
46.69000000000001
100
AcDbArc
 50
249.8442175302
 51
260.1557824698
  0
ARC
  5
222
330
167
100
AcDbEntity
  8
DV2_Default
  6
CENTER2
 62
     7
 48
25.4
100
AcDbCircle
 10
439.2257410969
 20
296.2378072245
 30
0.0
 40
46.69000000000001
100
AcDbArc
 50
9.8442175302
 51
20.1557824698
  0
CIRCLE
  5
223
330
167
100
AcDbEntity
  8
DV2_Default
  6
HIDDEN2
 62
     7
 48
25.4
100
AcDbCircle
 10
451.3100023128
 20
251.138730395
 30
0.0
 40
4.2
  0
CIRCLE
  5
224
330
167
100
AcDbEntity
  8
DV2_Default
  6
HIDDEN2
 62
     7
 48
25.4
100
AcDbCircle
 10
451.3100023128
 20
251.138730395
 30
0.0
 40
3.849999999999999
  0
LINE
  5
225
330
167
100
AcDbEntity
  8
DV2_Default
  6
CENTER2
 62
     7
 48
25.4
100
AcDbLine
 10
449.7849831804
 20
256.3571794857
 30
0.0
 11
452.8279705259
 21
245.0005961055
 31
0.0
  0
ARC
  5
226
330
167
100
AcDbEntity
  8
DV2_Default
  6
CENTER2
 62
     7
 48
25.4
100
AcDbCircle
 10
439.2257410969
 20
296.2378072245
 30
0.0
 40
46.69000000000001
100
AcDbArc
 50
279.8442175302
 51
290.1557824698
  0
CIRCLE
  5
227
330
167
100
AcDbEntity
  8
DV2_Default
  6
HIDDEN2
 62
     7
 48
25.4
100
AcDbCircle
 10
472.2405567105
 20
329.2526228381
 30
0.0
 40
4.2
  0
CIRCLE
  5
228
330
167
100
AcDbEntity
  8
DV2_Default
  6
HIDDEN2
 62
     7
 48
25.4
100
AcDbCircle
 10
472.2405567105
 20
329.2526228381
 30
0.0
 40
3.849999999999999
  0
LINE
  5
229
330
167
100
AcDbEntity
  8
DV2_Default
  6
CENTER2
 62
     7
 48
25.4
100
AcDbLine
 10
468.4837567958
 20
325.3226929829
 30
0.0
 11
476.7973528305
 21
333.6362890176
 31
0.0
  0
ARC
  5
22A
330
167
100
AcDbEntity
  8
DV2_Default
  6
CENTER2
 62
     7
 48
25.4
100
AcDbCircle
 10
439.2257410969
 20
296.2378072245
 30
0.0
 40
46.69000000000001
100
AcDbArc
 50
39.8442175302
 51
50.1557824698
  0
CIRCLE
  5
22B
330
167
100
AcDbEntity
  8
DV2_Default
  6
HIDDEN2
 62
     7
 48
25.4
100
AcDbCircle
 10
394.1266642675
 20
308.3220684403
 30
0.0
 40
4.2
  0
CIRCLE
  5
22C
330
167
100
AcDbEntity
  8
DV2_Default
  6
HIDDEN2
 62
     7
 48
25.4
100
AcDbCircle
 10
394.1266642675
 20
308.3220684403
 30
0.0
 40
3.849999999999999
  0
LINE
  5
22D
330
167
100
AcDbEntity
  8
DV2_Default
  6
CENTER2
 62
     7
 48
25.4
100
AcDbLine
 10
399.4084833145
 20
307.0335492048
 30
0.0
 11
388.0518999343
 21
310.0765365504
 31
0.0
  0
ARC
  5
22E
330
167
100
AcDbEntity
  8
DV2_Default
  6
CENTER2
 62
     7
 48
25.4
100
AcDbCircle
 10
439.2257410969
 20
296.2378072245
 30
0.0
 40
46.69000000000001
100
AcDbArc
 50
159.8442175302
 51
170.1557824698
  0
ENDBLK
  5
230
330
167
100
AcDbEntity
  8
0
100
AcDbBlockEnd
  0
BLOCK
  5
2C0
330
231
100
AcDbEntity
  8
0
100
AcDbBlockBegin
  2
SE2
 70
     0
 71
     0
 10
0.0
 20
0.0
 30
0.0
  3
SE2
  1

  0
LINE
  5
234
330
231
100
AcDbEntity
  8
DV3_Default
  6
Continuous
 62
     7
 48
25.4
100
AcDbLine
 10
413.5098914013
 20
143.7845490664
 30
0.0
 11
273.5098914013
 21
143.7845490664
 31
0.0
  0
LINE
  5
235
330
231
100
AcDbEntity
  8
DV3_Default
  6
Continuous
 62
     7
 48
25.4
100
AcDbLine
 10
413.5098914013
 20
143.7845490664
 30
0.0
 11
413.5098914013
 21
36.6845490664
 31
0.0
  0
LINE
  5
236
330
231
100
AcDbEntity
  8
DV3_Default
  6
Continuous
 62
     7
 48
25.4
100
AcDbLine
 10
413.5098914013
 20
36.6845490664
 30
0.0
 11
273.5098914013
 21
36.6845490664
 31
0.0
  0
LINE
  5
237
330
231
100
AcDbEntity
  8
DV3_Default
  6
Continuous
 62
     7
 48
25.4
100
AcDbLine
 10
273.5098914013
 20
36.6845490664
 30
0.0
 11
273.5098914013
 21
143.7845490664
 31
0.0
  0
TEXT
  5
238
330
231
100
AcDbEntity
  8
DV3_Default
  6
Continuous
 62
     7
 48
25.4
100
AcDbText
 10
271.8698669343
 20
31.0639171415
 30
0.0
 40
3.5
  1
0
  7
SEACAD_arial_ttf
 11
271.8698669343
 21
34.5639171415
 31
0.0
100
AcDbText
 73
     3
  0
TEXT
  5
239
330
231
100
AcDbEntity
  8
DV3_Default
  6
Continuous
 62
     7
 48
25.4
100
AcDbText
 10
314.971277469
 20
31.2268044801
 30
0.0
 40
3.5
  1
1000
  7
SEACAD_arial_ttf
 11
314.971277469
 21
34.7268044801
 31
0.0
100
AcDbText
 73
     3
  0
TEXT
  5
23A
330
231
100
AcDbEntity
  8
DV3_Default
  6
Continuous
 62
     7
 48
25.4
100
AcDbText
 10
338.6266123525
 20
31.0773718312
 30
0.0
 40
3.5
  1
1500
  7
SEACAD_arial_ttf
 11
338.6266123525
 21
34.5773718312
 31
0.0
100
AcDbText
 73
     3
  0
TEXT
  5
23B
330
231
100
AcDbEntity
  8
DV3_Default
  6
Continuous
 62
     7
 48
25.4
100
AcDbText
 10
384.7614048935
 20
31.1080868004
 30
0.0
 40
3.5
  1
2500
  7
SEACAD_arial_ttf
 11
384.7614048935
 21
34.6080868004
 31
0.0
100
AcDbText
 73
     3
  0
TEXT
  5
23C
330
231
100
AcDbEntity
  8
DV3_Default
  6
Continuous
 62
     7
 48
25.4
100
AcDbText
 10
266.1234898867
 20
65.7416868294
 30
0.0
 40
3.5
  1
20
  7
SEACAD_arial_ttf
 11
266.1234898867
 21
69.2416868294
 31
0.0
100
AcDbText
 73
     3
  0
TEXT
  5
23D
330
231
100
AcDbEntity
  8
DV3_Default
  6
Continuous
 62
     7
 48
25.4
100
AcDbText
 10
266.2074654813
 20
50.1235855883
 30
0.0
 40
3.5
  1
10
  7
SEACAD_arial_ttf
 11
266.2074654813
 21
53.6235855883
 31
0.0
100
AcDbText
 73
     3
  0
TEXT
  5
23E
330
231
100
AcDbEntity
  8
DV3_Default
  6
Continuous
 62
     7
 48
25.4
100
AcDbText
 10
266.2831912634
 20
81.0300058474
 30
0.0
 40
3.5
  1
30
  7
SEACAD_arial_ttf
 11
266.2831912634
 21
84.5300058474
 31
0.0
100
AcDbText
 73
     3
  0
TEXT
  5
23F
330
231
100
AcDbEntity
  8
DV3_Default
  6
Continuous
 62
     7
 48
25.4
100
AcDbText
 10
266.2343769943
 20
111.9793640525
 30
0.0
 40
3.5
  1
50
  7
SEACAD_arial_ttf
 11
266.2343769943
 21
115.4793640525
 31
0.0
100
AcDbText
 73
     3
  0
TEXT
  5
240
330
231
100
AcDbEntity
  8
DV3_Default
  6
Continuous
 62
     7
 48
25.4
100
AcDbText
 10
266.2398329072
 20
96.5261508137
 30
0.0
 40
3.5
  1
40
  7
SEACAD_arial_ttf
 11
266.2398329072
 21
100.0261508137
 31
0.0
100
AcDbText
 73
     3
  0
TEXT
  5
241
330
231
100
AcDbEntity
  8
DV3_Default
  6
Continuous
 62
     7
 48
25.4
100
AcDbText
 10
266.3610509538
 20
127.4015120639
 30
0.0
 40
3.5
  1
60
  7
SEACAD_arial_ttf
 11
266.3610509538
 21
130.9015120639
 31
0.0
100
AcDbText
 73
     3
  0
TEXT
  5
242
330
231
100
AcDbEntity
  8
DV3_Default
  6
Continuous
 62
     7
 48
25.4
100
AcDbText
 10
322.195590756
 20
131.0908849524
 30
0.0
 40
4.2
  1
Input Force
  7
SEACAD_arial_ttf
 11
322.195590756
 21
135.2908849524
 31
0.0
100
AcDbText
 73
     3
  0
TEXT
  5
243
330
231
100
AcDbEntity
  8
DV3_Default
  6
Continuous
 62
     7
 48
25.4
100
AcDbText
 10
330.3785596153
 20
122.3218054814
 30
0.0
 40
3.5
  1
53.8kN
  7
SEACAD_arial_ttf
 11
330.3785596153
 21
125.8218054814
 31
0.0
100
AcDbText
 73
     3
  0
TEXT
  5
244
330
231
100
AcDbEntity
  8
DV3_Default
  6
Continuous
 62
     7
 48
25.4
100
AcDbText
 10
330.6798531913
 20
106.5321215915
 30
0.0
 40
3.5
  1
45kN
  7
SEACAD_arial_ttf
 11
330.6798531913
 21
110.0321215915
 31
0.0
100
AcDbText
 73
     3
  0
TEXT
  5
245
330
231
100
AcDbEntity
  8
DV3_Default
  6
Continuous
 62
     7
 48
25.4
100
AcDbText
 10
330.4832755041
 20
89.3645523245
 30
0.0
 40
3.5
  1
35kN
  7
SEACAD_arial_ttf
 11
330.4832755041
 21
92.8645523245
 31
0.0
100
AcDbText
 73
     3
  0
TEXT
  5
246
330
231
100
AcDbEntity
  8
DV3_Default
  6
Continuous
 62
     7
 48
25.4
100
AcDbText
 10
330.4855696851
 20
72.8339740398
 30
0.0
 40
3.5
  1
25kN
  7
SEACAD_arial_ttf
 11
330.4855696851
 21
76.3339740398
 31
0.0
100
AcDbText
 73
     3
  0
TEXT
  5
247
330
231
100
AcDbEntity
  8
DV3_Default
  6
Continuous
 62
     7
 48
25.4
100
AcDbText
 10
330.4344976298
 20
54.1231731818
 30
0.0
 40
3.5
  1
15kN
  7
SEACAD_arial_ttf
 11
330.4344976298
 21
57.6231731818
 31
0.0
100
AcDbText
 73
     3
  0
TEXT
  5
248
330
231
100
AcDbEntity
  8
DV3_Default
  6
Continuous
 62
     7
 48
25.4
100
AcDbText
 10
331.0255864788
 20
17.738196888
 30
0.0
 40
4.2
  1
Speed in min-
  7
SEACAD_arial_ttf
 11
331.0255864788
 21
21.938196888
 31
0.0
100
AcDbText
 73
     3
  0
TEXT
  5
249
330
231
100
AcDbEntity
  8
DV3_Default
  6
Continuous
 62
     7
 48
25.4
100
AcDbText
 10
367.4560212614
 20
17.738196888
 30
0.0
 40
3.2102777778
  1
¹
  7
SEACAD_arial_ttf
 11
367.4560212614
 21
20.9484746658
 31
0.0
100
AcDbText
 73
     3
  0
TEXT
  5
24A
330
231
100
AcDbEntity
  8
DV3_Default
  6
Continuous
 62
     7
 48
25.4
100
AcDbText
 10
226.9355786901
 20
88.1043832258
 30
0.0
 40
4.2
  1
Total Gripping 
  7
SEACAD_arial_ttf
 11
226.9355786901
 21
92.3043832258
 31
0.0
100
AcDbText
 73
     3
  0
TEXT
  5
24B
330
231
100
AcDbEntity
  8
DV3_Default
  6
Continuous
 62
     7
 48
25.4
100
AcDbText
 10
226.9355786901
 20
81.5304701823
 30
0.0
 40
4.2
  1
Force in kN
  7
SEACAD_arial_ttf
 11
226.9355786901
 21
85.7304701823
 31
0.0
100
AcDbText
 73
     3
  0
TEXT
  5
24C
330
231
100
AcDbEntity
  8
DV3_Default
  6
Continuous
 62
     7
 48
25.4
100
AcDbText
 10
288.56879929
 20
163.970798389
 30
0.0
 40
4.2
  1
Gripping Characteristic Graph For BL-210A6
  7
SEACAD_arial_ttf
 11
288.56879929
 21
168.170798389
 31
0.0
100
AcDbText
 73
     3
  0
LWPOLYLINE
  5
24D
330
231
100
AcDbEntity
  8
DV3_Default
  6
Continuous
 62
     7
 48
25.4
100
AcDbPolyline
 90
        2
 70
     0
 43
0.0
 10
415.9250013574
 20
42.6758946007
 10
382.9610741457
 20
54.5542914343
  0
HATCH
  5
24E
330
231
100
AcDbEntity
  8
DV3_Default
  6
Continuous
 62
     7
 48
25.4
100
AcDbHatch
 10
0.0
 20
0.0
 30
0.0
210
0.0
220
0.0
230
1.0
  2
SOLID
 70
     1
 71
     0
 91
        1
 92
        1
 93
        3
 72
     1
 10
387.1496712152463
 20
53.78901050300456
 11
382.96107414566
 21
54.55429143432131
 72
     1
 10
382.96107414566
 20
54.55429143432131
 11
386.6750613418686
 21
52.47191312537204
 72
     1
 10
386.6750613418686
 20
52.47191312537204
 11
387.1496712152463
 21
53.78901050300456
 97
        0
 75
     0
 76
     1
 98
        0
  0
LWPOLYLINE
  5
24F
330
231
100
AcDbEntity
  8
DV3_Default
  6
Continuous
 62
     7
 48
25.4
370
    20
100
AcDbPolyline
 90
        4
 70
     1
 43
0.0
 10
387.1496712152
 20
53.789010503
 10
382.9610741457
 20
54.5542914343
 10
386.6750613419
 20
52.4719131254
 10
387.1496712152
 20
53.789010503
  0
LINE
  5
250
330
231
100
AcDbEntity
  8
DV3_Default
  6
Continuous
 62
     7
 48
25.4
100
AcDbLine
 10
415.9250013574
 20
42.6758946007
 30
0.0
 11
468.8815230965
 21
42.6758946007
 31
0.0
  0
TEXT
  5
251
330
231
100
AcDbEntity
  8
DV3_Default
  6
Continuous
 62
     7
 48
25.4
100
AcDbText
 10
415.9250013574
 20
43.7258946007
 30
0.0
 40
4.2
  1
Gripping Force Limit
  7
SEACAD_arial_ttf
 11
415.9250013574
 21
47.9258946007
 31
0.0
100
AcDbText
 73
     3
  0
TEXT
  5
252
330
231
100
AcDbEntity
  8
DV3_Default
  6
Continuous
 62
     7
 48
25.4
100
AcDbText
 10
18.2651095342
 20
145.4533630054
 30
0.0
 40
3.5
  1
SPINDLE NOSE SIZE
  7
SEACAD_arial_ttf
 11
18.2651095342
 21
148.9533630054
 31
0.0
100
AcDbText
 73
     3
  0
TEXT
  5
253
330
231
100
AcDbEntity
  8
DV3_Default
  6
Continuous
 62
     7
 48
25.4
100
AcDbText
 10
123.9502998482
 20
145.4533630054
 30
0.0
 40
3.5
  1
A2-6
  7
SEACAD_arial_ttf
 11
123.9502998482
 21
148.9533630054
 31
0.0
100
AcDbText
 73
     3
  0
TEXT
  5
254
330
231
100
AcDbEntity
  8
DV3_Default
  6
Continuous
 62
     7
 48
25.4
100
AcDbText
 10
18.3857469172
 20
69.9787541511
 30
0.0
 40
3.5
  1
TOTAL GRIPPING FORCE AT MAX. SPEED
  7
SEACAD_arial_ttf
 11
18.3857469172
 21
73.4787541511
 31
0.0
100
AcDbText
 73
     3
  0
TEXT
  5
255
330
231
100
AcDbEntity
  8
DV3_Default
  6
Continuous
 62
     7
 48
25.4
100
AcDbText
 10
123.8124075402
 20
19.6553457312
 30
0.0
 40
3.5
  1
SB10B1
  7
SEACAD_arial_ttf
 11
123.8124075402
 21
23.1553457312
 31
0.0
100
AcDbText
 73
     3
  0
LINE
  5
256
330
231
100
AcDbEntity
  8
DV3_Default
  6
Continuous
 62
     7
 48
25.4
100
AcDbLine
 10
16.4098934619
 20
25.4110476619
 30
0.0
 11
184.4098934619
 21
25.4110476619
 31
0.0
  0
LINE
  5
257
330
231
100
AcDbEntity
  8
DV3_Default
  6
Continuous
 62
     7
 48
25.4
100
AcDbLine
 10
184.4098934619
 20
151.4110476619
 30
0.0
 11
16.4098934619
 21
151.4110476619
 31
0.0
  0
LINE
  5
258
330
231
100
AcDbEntity
  8
DV3_Default
  6
Continuous
 62
     7
 48
25.4
100
AcDbLine
 10
16.4098934619
 20
143.0110476619
 30
0.0
 11
184.4098934619
 21
143.0110476619
 31
0.0
  0
LINE
  5
259
330
231
100
AcDbEntity
  8
DV3_Default
  6
Continuous
 62
     7
 48
25.4
100
AcDbLine
 10
184.4098934619
 20
134.6110476619
 30
0.0
 11
16.4098934619
 21
134.6110476619
 31
0.0
  0
LINE
  5
25A
330
231
100
AcDbEntity
  8
DV3_Default
  6
Continuous
 62
     7
 48
25.4
100
AcDbLine
 10
16.4098934619
 20
126.2110476619
 30
0.0
 11
184.4098934619
 21
126.2110476619
 31
0.0
  0
LINE
  5
25B
330
231
100
AcDbEntity
  8
DV3_Default
  6
Continuous
 62
     7
 48
25.4
100
AcDbLine
 10
184.4098934619
 20
117.8110476619
 30
0.0
 11
16.4098934619
 21
117.8110476619
 31
0.0
  0
LINE
  5
25C
330
231
100
AcDbEntity
  8
DV3_Default
  6
Continuous
 62
     7
 48
25.4
100
AcDbLine
 10
16.4098934619
 20
109.4110476619
 30
0.0
 11
184.4098934619
 21
109.4110476619
 31
0.0
  0
LINE
  5
25D
330
231
100
AcDbEntity
  8
DV3_Default
  6
Continuous
 62
     7
 48
25.4
100
AcDbLine
 10
184.4098934619
 20
101.0110476619
 30
0.0
 11
16.4098934619
 21
101.0110476619
 31
0.0
  0
LINE
  5
25E
330
231
100
AcDbEntity
  8
DV3_Default
  6
Continuous
 62
     7
 48
25.4
100
AcDbLine
 10
16.4098934619
 20
92.6110476619
 30
0.0
 11
184.4098934619
 21
92.6110476619
 31
0.0
  0
LINE
  5
25F
330
231
100
AcDbEntity
  8
DV3_Default
  6
Continuous
 62
     7
 48
25.4
100
AcDbLine
 10
184.4098934619
 20
84.2110476619
 30
0.0
 11
16.4098934619
 21
84.2110476619
 31
0.0
  0
LINE
  5
260
330
231
100
AcDbEntity
  8
DV3_Default
  6
Continuous
 62
     7
 48
25.4
100
AcDbLine
 10
16.4098934619
 20
75.8110476619
 30
0.0
 11
184.4098934619
 21
75.8110476619
 31
0.0
  0
LINE
  5
261
330
231
100
AcDbEntity
  8
DV3_Default
  6
Continuous
 62
     7
 48
25.4
100
AcDbLine
 10
184.4098934619
 20
67.4110476619
 30
0.0
 11
16.4098934619
 21
67.4110476619
 31
0.0
  0
LINE
  5
262
330
231
100
AcDbEntity
  8
DV3_Default
  6
Continuous
 62
     7
 48
25.4
100
AcDbLine
 10
16.4098934619
 20
59.0110476619
 30
0.0
 11
184.4098934619
 21
59.0110476619
 31
0.0
  0
LINE
  5
263
330
231
100
AcDbEntity
  8
DV3_Default
  6
Continuous
 62
     7
 48
25.4
100
AcDbLine
 10
184.4098934619
 20
50.6110476619
 30
0.0
 11
16.4098934619
 21
50.6110476619
 31
0.0
  0
LINE
  5
264
330
231
100
AcDbEntity
  8
DV3_Default
  6
Continuous
 62
     7
 48
25.4
100
AcDbLine
 10
16.4098934619
 20
42.2110476619
 30
0.0
 11
184.4098934619
 21
42.2110476619
 31
0.0
  0
LINE
  5
265
330
231
100
AcDbEntity
  8
DV3_Default
  6
Continuous
 62
     7
 48
25.4
100
AcDbLine
 10
184.4098934619
 20
33.8110476619
 30
0.0
 11
16.4098934619
 21
33.8110476619
 31
0.0
  0
TEXT
  5
266
330
231
100
AcDbEntity
  8
DV3_Default
  6
Continuous
 62
     7
 48
25.4
100
AcDbText
 10
72.1585217375
 20
165.1250692086
 30
0.0
 40
4.2
  1
Specifications
  7
SEACAD_arial_ttf
 11
72.1585217375
 21
169.3250692086
 31
0.0
100
AcDbText
 73
     3
  0
TEXT
  5
267
330
231
100
AcDbEntity
  8
DV3_Default
  6
Continuous
 62
     7
 48
25.4
100
AcDbText
 10
18.5684025967
 20
137.256262378
 30
0.0
 40
3.5
  1
THROUGH HOLE
  7
SEACAD_arial_ttf
 11
18.5684025967
 21
140.756262378
 31
0.0
100
AcDbText
 73
     3
  0
TEXT
  5
268
330
231
100
AcDbEntity
  8
DV3_Default
  6
Continuous
 62
     7
 48
25.4
100
AcDbText
 10
123.7485927126
 20
136.8026833561
 30
0.0
 40
3.5
  1
53mm
  7
SEACAD_arial_ttf
 11
123.7485927126
 21
140.3026833561
 31
0.0
100
AcDbText
 73
     3
  0
TEXT
  5
269
330
231
100
AcDbEntity
  8
DV3_Default
  6
Continuous
 62
     7
 48
25.4
100
AcDbText
 10
18.0735226751
 20
128.5795171821
 30
0.0
 40
3.5
  1
MAX. GRIPPING RANGE
  7
SEACAD_arial_ttf
 11
18.0735226751
 21
132.0795171821
 31
0.0
100
AcDbText
 73
     3
  0
TEXT
  5
26A
330
231
100
AcDbEntity
  8
DV3_Default
  6
Continuous
 62
     7
 48
25.4
100
AcDbText
 10
18.1508516519
 20
120.0806413975
 30
0.0
 40
3.5
  1
MIN. GRIPPING RANGE
  7
SEACAD_arial_ttf
 11
18.1508516519
 21
123.5806413975
 31
0.0
100
AcDbText
 73
     3
  0
TEXT
  5
26B
330
231
100
AcDbEntity
  8
DV3_Default
  6
Continuous
 62
     7
 48
25.4
100
AcDbText
 10
18.3364156665
 20
111.8446586042
 30
0.0
 40
3.5
  1
JAW STROKE
  7
SEACAD_arial_ttf
 11
18.3364156665
 21
115.3446586042
 31
0.0
100
AcDbText
 73
     3
  0
TEXT
  5
26C
330
231
100
AcDbEntity
  8
DV3_Default
  6
Continuous
 62
     7
 48
25.4
100
AcDbText
 10
18.1740631097
 20
103.5468636888
 30
0.0
 40
3.5
  1
PLUNGER STROKE
  7
SEACAD_arial_ttf
 11
18.1740631097
 21
107.0468636888
 31
0.0
100
AcDbText
 73
     3
  0
TEXT
  5
26D
330
231
100
AcDbEntity
  8
DV3_Default
  6
Continuous
 62
     7
 48
25.4
100
AcDbText
 10
18.096734133
 20
95.1485283388
 30
0.0
 40
3.5
  1
MAX. DRAW BAR PULL FORCE
  7
SEACAD_arial_ttf
 11
18.096734133
 21
98.6485283388
 31
0.0
100
AcDbText
 73
     3
  0
TEXT
  5
26E
330
231
100
AcDbEntity
  8
DV3_Default
  6
Continuous
 62
     7
 48
25.4
100
AcDbText
 10
18.1508516519
 20
86.5955350353
 30
0.0
 40
3.5
  1
MAX. GRIPPING FORCE
  7
SEACAD_arial_ttf
 11
18.1508516519
 21
90.0955350353
 31
0.0
100
AcDbText
 73
     3
  0
TEXT
  5
26F
330
231
100
AcDbEntity
  8
DV3_Default
  6
Continuous
 62
     7
 48
25.4
100
AcDbText
 10
18.0735226751
 20
78.328646181
 30
0.0
 40
3.5
  1
MAX. SPEED
  7
SEACAD_arial_ttf
 11
18.0735226751
 21
81.828646181
 31
0.0
100
AcDbText
 73
     3
  0
TEXT
  5
270
330
231
100
AcDbEntity
  8
DV3_Default
  6
Continuous
 62
     7
 48
25.4
100
AcDbText
 10
18.1817577129
 20
61.3308946118
 30
0.0
 40
3.5
  1
NET WEIGHT WITH SOFT TOP JAWS
  7
SEACAD_arial_ttf
 11
18.1817577129
 21
64.8308946118
 31
0.0
100
AcDbText
 73
     3
  0
TEXT
  5
271
330
231
100
AcDbEntity
  8
DV3_Default
  6
Continuous
 62
     7
 48
25.4
100
AcDbText
 10
18.1817577129
 20
52.6541494158
 30
0.0
 40
3.5
  1
MOMENT OF INERTIA
  7
SEACAD_arial_ttf
 11
18.1817577129
 21
56.1541494158
 31
0.0
100
AcDbText
 73
     3
  0
TEXT
  5
272
330
231
100
AcDbEntity
  8
DV3_Default
  6
Continuous
 62
     7
 48
25.4
100
AcDbText
 10
18.1585462551
 20
44.8203283609
 30
0.0
 40
3.5
  1
MATCHING CYLINDER
  7
SEACAD_arial_ttf
 11
18.1585462551
 21
48.3203283609
 31
0.0
100
AcDbText
 73
     3
  0
TEXT
  5
273
330
231
100
AcDbEntity
  8
DV3_Default
  6
Continuous
 62
     7
 48
25.4
100
AcDbText
 10
18.0812172783
 20
36.1203717071
 30
0.0
 40
3.5
  1
MAX. PRESSURE
  7
SEACAD_arial_ttf
 11
18.0812172783
 21
39.6203717071
 31
0.0
100
AcDbText
 73
     3
  0
TEXT
  5
274
330
231
100
AcDbEntity
  8
DV3_Default
  6
Continuous
 62
     7
 48
25.4
100
AcDbText
 10
18.0580058205
 20
28.1318926988
 30
0.0
 40
3.5
  1
MATCHING HARD TOP JAW
  7
SEACAD_arial_ttf
 11
18.0580058205
 21
31.6318926988
 31
0.0
100
AcDbText
 73
     3
  0
TEXT
  5
275
330
231
100
AcDbEntity
  8
DV3_Default
  6
Continuous
 62
     7
 48
25.4
100
AcDbText
 10
18.0580058205
 20
19.4242414417
 30
0.0
 40
3.5
  1
MATCHING SOFT TOP JAW
  7
SEACAD_arial_ttf
 11
18.0580058205
 21
22.9242414417
 31
0.0
100
AcDbText
 73
     3
  0
LINE
  5
276
330
231
100
AcDbEntity
  8
DV3_Default
  6
Continuous
 62
     7
 48
25.4
100
AcDbLine
 10
16.4098934619
 20
17.0110476619
 30
0.0
 11
184.4098934619
 21
17.0110476619
 31
0.0
  0
LINE
  5
277
330
231
100
AcDbEntity
  8
DV3_Default
  6
Continuous
 62
     7
 48
25.4
100
AcDbLine
 10
121.281906512
 20
151.4110476619
 30
0.0
 11
121.281906512
 21
17.0110476619
 31
0.0
  0
LINE
  5
278
330
231
100
AcDbEntity
  8
DV3_Default
  6
Continuous
 62
     7
 48
25.4
100
AcDbLine
 10
16.4098934619
 20
151.4110476619
 30
0.0
 11
16.4098934619
 21
17.0110476619
 31
0.0
  0
LINE
  5
279
330
231
100
AcDbEntity
  8
DV3_Default
  6
Continuous
 62
     7
 48
25.4
100
AcDbLine
 10
184.4098934619
 20
151.4110476619
 30
0.0
 11
184.4098934619
 21
17.0110476619
 31
0.0
  0
TEXT
  5
27A
330
231
100
AcDbEntity
  8
DV3_Default
  6
Continuous
 62
     7
 48
25.4
100
AcDbText
 10
123.787674881
 20
128.7573020316
 30
0.0
 40
3.5
  1
254mm
  7
SEACAD_arial_ttf
 11
123.787674881
 21
132.2573020316
 31
0.0
100
AcDbText
 73
     3
  0
TEXT
  5
27B
330
231
100
AcDbEntity
  8
DV3_Default
  6
Continuous
 62
     7
 48
25.4
100
AcDbText
 10
123.8836187034
 20
120.4286526043
 30
0.0
 40
3.5
  1
42mm
  7
SEACAD_arial_ttf
 11
123.8836187034
 21
123.9286526043
 31
0.0
100
AcDbText
 73
     3
  0
TEXT
  5
27C
330
231
100
AcDbEntity
  8
DV3_Default
  6
Continuous
 62
     7
 48
25.4
100
AcDbText
 10
123.7553194642
 20
111.8573297049
 30
0.0
 40
3.5
  1
30mm
  7
SEACAD_arial_ttf
 11
123.7553194642
 21
115.3573297049
 31
0.0
100
AcDbText
 73
     3
  0
TEXT
  5
27D
330
231
100
AcDbEntity
  8
DV3_Default
  6
Continuous
 62
     7
 48
25.4
100
AcDbText
 10
123.7894618043
 20
103.4656661804
 30
0.0
 40
3.5
  1
22mm
  7
SEACAD_arial_ttf
 11
123.7894618043
 21
106.9656661804
 31
0.0
100
AcDbText
 73
     3
  0
TEXT
  5
27E
330
231
100
AcDbEntity
  8
DV3_Default
  6
Continuous
 62
     7
 48
25.4
100
AcDbText
 10
123.7148993567
 20
94.9020134944
 30
0.0
 40
3.5
  1
53.8kN
  7
SEACAD_arial_ttf
 11
123.7148993567
 21
98.4020134944
 31
0.0
100
AcDbText
 73
     3
  0
TEXT
  5
27F
330
231
100
AcDbEntity
  8
DV3_Default
  6
Continuous
 62
     7
 48
25.4
100
AcDbText
 10
123.85420534
 20
86.6182917558
 30
0.0
 40
3.5
  1
63.0kN
  7
SEACAD_arial_ttf
 11
123.85420534
 21
90.1182917558
 31
0.0
100
AcDbText
 73
     3
  0
TEXT
  5
280
330
231
100
AcDbEntity
  8
DV3_Default
  6
Continuous
 62
     7
 48
25.4
100
AcDbText
 10
123.7666648492
 20
78.2175654257
 30
0.0
 40
3.5
  1
3000min-
  7
SEACAD_arial_ttf
 11
123.7666648492
 21
81.7175654257
 31
0.0
100
AcDbText
 73
     3
  0
TEXT
  5
281
330
231
100
AcDbEntity
  8
DV3_Default
  6
Continuous
 62
     7
 48
25.4
100
AcDbText
 10
144.3101431101
 20
78.2175654257
 30
0.0
 40
3.2102777778
  1
¹
  7
SEACAD_arial_ttf
 11
144.3101431101
 21
81.4278432035
 31
0.0
100
AcDbText
 73
     3
  0
TEXT
  5
282
330
231
100
AcDbEntity
  8
DV3_Default
  6
Continuous
 62
     7
 48
25.4
100
AcDbText
 10
123.7324401846
 20
69.9065644723
 30
0.0
 40
3.5
  1
21kN
  7
SEACAD_arial_ttf
 11
123.7324401846
 21
73.4065644723
 31
0.0
100
AcDbText
 73
     3
  0
TEXT
  5
283
330
231
100
AcDbEntity
  8
DV3_Default
  6
Continuous
 62
     7
 48
25.4
100
AcDbText
 10
123.7743166888
 20
61.531188276
 30
0.0
 40
3.5
  1
50.5kg
  7
SEACAD_arial_ttf
 11
123.7743166888
 21
65.031188276
 31
0.0
100
AcDbText
 73
     3
  0
TEXT
  5
284
330
231
100
AcDbEntity
  8
DV3_Default
  6
Continuous
 62
     7
 48
25.4
100
AcDbText
 10
123.7795033523
 20
52.9344347632
 30
0.0
 40
3.5
  1
0.351kg.m
  7
SEACAD_arial_ttf
 11
123.7795033523
 21
56.4344347632
 31
0.0
100
AcDbText
 73
     3
  0
TEXT
  5
285
330
231
100
AcDbEntity
  8
DV3_Default
  6
Continuous
 62
     7
 48
25.4
100
AcDbText
 10
146.9099381349
 20
52.9344347632
 30
0.0
 40
3.2102777778
  1
²
  7
SEACAD_arial_ttf
 11
146.9099381349
 21
56.144712541
 31
0.0
100
AcDbText
 73
     3
  0
TEXT
  5
286
330
231
100
AcDbEntity
  8
DV3_Default
  6
Continuous
 62
     7
 48
25.4
100
AcDbText
 10
123.7460258638
 20
44.9326657147
 30
0.0
 40
3.5
  1
S1875
  7
SEACAD_arial_ttf
 11
123.7460258638
 21
48.4326657147
 31
0.0
100
AcDbText
 73
     3
  0
TEXT
  5
287
330
231
100
AcDbEntity
  8
DV3_Default
  6
Continuous
 62
     7
 48
25.4
100
AcDbText
 10
123.7418543743
 20
35.9571183907
 30
0.0
 40
3.5
  1
3.20MPa
  7
SEACAD_arial_ttf
 11
123.7418543743
 21
39.4571183907
 31
0.0
100
AcDbText
 73
     3
  0
TEXT
  5
288
330
231
100
AcDbEntity
  8
DV3_Default
  6
Continuous
 62
     7
 48
25.4
100
AcDbText
 10
123.5397278856
 20
27.9124576639
 30
0.0
 40
3.5
  1
HB10A1
  7
SEACAD_arial_ttf
 11
123.5397278856
 21
31.4124576639
 31
0.0
100
AcDbText
 73
     3
  0
LINE
  5
289
330
231
100
AcDbEntity
  8
DV3_Default
  6
CENTER2
 62
     7
 48
25.4
100
AcDbLine
 10
201.9568745419
 20
141.6548621134
 30
0.0
 11
226.0522617523
 21
141.6548621134
 31
0.0
  0
LINE
  5
28A
330
231
100
AcDbEntity
  8
DV3_Default
  6
Continuous
 62
     7
 48
25.4
100
AcDbLine
 10
223.0843173607
 20
141.6548621134
 30
0.0
 11
223.0843173607
 21
147.2548621134
 31
0.0
  0
LINE
  5
28B
330
231
100
AcDbEntity
  8
DV3_Default
  6
Continuous
 62
     7
 48
25.4
100
AcDbLine
 10
223.0804089541
 20
141.6548621134
 30
0.0
 11
213.9804089541
 21
141.6548621134
 31
0.0
  0
LINE
  5
28C
330
231
100
AcDbEntity
  8
DV3_Default
  6
Continuous
 62
     7
 48
25.4
100
AcDbLine
 10
213.9843173607
 20
147.2548621134
 30
0.0
 11
213.9843173607
 21
149.5301999861
 31
0.0
  0
LINE
  5
28D
330
231
100
AcDbEntity
  8
DV3_Default
  6
Continuous
 62
     7
 48
25.4
100
AcDbLine
 10
208.0343173607
 20
141.6551999861
 30
0.0
 11
208.0343173607
 21
147.7801999861
 31
0.0
  0
LINE
  5
28E
330
231
100
AcDbEntity
  8
DV3_Default
  6
Continuous
 62
     7
 48
25.4
100
AcDbLine
 10
209.7843173607
 20
149.5301999861
 30
0.0
 11
213.9843173607
 21
149.5301999861
 31
0.0
  0
LINE
  5
28F
330
231
100
AcDbEntity
  8
DV3_Default
  6
Continuous
 62
     7
 48
25.4
100
AcDbLine
 10
208.0343173607
 20
147.7801999861
 30
0.0
 11
209.7843173607
 21
149.5301999861
 31
0.0
  0
LINE
  5
290
330
231
100
AcDbEntity
  8
DV3_Default
  6
Continuous
 62
     7
 48
25.4
100
AcDbLine
 10
213.9843173607
 20
149.5301999861
 30
0.0
 11
213.6812084694
 21
149.8333088774
 31
0.0
  0
LINE
  5
291
330
231
100
AcDbEntity
  8
DV3_Default
  6
Continuous
 62
     7
 48
25.4
100
AcDbLine
 10
223.0804089541
 20
141.6548621134
 30
0.0
 11
220.9804089541
 21
141.6548621134
 31
0.0
  0
LINE
  5
292
330
231
100
AcDbEntity
  8
DV3_Default
  6
Continuous
 62
     7
 48
25.4
100
AcDbLine
 10
220.9804089541
 20
147.2548621134
 30
0.0
 11
220.9804089541
 21
154.9548621134
 31
0.0
  0
LINE
  5
293
330
231
100
AcDbEntity
  8
DV3_Default
  6
Continuous
 62
     7
 48
25.4
100
AcDbLine
 10
219.5804089541
 20
156.3548621134
 30
0.0
 11
209.0804089541
 21
156.3548621134
 31
0.0
  0
LINE
  5
294
330
231
100
AcDbEntity
  8
DV3_Default
  6
Continuous
 62
     7
 48
25.4
100
AcDbLine
 10
213.9843173607
 20
147.2548621134
 30
0.0
 11
223.0843173607
 21
147.2548621134
 31
0.0
  0
LINE
  5
295
330
231
100
AcDbEntity
  8
DV3_Default
  6
Continuous
 62
     7
 48
25.4
100
AcDbLine
 10
220.9804089541
 20
154.9548621134
 30
0.0
 11
219.5804089541
 21
156.3548621134
 31
0.0
  0
LINE
  5
296
330
231
100
AcDbEntity
  8
DV3_Default
  6
Continuous
 62
     7
 48
25.4
100
AcDbLine
 10
219.5804089541
 20
156.3548621134
 30
0.0
 11
219.5804089541
 21
167.5548621134
 31
0.0
  0
LINE
  5
297
330
231
100
AcDbEntity
  8
DV3_Default
  6
Continuous
 62
     7
 48
25.4
100
AcDbLine
 10
213.6812084694
 20
149.8333088774
 30
0.0
 11
209.4812084694
 21
149.8333088774
 31
0.0
  0
LINE
  5
298
330
231
100
AcDbEntity
  8
DV3_Default
  6
Continuous
 62
     7
 48
25.4
100
AcDbLine
 10
209.4812084694
 20
149.8333088774
 30
0.0
 11
207.6730657192
 21
148.0251661273
 31
0.0
  0
LINE
  5
299
330
231
100
AcDbEntity
  8
DV3_Default
  6
Continuous
 62
     7
 48
25.4
100
AcDbLine
 10
207.6730657192
 20
148.0251661273
 30
0.0
 11
207.6730657192
 21
141.6548621134
 31
0.0
  0
LINE
  5
29A
330
231
100
AcDbEntity
  8
DV3_Default
  6
Continuous
 62
     7
 48
25.4
100
AcDbLine
 10
223.0843173607
 20
141.6548621134
 30
0.0
 11
223.0843173607
 21
136.0548621134
 31
0.0
  0
LINE
  5
29B
330
231
100
AcDbEntity
  8
DV3_Default
  6
Continuous
 62
     7
 48
25.4
100
AcDbLine
 10
223.0804089541
 20
141.6548621134
 30
0.0
 11
213.9804089541
 21
141.6548621134
 31
0.0
  0
LINE
  5
29C
330
231
100
AcDbEntity
  8
DV3_Default
  6
Continuous
 62
     7
 48
25.4
100
AcDbLine
 10
213.9843173607
 20
136.0548621134
 30
0.0
 11
213.9843173607
 21
133.7795242406
 31
0.0
  0
LINE
  5
29D
330
231
100
AcDbEntity
  8
DV3_Default
  6
Continuous
 62
     7
 48
25.4
100
AcDbLine
 10
208.0343173607
 20
141.6545242406
 30
0.0
 11
208.0343173607
 21
135.5295242406
 31
0.0
  0
LINE
  5
29E
330
231
100
AcDbEntity
  8
DV3_Default
  6
Continuous
 62
     7
 48
25.4
100
AcDbLine
 10
209.7843173607
 20
133.7795242406
 30
0.0
 11
213.9843173607
 21
133.7795242406
 31
0.0
  0
LINE
  5
29F
330
231
100
AcDbEntity
  8
DV3_Default
  6
Continuous
 62
     7
 48
25.4
100
AcDbLine
 10
208.0343173607
 20
135.5295242406
 30
0.0
 11
209.7843173607
 21
133.7795242406
 31
0.0
  0
LINE
  5
2A0
330
231
100
AcDbEntity
  8
DV3_Default
  6
Continuous
 62
     7
 48
25.4
100
AcDbLine
 10
213.9843173607
 20
133.7795242406
 30
0.0
 11
213.6812084694
 21
133.4764153493
 31
0.0
  0
LINE
  5
2A1
330
231
100
AcDbEntity
  8
DV3_Default
  6
Continuous
 62
     7
 48
25.4
100
AcDbLine
 10
223.0804089541
 20
141.6548621134
 30
0.0
 11
220.9804089541
 21
141.6548621134
 31
0.0
  0
LINE
  5
2A2
330
231
100
AcDbEntity
  8
DV3_Default
  6
Continuous
 62
     7
 48
25.4
100
AcDbLine
 10
220.9804089541
 20
136.0548621134
 30
0.0
 11
220.9804089541
 21
128.3548621134
 31
0.0
  0
LINE
  5
2A3
330
231
100
AcDbEntity
  8
DV3_Default
  6
Continuous
 62
     7
 48
25.4
100
AcDbLine
 10
219.5804089541
 20
126.9548621134
 30
0.0
 11
209.0804089541
 21
126.9548621134
 31
0.0
  0
LINE
  5
2A4
330
231
100
AcDbEntity
  8
DV3_Default
  6
Continuous
 62
     7
 48
25.4
100
AcDbLine
 10
213.9843173607
 20
136.0548621134
 30
0.0
 11
223.0843173607
 21
136.0548621134
 31
0.0
  0
LINE
  5
2A5
330
231
100
AcDbEntity
  8
DV3_Default
  6
Continuous
 62
     7
 48
25.4
100
AcDbLine
 10
220.9804089541
 20
128.3548621134
 30
0.0
 11
219.5804089541
 21
126.9548621134
 31
0.0
  0
LINE
  5
2A6
330
231
100
AcDbEntity
  8
DV3_Default
  6
Continuous
 62
     7
 48
25.4
100
AcDbLine
 10
219.5804089541
 20
126.9548621134
 30
0.0
 11
219.5804089541
 21
115.7548621134
 31
0.0
  0
LINE
  5
2A7
330
231
100
AcDbEntity
  8
DV3_Default
  6
Continuous
 62
     7
 48
25.4
100
AcDbLine
 10
213.6812084694
 20
133.4764153493
 30
0.0
 11
209.4812084694
 21
133.4764153493
 31
0.0
  0
LINE
  5
2A8
330
231
100
AcDbEntity
  8
DV3_Default
  6
Continuous
 62
     7
 48
25.4
100
AcDbLine
 10
209.4812084694
 20
133.4764153493
 30
0.0
 11
207.6730657192
 21
135.2845580995
 31
0.0
  0
LINE
  5
2A9
330
231
100
AcDbEntity
  8
DV3_Default
  6
Continuous
 62
     7
 48
25.4
100
AcDbLine
 10
207.6730657192
 20
135.2845580995
 30
0.0
 11
207.6730657192
 21
141.6548621134
 31
0.0
  0
LINE
  5
2AA
330
231
100
AcDbEntity
  8
DV3_Default
  6
Continuous
 62
     7
 48
25.4
100
AcDbLine
 10
201.9568745419
 20
141.6548621134
 30
0.0
 11
196.9357392307
 21
141.6548621134
 31
0.0
  0
LINE
  5
2AB
330
231
100
AcDbEntity
  8
DV3_Default
  6
Continuous
 62
     7
 48
25.4
100
AcDbLine
 10
296.8198914013
 20
36.6845490664
 30
0.0
 11
296.8198914013
 21
143.7845490664
 31
0.0
  0
LINE
  5
2AC
330
231
100
AcDbEntity
  8
DV3_Default
  6
Continuous
 62
     7
 48
25.4
100
AcDbLine
 10
320.1298914013
 20
143.7845490664
 30
0.0
 11
320.1298914013
 21
36.6845490664
 31
0.0
  0
LINE
  5
2AD
330
231
100
AcDbEntity
  8
DV3_Default
  6
Continuous
 62
     7
 48
25.4
100
AcDbLine
 10
343.4398914013
 20
36.6845490664
 30
0.0
 11
343.4398914013
 21
143.7845490664
 31
0.0
  0
LINE
  5
2AE
330
231
100
AcDbEntity
  8
DV3_Default
  6
Continuous
 62
     7
 48
25.4
100
AcDbLine
 10
366.8198914013
 20
143.7845490664
 30
0.0
 11
366.8198914013
 21
36.6845490664
 31
0.0
  0
LINE
  5
2AF
330
231
100
AcDbEntity
  8
DV3_Default
  6
Continuous
 62
     7
 48
25.4
100
AcDbLine
 10
390.1298914013
 20
36.6845490664
 30
0.0
 11
390.1298914013
 21
143.7845490664
 31
0.0
  0
LINE
  5
2B0
330
231
100
AcDbEntity
  8
DV3_Default
  6
Continuous
 62
     7
 48
25.4
100
AcDbLine
 10
273.5098914013
 20
52.0145490664
 30
0.0
 11
413.5098914013
 21
52.0145490664
 31
0.0
  0
LINE
  5
2B1
330
231
100
AcDbEntity
  8
DV3_Default
  6
Continuous
 62
     7
 48
25.4
100
AcDbLine
 10
413.5098914013
 20
67.3445490664
 30
0.0
 11
273.5098914013
 21
67.3445490664
 31
0.0
  0
LINE
  5
2B2
330
231
100
AcDbEntity
  8
DV3_Default
  6
Continuous
 62
     7
 48
25.4
100
AcDbLine
 10
273.5098914013
 20
82.6745490664
 30
0.0
 11
413.5098914013
 21
82.6745490664
 31
0.0
  0
LINE
  5
2B3
330
231
100
AcDbEntity
  8
DV3_Default
  6
Continuous
 62
     7
 48
25.4
100
AcDbLine
 10
413.5098914013
 20
98.0045490664
 30
0.0
 11
273.5098914013
 21
98.0045490664
 31
0.0
  0
LINE
  5
2B4
330
231
100
AcDbEntity
  8
DV3_Default
  6
Continuous
 62
     7
 48
25.4
100
AcDbLine
 10
273.5098914013
 20
113.3345490664
 30
0.0
 11
413.5098914013
 21
113.3345490664
 31
0.0
  0
LINE
  5
2B5
330
231
100
AcDbEntity
  8
DV3_Default
  6
Continuous
 62
     7
 48
25.4
100
AcDbLine
 10
413.5098914013
 20
128.6645490664
 30
0.0
 11
273.5098914013
 21
128.6645490664
 31
0.0
  0
TEXT
  5
2B6
330
231
100
AcDbEntity
  8
DV3_Default
  6
Continuous
 62
     7
 48
25.4
100
AcDbText
 10
292.7589678072
 20
31.220980734
 30
0.0
 40
3.5
  1
500
  7
SEACAD_arial_ttf
 11
292.7589678072
 21
34.720980734
 31
0.0
100
AcDbText
 73
     3
  0
TEXT
  5
2B7
330
231
100
AcDbEntity
  8
DV3_Default
  6
Continuous
 62
     7
 48
25.4
100
AcDbText
 10
361.6645791137
 20
31.184507317
 30
0.0
 40
3.5
  1
2000
  7
SEACAD_arial_ttf
 11
361.6645791137
 21
34.684507317
 31
0.0
100
AcDbText
 73
     3
  0
TEXT
  5
2B8
330
231
100
AcDbEntity
  8
DV3_Default
  6
Continuous
 62
     7
 48
25.4
100
AcDbText
 10
407.9356258709
 20
31.1080868004
 30
0.0
 40
3.5
  1
3000
  7
SEACAD_arial_ttf
 11
407.9356258709
 21
34.6080868004
 31
0.0
100
AcDbText
 73
     3
  0
TEXT
  5
2B9
330
231
100
AcDbEntity
  8
DV3_Default
  6
Continuous
 62
     7
 48
25.4
100
AcDbText
 10
266.3610509538
 20
142.0950550281
 30
0.0
 40
3.5
  1
70
  7
SEACAD_arial_ttf
 11
266.3610509538
 21
145.5950550281
 31
0.0
100
AcDbText
 73
     3
  0
ARC
  5
2BA
330
231
100
AcDbEntity
  8
DV3_Default
  6
Continuous
 62
     7
 48
25.4
100
AcDbCircle
 10
327.3510699275
 20
210.3539792097
 30
0.0
 40
165.4267671207899
100
AcDbArc
 50
277.2540476812
 51
301.3877797806
  0
ARC
  5
2BB
330
231
100
AcDbEntity
  8
DV3_Default
  6
Continuous
 62
     7
 48
25.4
100
AcDbCircle
 10
259.8267632704
 20
-82.3085174537
 30
0.0
 40
215.7632484847607
100
AcDbArc
 50
44.5795453488
 51
86.3640149509
  0
ARC
  5
2BC
330
231
100
AcDbEntity
  8
DV3_Default
  6
Continuous
 62
     7
 48
25.4
100
AcDbCircle
 10
271.1749623574
 20
-61.1429158184
 30
0.0
 40
177.4923222107167
100
AcDbArc
 50
43.701367589
 51
89.2462466154
  0
ARC
  5
2BD
330
231
100
AcDbEntity
  8
DV3_Default
  6
Continuous
 62
     7
 48
25.4
100
AcDbCircle
 10
261.6809243085
 20
-102.6824925484
 30
0.0
 40
203.1515978099626
100
AcDbArc
 50
51.5599007421
 51
86.6619339496
  0
ARC
  5
2BE
330
231
100
AcDbEntity
  8
DV3_Default
  6
Continuous
 62
     7
 48
25.4
100
AcDbCircle
 10
279.3621585106
 20
-69.7723994987
 30
0.0
 40
150.7019856589591
100
AcDbArc
 50
52.9771817106
 51
92.2255482441
  0
ARC
  5
2BF
330
231
100
AcDbEntity
  8
DV3_Default
  6
Continuous
 62
     7
 48
25.4
100
AcDbCircle
 10
273.442693749
 20
-113.0433839412
 30
0.0
 40
175.9810520448245
100
AcDbArc
 50
64.8476426
 51
89.978121838
  0
ENDBLK
  5
2C1
330
231
100
AcDbEntity
  8
0
100
AcDbBlockEnd
  0
BLOCK
  5
2CD
330
2C2
100
AcDbEntity
  8
0
100
AcDbBlockBegin
  2
GDimGGroup
 70
     0
 71
     0
 10
0.0
 20
0.0
 30
0.0
  3
GDimGGroup
  1

  0
HATCH
  5
2C4
330
2C2
100
AcDbEntity
  8
Default
  6
Continuous
 62
     7
 48
25.4
100
AcDbHatch
 10
0.0
 20
0.0
 30
0.0
210
0.0
220
0.0
230
1.0
  2
SOLID
 70
     1
 71
     0
 91
        1
 92
        1
 93
        3
 72
     1
 10
236.1458122236544
 20
132.0548619233783
 11
235.4791455253228
 21
136.0548621133681
 72
     1
 10
235.4791455253228
 20
136.0548621133681
 11
234.8124788269912
 21
132.0548619233783
 72
     1
 10
234.8124788269912
 20
132.0548619233783
 11
236.1458122236544
 21
132.0548619233783
 97
        0
 75
     0
 76
     1
 98
        0
  0
LWPOLYLINE
  5
2C5
330
2C2
100
AcDbEntity
  8
Default
  6
Continuous
 62
     7
 48
25.4
370
    20
100
AcDbPolyline
 90
        4
 70
     1
 43
0.0
 10
236.1458122237
 20
132.0548619234
 10
235.4791455253
 20
136.0548621134
 10
234.812478827
 20
132.0548619234
 10
236.1458122237
 20
132.0548619234
  0
HATCH
  5
2C6
330
2C2
100
AcDbEntity
  8
Default
  6
Continuous
 62
     7
 48
25.4
100
AcDbHatch
 10
0.0
 20
0.0
 30
0.0
210
0.0
220
0.0
230
1.0
  2
SOLID
 70
     1
 71
     0
 91
        1
 92
        1
 93
        3
 72
     1
 10
236.1458122236544
 20
151.2548623033579
 11
234.8124788269912
 21
151.2548623033579
 72
     1
 10
234.8124788269912
 20
151.2548623033579
 11
235.4791455253228
 21
147.2548621133681
 72
     1
 10
235.4791455253228
 20
147.2548621133681
 11
236.1458122236544
 21
151.2548623033579
 97
        0
 75
     0
 76
     1
 98
        0
  0
LWPOLYLINE
  5
2C7
330
2C2
100
AcDbEntity
  8
Default
  6
Continuous
 62
     7
 48
25.4
370
    20
100
AcDbPolyline
 90
        4
 70
     1
 43
0.0
 10
236.1458122237
 20
151.2548623034
 10
235.4791455253
 20
147.2548621134
 10
234.812478827
 20
151.2548623034
 10
236.1458122237
 20
151.2548623034
  0
LINE
  5
2C8
330
2C2
100
AcDbEntity
  8
Default
  6
Continuous
 62
     7
 48
25.4
100
AcDbLine
 10
223.0843177348
 20
136.0548621134
 30
0.0
 11
237.4791456203
 21
136.0548621134
 31
0.0
  0
LINE
  5
2C9
330
2C2
100
AcDbEntity
  8
Default
  6
Continuous
 62
     7
 48
25.4
100
AcDbLine
 10
223.0843177348
 20
147.2548621134
 30
0.0
 11
237.4791456203
 21
147.2548621134
 31
0.0
  0
LINE
  5
2CA
330
2C2
100
AcDbEntity
  8
Default
  6
Continuous
 62
     7
 48
25.4
100
AcDbLine
 10
235.4791455253
 20
98.9658420996
 30
0.0
 11
235.4791455253
 21
155.2548630253
 31
0.0
  0
TEXT
  5
2CB
330
2C2
100
AcDbEntity
  8
Default
  6
Continuous
 62
     7
 48
25.4
100
AcDbText
 10
234.4791455253
 20
100.3658431012
 30
0.0
 40
4.0
  1
16
 50
90.0
  7
SEACAD_arial_ttf
 11
230.4791455253
 21
100.3658431012
 31
0.0
100
AcDbText
 73
     3
  0
TEXT
  5
2CC
330
2C2
100
AcDbEntity
  8
Default
  6
Continuous
 62
     7
 48
25.4
100
AcDbText
 10
234.4791455253
 20
109.0267126665
 30
0.0
 40
4.0
  1
H8/h8
 50
90.0
  7
SEACAD_arial_ttf
 11
230.4791455253
 21
109.0267126665
 31
0.0
100
AcDbText
 73
     3
  0
ENDBLK
  5
2CE
330
2C2
100
AcDbEntity
  8
0
100
AcDbBlockEnd
  0
BLOCK
  5
2D9
330
2CF
100
AcDbEntity
  8
0
100
AcDbBlockBegin
  2
GDimGGroup1
 70
     0
 71
     0
 10
0.0
 20
0.0
 30
0.0
  3
GDimGGroup1
  1

  0
HATCH
  5
2D1
330
2CF
100
AcDbEntity
  8
Default
  6
Continuous
 62
     7
 48
25.4
100
AcDbHatch
 10
0.0
 20
0.0
 30
0.0
210
0.0
220
0.0
230
1.0
  2
SOLID
 70
     1
 71
     0
 91
        1
 92
        1
 93
        3
 72
     1
 10
248.3501393251736
 20
130.9548623033579
 11
247.0168059285103
 21
130.9548623033579
 72
     1
 10
247.0168059285103
 20
130.9548623033579
 11
247.683472626842
 21
126.9548621133681
 72
     1
 10
247.683472626842
 20
126.9548621133681
 11
248.3501393251736
 21
130.9548623033579
 97
        0
 75
     0
 76
     1
 98
        0
  0
LWPOLYLINE
  5
2D2
330
2CF
100
AcDbEntity
  8
Default
  6
Continuous
 62
     7
 48
25.4
370
    20
100
AcDbPolyline
 90
        4
 70
     1
 43
0.0
 10
248.3501393252
 20
130.9548623034
 10
247.6834726268
 20
126.9548621134
 10
247.0168059285
 20
130.9548623034
 10
248.3501393252
 20
130.9548623034
  0
HATCH
  5
2D3
330
2CF
100
AcDbEntity
  8
Default
  6
Continuous
 62
     7
 48
25.4
100
AcDbHatch
 10
0.0
 20
0.0
 30
0.0
210
0.0
220
0.0
230
1.0
  2
SOLID
 70
     1
 71
     0
 91
        1
 92
        1
 93
        3
 72
     1
 10
248.3501393251736
 20
152.3548622720655
 11
247.683472626842
 21
156.3548624620553
 72
     1
 10
247.683472626842
 20
156.3548624620553
 11
247.0168059285103
 21
152.3548622720655
 72
     1
 10
247.0168059285103
 20
152.3548622720655
 11
248.3501393251736
 21
152.3548622720655
 97
        0
 75
     0
 76
     1
 98
        0
  0
LWPOLYLINE
  5
2D4
330
2CF
100
AcDbEntity
  8
Default
  6
Continuous
 62
     7
 48
25.4
370
    20
100
AcDbPolyline
 90
        4
 70
     1
 43
0.0
 10
248.3501393252
 20
152.3548622721
 10
247.6834726268
 20
156.3548624621
 10
247.0168059285
 20
152.3548622721
 10
248.3501393252
 20
152.3548622721
  0
LINE
  5
2D5
330
2CF
100
AcDbEntity
  8
Default
  6
Continuous
 62
     7
 48
25.4
100
AcDbLine
 10
219.5804088125
 20
126.9548621134
 30
0.0
 11
249.6834727218
 21
126.9548621134
 31
0.0
  0
LINE
  5
2D6
330
2CF
100
AcDbEntity
  8
Default
  6
Continuous
 62
     7
 48
25.4
100
AcDbLine
 10
219.5804089541
 20
156.3548621134
 30
0.0
 11
249.6834727218
 21
156.3548621134
 31
0.0
  0
LINE
  5
2D7
330
2CF
100
AcDbEntity
  8
Default
  6
Continuous
 62
     7
 48
25.4
100
AcDbLine
 10
247.6834726268
 20
126.9548621134
 30
0.0
 11
247.6834726268
 21
156.3548624621
 31
0.0
  0
TEXT
  5
2D8
330
2CF
100
AcDbEntity
  8
Default
  6
Continuous
 62
     7
 48
25.4
100
AcDbText
 10
246.6834726268
 20
138.5244275051
 30
0.0
 40
4.0
  1
42
 50
90.0
  7
SEACAD_arial_ttf
 11
242.6834726268
 21
138.5244275051
 31
0.0
100
AcDbText
 73
     3
  0
ENDBLK
  5
2DA
330
2CF
100
AcDbEntity
  8
0
100
AcDbBlockEnd
  0
BLOCK
  5
2E5
330
2DB
100
AcDbEntity
  8
0
100
AcDbBlockBegin
  2
GDimGGroup2
 70
     0
 71
     0
 10
0.0
 20
0.0
 30
0.0
  3
GDimGGroup2
  1

  0
HATCH
  5
2DD
330
2DB
100
AcDbEntity
  8
Default
  6
Continuous
 62
     7
 48
25.4
100
AcDbHatch
 10
0.0
 20
0.0
 30
0.0
210
0.0
220
0.0
230
1.0
  2
SOLID
 70
     1
 71
     0
 91
        1
 92
        1
 93
        3
 72
     1
 10
227.0843175507351
 20
170.0172926678723
 11
223.0843173607453
 21
169.3506259695407
 72
     1
 10
223.0843173607453
 20
169.3506259695407
 11
227.0843175507351
 21
168.6839592712091
 72
     1
 10
227.0843175507351
 20
168.6839592712091
 11
227.0843175507351
 21
170.0172926678723
 97
        0
 75
     0
 76
     1
 98
        0
  0
LWPOLYLINE
  5
2DE
330
2DB
100
AcDbEntity
  8
Default
  6
Continuous
 62
     7
 48
25.4
370
    20
100
AcDbPolyline
 90
        4
 70
     1
 43
0.0
 10
227.0843175507
 20
170.0172926679
 10
223.0843173607
 20
169.3506259695
 10
227.0843175507
 20
168.6839592712
 10
227.0843175507
 20
170.0172926679
  0
HATCH
  5
2DF
330
2DB
100
AcDbEntity
  8
Default
  6
Continuous
 62
     7
 48
25.4
100
AcDbHatch
 10
0.0
 20
0.0
 30
0.0
210
0.0
220
0.0
230
1.0
  2
SOLID
 70
     1
 71
     0
 91
        1
 92
        1
 93
        3
 72
     1
 10
216.9804087640711
 20
170.0172926678723
 11
216.9804087640711
 21
168.6839592712091
 72
     1
 10
216.9804087640711
 20
168.6839592712091
 11
220.980408954061
 21
169.3506259695407
 72
     1
 10
220.980408954061
 20
169.3506259695407
 11
216.9804087640711
 21
170.0172926678723
 97
        0
 75
     0
 76
     1
 98
        0
  0
LWPOLYLINE
  5
2E0
330
2DB
100
AcDbEntity
  8
Default
  6
Continuous
 62
     7
 48
25.4
370
    20
100
AcDbPolyline
 90
        4
 70
     1
 43
0.0
 10
216.9804087641
 20
170.0172926679
 10
220.9804089541
 20
169.3506259695
 10
216.9804087641
 20
168.6839592712
 10
216.9804087641
 20
170.0172926679
  0
LINE
  5
2E1
330
2DB
100
AcDbEntity
  8
Default
  6
Continuous
 62
     7
 48
25.4
100
AcDbLine
 10
223.0843173607
 20
141.6548621134
 30
0.0
 11
223.0843173607
 21
171.3506260645
 31
0.0
  0
LINE
  5
2E2
330
2DB
100
AcDbEntity
  8
Default
  6
Continuous
 62
     7
 48
25.4
100
AcDbLine
 10
220.9804089541
 20
154.9548621134
 30
0.0
 11
220.9804089541
 21
171.3506260645
 31
0.0
  0
LINE
  5
2E3
330
2DB
100
AcDbEntity
  8
Default
  6
Continuous
 62
     7
 48
25.4
100
AcDbLine
 10
235.2542056038
 20
169.3506259695
 30
0.0
 11
212.9804089933
 21
169.3506259695
 31
0.0
  0
TEXT
  5
2E4
330
2DB
100
AcDbEntity
  8
Default
  6
Continuous
 62
     7
 48
25.4
100
AcDbText
 10
230.7237706914
 20
170.3506259695
 30
0.0
 40
4.0
  1
3
  7
SEACAD_arial_ttf
 11
230.7237706914
 21
174.3506259695
 31
0.0
100
AcDbText
 73
     3
  0
ENDBLK
  5
2E6
330
2DB
100
AcDbEntity
  8
0
100
AcDbBlockEnd
  0
BLOCK
  5
2F1
330
2E7
100
AcDbEntity
  8
0
100
AcDbBlockBegin
  2
GDimGGroup3
 70
     0
 71
     0
 10
0.0
 20
0.0
 30
0.0
  3
GDimGGroup3
  1

  0
HATCH
  5
2E9
330
2E7
100
AcDbEntity
  8
Default
  6
Continuous
 62
     7
 48
25.4
100
AcDbHatch
 10
0.0
 20
0.0
 30
0.0
210
0.0
220
0.0
230
1.0
  2
SOLID
 70
     1
 71
     0
 91
        1
 92
        1
 93
        3
 72
     1
 10
224.9804091440508
 20
170.0172929092711
 11
220.980408954061
 21
169.3506262109395
 72
     1
 10
220.980408954061
 20
169.3506262109395
 11
224.9804091440508
 21
168.6839595126079
 72
     1
 10
224.9804091440508
 20
168.6839595126079
 11
224.9804091440508
 21
170.0172929092711
 97
        0
 75
     0
 76
     1
 98
        0
  0
LWPOLYLINE
  5
2EA
330
2E7
100
AcDbEntity
  8
Default
  6
Continuous
 62
     7
 48
25.4
370
    20
100
AcDbPolyline
 90
        4
 70
     1
 43
0.0
 10
224.9804091441
 20
170.0172929093
 10
220.9804089541
 20
169.3506262109
 10
224.9804091441
 20
168.6839595126
 10
224.9804091441
 20
170.0172929093
  0
HATCH
  5
2EB
330
2E7
100
AcDbEntity
  8
Default
  6
Continuous
 62
     7
 48
25.4
100
AcDbHatch
 10
0.0
 20
0.0
 30
0.0
210
0.0
220
0.0
230
1.0
  2
SOLID
 70
     1
 71
     0
 91
        1
 92
        1
 93
        3
 72
     1
 10
215.5804087640711
 20
170.0172929092711
 11
215.5804087640711
 21
168.6839595126079
 72
     1
 10
215.5804087640711
 20
168.6839595126079
 11
219.5804089540609
 21
169.3506262109395
 72
     1
 10
219.5804089540609
 20
169.3506262109395
 11
215.5804087640711
 21
170.0172929092711
 97
        0
 75
     0
 76
     1
 98
        0
  0
LWPOLYLINE
  5
2EC
330
2E7
100
AcDbEntity
  8
Default
  6
Continuous
 62
     7
 48
25.4
370
    20
100
AcDbPolyline
 90
        4
 70
     1
 43
0.0
 10
215.5804087641
 20
170.0172929093
 10
219.5804089541
 20
169.3506262109
 10
215.5804087641
 20
168.6839595126
 10
215.5804087641
 20
170.0172929093
  0
LINE
  5
2ED
330
2E7
100
AcDbEntity
  8
Default
  6
Continuous
 62
     7
 48
25.4
100
AcDbLine
 10
220.9804089541
 20
154.9548621134
 30
0.0
 11
220.9804089541
 21
171.3506263059
 31
0.0
  0
LINE
  5
2EE
330
2E7
100
AcDbEntity
  8
Default
  6
Continuous
 62
     7
 48
25.4
100
AcDbLine
 10
219.5804089541
 20
167.5548621134
 30
0.0
 11
219.5804089541
 21
171.3506263059
 31
0.0
  0
LINE
  5
2EF
330
2E7
100
AcDbEntity
  8
Default
  6
Continuous
 62
     7
 48
25.4
100
AcDbLine
 10
228.980409334
 20
169.3506262109
 30
0.0
 11
210.0271148408
 21
169.3506262109
 31
0.0
  0
TEXT
  5
2F0
330
2E7
100
AcDbEntity
  8
Default
  6
Continuous
 62
     7
 48
25.4
100
AcDbText
 10
211.4271149706
 20
170.3506262109
 30
0.0
 40
4.0
  1
2
  7
SEACAD_arial_ttf
 11
211.4271149706
 21
174.3506262109
 31
0.0
100
AcDbText
 73
     3
  0
ENDBLK
  5
2F2
330
2E7
100
AcDbEntity
  8
0
100
AcDbBlockEnd
  0
BLOCK
  5
300
330
2F3
100
AcDbEntity
  8
0
100
AcDbBlockBegin
  2
GDimGGroup4
 70
     0
 71
     0
 10
0.0
 20
0.0
 30
0.0
  3
GDimGGroup4
  1

  0
HATCH
  5
2F5
330
2F3
100
AcDbEntity
  8
Default
  6
Continuous
 62
     7
 48
25.4
100
AcDbHatch
 10
0.0
 20
0.0
 30
0.0
210
0.0
220
0.0
230
1.0
  2
SOLID
 70
     1
 71
     0
 91
        1
 92
        1
 93
        3
 72
     1
 10
39.08070620649087
 20
223.3760205373514
 11
39.7473729048225
 21
219.3760203473616
 72
     1
 10
39.7473729048225
 20
219.3760203473616
 11
40.41403960315413
 21
223.3760205373514
 72
     1
 10
40.41403960315413
 20
223.3760205373514
 11
39.08070620649087
 21
223.3760205373514
 97
        0
 75
     0
 76
     1
 98
        0
  0
LWPOLYLINE
  5
2F6
330
2F3
100
AcDbEntity
  8
Default
  6
Continuous
 62
     7
 48
25.4
370
    20
100
AcDbPolyline
 90
        4
 70
     1
 43
0.0
 10
39.0807062065
 20
223.3760205374
 10
39.7473729048
 20
219.3760203474
 10
40.4140396032
 20
223.3760205374
 10
39.0807062065
 20
223.3760205374
  0
HATCH
  5
2F7
330
2F3
100
AcDbEntity
  8
Default
  6
Continuous
 62
     7
 48
25.4
100
AcDbHatch
 10
0.0
 20
0.0
 30
0.0
210
0.0
220
0.0
230
1.0
  2
SOLID
 70
     1
 71
     0
 91
        1
 92
        1
 93
        3
 72
     1
 10
39.08070620649087
 20
369.3760193229068
 11
40.41403960315413
 21
369.3760193229068
 72
     1
 10
40.41403960315413
 20
369.3760193229068
 11
39.7473729048225
 21
373.3760195128966
 72
     1
 10
39.7473729048225
 20
373.3760195128966
 11
39.08070620649087
 21
369.3760193229068
 97
        0
 75
     0
 76
     1
 98
        0
  0
LWPOLYLINE
  5
2F8
330
2F3
100
AcDbEntity
  8
Default
  6
Continuous
 62
     7
 48
25.4
370
    20
100
AcDbPolyline
 90
        4
 70
     1
 43
0.0
 10
39.0807062065
 20
369.3760193229
 10
39.7473729048
 20
373.3760195129
 10
40.4140396032
 20
369.3760193229
 10
39.0807062065
 20
369.3760193229
  0
LINE
  5
2F9
330
2F3
100
AcDbEntity
  8
Default
  6
Continuous
 62
     7
 48
25.4
100
AcDbLine
 10
124.2411962543
 20
219.3760203474
 30
0.0
 11
37.7473728098
 21
219.3760203474
 31
0.0
  0
LINE
  5
2FA
330
2F3
100
AcDbEntity
  8
Default
  6
Continuous
 62
     7
 48
25.4
100
AcDbLine
 10
124.2411962543
 20
373.3760203474
 30
0.0
 11
37.7473728098
 21
373.3760203474
 31
0.0
  0
LINE
  5
2FB
330
2F3
100
AcDbEntity
  8
Default
  6
Continuous
 62
     7
 48
25.4
100
AcDbLine
 10
39.7473729048
 20
219.3760203474
 30
0.0
 11
39.7473729048
 21
373.3760195129
 31
0.0
  0
TEXT
  5
2FC
330
2F3
100
AcDbEntity
  8
Default
  6
Continuous
 62
     7
 48
25.4
100
AcDbText
 10
38.7473729048
 20
290.5958521193
 30
0.0
 40
4.0
  1
220
 50
90.0
  7
SEACAD_arial_ttf
 11
34.7473729048
 21
290.5958521193
 31
0.0
100
AcDbText
 73
     3
  0
TEXT
  5
2FD
330
2F3
100
AcDbEntity
  8
Default
  6
Continuous
 62
     7
 48
25.4
100
AcDbText
 10
38.7473729048
 20
302.3871564671
 30
0.0
 40
4.0
  1
H6
 50
90.0
  7
SEACAD_arial_ttf
 11
34.7473729048
 21
302.3871564671
 31
0.0
100
AcDbText
 73
     3
  0
TEXT
  5
2FF
330
2F3
100
AcDbEntity
  8
Default
  6
Continuous
 62
     7
 48
25.4
100
AcDbText
 10
38.7473729048
 20
283.2344486105
 30
0.0
 40
4.0
  1
O
 50
90.0
  7
SEACAD_semeca1_ttf
 11
34.7473729048
 21
283.2344486105
 31
0.0
100
AcDbText
 73
     3
  0
ENDBLK
  5
301
330
2F3
100
AcDbEntity
  8
0
100
AcDbBlockEnd
  0
BLOCK
  5
30C
330
302
100
AcDbEntity
  8
0
100
AcDbBlockBegin
  2
GDimGGroup5
 70
     0
 71
     0
 10
0.0
 20
0.0
 30
0.0
  3
GDimGGroup5
  1

  0
HATCH
  5
304
330
302
100
AcDbEntity
  8
Default
  6
Continuous
 62
     7
 48
25.4
100
AcDbHatch
 10
0.0
 20
0.0
 30
0.0
210
0.0
220
0.0
230
1.0
  2
SOLID
 70
     1
 71
     0
 91
        1
 92
        1
 93
        3
 72
     1
 10
317.7263951627497
 20
385.5080289709986
 11
317.059728464418
 21
389.5080291609884
 72
     1
 10
317.059728464418
 20
389.5080291609884
 11
316.3930617660864
 21
385.5080289709986
 72
     1
 10
316.3930617660864
 20
385.5080289709986
 11
317.7263951627497
 21
385.5080289709986
 97
        0
 75
     0
 76
     1
 98
        0
  0
LWPOLYLINE
  5
305
330
302
100
AcDbEntity
  8
Default
  6
Continuous
 62
     7
 48
25.4
370
    20
100
AcDbPolyline
 90
        4
 70
     1
 43
0.0
 10
317.7263951627
 20
385.508028971
 10
317.0597284644
 20
389.508029161
 10
316.3930617661
 20
385.508028971
 10
317.7263951627
 20
385.508028971
  0
HATCH
  5
306
330
302
100
AcDbEntity
  8
Default
  6
Continuous
 62
     7
 48
25.4
100
AcDbHatch
 10
0.0
 20
0.0
 30
0.0
210
0.0
220
0.0
230
1.0
  2
SOLID
 70
     1
 71
     0
 91
        1
 92
        1
 93
        3
 72
     1
 10
317.7263951627497
 20
316.5080297682108
 11
316.3930617660864
 21
316.5080297682108
 72
     1
 10
316.3930617660864
 20
316.5080297682108
 11
317.059728464418
 21
312.5080295782209
 72
     1
 10
317.059728464418
 20
312.5080295782209
 11
317.7263951627497
 21
316.5080297682108
 97
        0
 75
     0
 76
     1
 98
        0
  0
LWPOLYLINE
  5
307
330
302
100
AcDbEntity
  8
Default
  6
Continuous
 62
     7
 48
25.4
370
    20
100
AcDbPolyline
 90
        4
 70
     1
 43
0.0
 10
317.7263951627
 20
316.5080297682
 10
317.0597284644
 20
312.5080295782
 10
316.3930617661
 20
316.5080297682
 10
317.7263951627
 20
316.5080297682
  0
LINE
  5
308
330
302
100
AcDbEntity
  8
Default
  6
Continuous
 62
     7
 48
25.4
100
AcDbLine
 10
249.5411812871
 20
389.508029161
 30
0.0
 11
319.0597285594
 21
389.508029161
 31
0.0
  0
LINE
  5
309
330
302
100
AcDbEntity
  8
Default
  6
Continuous
 62
     7
 48
25.4
100
AcDbLine
 10
249.5411812871
 20
312.508029161
 30
0.0
 11
319.0597285594
 21
312.508029161
 31
0.0
  0
LINE
  5
30A
330
302
100
AcDbEntity
  8
Default
  6
Continuous
 62
     7
 48
25.4
100
AcDbLine
 10
317.0597284644
 20
389.508029161
 30
0.0
 11
317.0597284644
 21
312.5080295782
 31
0.0
  0
TEXT
  5
30B
330
302
100
AcDbEntity
  8
Default
  6
Continuous
 62
     7
 48
25.4
100
AcDbText
 10
316.0597284644
 20
346.3123771957
 30
0.0
 40
4.0
  1
110
 50
90.0
  7
SEACAD_arial_ttf
 11
312.0597284644
 21
346.3123771957
 31
0.0
100
AcDbText
 73
     3
  0
ENDBLK
  5
30D
330
302
100
AcDbEntity
  8
0
100
AcDbBlockEnd
  0
BLOCK
  5
318
330
30E
100
AcDbEntity
  8
0
100
AcDbBlockBegin
  2
GDimGGroup6
 70
     0
 71
     0
 10
0.0
 20
0.0
 30
0.0
  3
GDimGGroup6
  1

  0
HATCH
  5
310
330
30E
100
AcDbEntity
  8
Default
  6
Continuous
 62
     7
 48
25.4
100
AcDbHatch
 10
0.0
 20
0.0
 30
0.0
210
0.0
220
0.0
230
1.0
  2
SOLID
 70
     1
 71
     0
 91
        1
 92
        1
 93
        3
 72
     1
 10
429.225741286914
 20
401.787059566035
 11
425.2257410969242
 21
401.1203928677033
 72
     1
 10
425.2257410969242
 20
401.1203928677033
 11
429.225741286914
 21
400.4537261693717
 72
     1
 10
429.225741286914
 20
400.4537261693717
 11
429.225741286914
 21
401.787059566035
 97
        0
 75
     0
 76
     1
 98
        0
  0
LWPOLYLINE
  5
311
330
30E
100
AcDbEntity
  8
Default
  6
Continuous
 62
     7
 48
25.4
370
    20
100
AcDbPolyline
 90
        4
 70
     1
 43
0.0
 10
429.2257412869
 20
401.787059566
 10
425.2257410969
 20
401.1203928677
 10
429.2257412869
 20
400.4537261694
 10
429.2257412869
 20
401.787059566
  0
HATCH
  5
312
330
30E
100
AcDbEntity
  8
Default
  6
Continuous
 62
     7
 48
25.4
100
AcDbHatch
 10
0.0
 20
0.0
 30
0.0
210
0.0
220
0.0
230
1.0
  2
SOLID
 70
     1
 71
     0
 91
        1
 92
        1
 93
        3
 72
     1
 10
449.2257417712017
 20
401.787059566035
 11
449.2257417712017
 21
400.4537261693717
 72
     1
 10
449.2257417712017
 20
400.4537261693717
 11
453.2257419611916
 21
401.1203928677033
 72
     1
 10
453.2257419611916
 20
401.1203928677033
 11
449.2257417712017
 21
401.787059566035
 97
        0
 75
     0
 76
     1
 98
        0
  0
LWPOLYLINE
  5
313
330
30E
100
AcDbEntity
  8
Default
  6
Continuous
 62
     7
 48
25.4
370
    20
100
AcDbPolyline
 90
        4
 70
     1
 43
0.0
 10
449.2257417712
 20
401.787059566
 10
453.2257419612
 20
401.1203928677
 10
449.2257417712
 20
400.4537261694
 10
449.2257417712
 20
401.787059566
  0
LINE
  5
314
330
30E
100
AcDbEntity
  8
Default
  6
Continuous
 62
     7
 48
25.4
100
AcDbLine
 10
425.2257410969
 20
389.3378072245
 30
0.0
 11
425.2257410969
 21
403.1203929627
 31
0.0
  0
LINE
  5
315
330
30E
100
AcDbEntity
  8
Default
  6
Continuous
 62
     7
 48
25.4
100
AcDbLine
 10
453.2257410969
 20
389.3378072245
 30
0.0
 11
453.2257410969
 21
403.1203929627
 31
0.0
  0
LINE
  5
316
330
30E
100
AcDbEntity
  8
Default
  6
Continuous
 62
     7
 48
25.4
100
AcDbLine
 10
425.2257410969
 20
401.1203928677
 30
0.0
 11
453.2257419612
 21
401.1203928677
 31
0.0
  0
TEXT
  5
317
330
30E
100
AcDbEntity
  8
Default
  6
Continuous
 62
     7
 48
25.4
100
AcDbText
 10
436.0953067464
 20
402.1203928677
 30
0.0
 40
4.0
  1
40
  7
SEACAD_arial_ttf
 11
436.0953067464
 21
406.1203928677
 31
0.0
100
AcDbText
 73
     3
  0
ENDBLK
  5
319
330
30E
100
AcDbEntity
  8
0
100
AcDbBlockEnd
  0
BLOCK
  5
324
330
31A
100
AcDbEntity
  8
0
100
AcDbBlockBegin
  2
GDimGGroup7
 70
     0
 71
     0
 10
0.0
 20
0.0
 30
0.0
  3
GDimGGroup7
  1

  0
HATCH
  5
31C
330
31A
100
AcDbEntity
  8
Default
  6
Continuous
 62
     7
 48
25.4
100
AcDbHatch
 10
0.0
 20
0.0
 30
0.0
210
0.0
220
0.0
230
1.0
  2
SOLID
 70
     1
 71
     0
 91
        1
 92
        1
 93
        3
 72
     1
 10
522.6883153598876
 20
349.027330425298
 11
525.3281191421578
 21
345.9490383667539
 72
     1
 10
525.3281191421577
 20
345.9490383667539
 11
523.8293724481868
 21
349.7170888380048
 72
     1
 10
523.8293724481869
 20
349.7170888380048
 11
522.6883153598876
 21
349.027330425298
 97
        0
 75
     0
 76
     1
 98
        0
  0
LWPOLYLINE
  5
31D
330
31A
100
AcDbEntity
  8
Default
  6
Continuous
 62
     7
 48
25.4
370
    20
100
AcDbPolyline
 90
        4
 70
     1
 43
0.0
 10
522.6883153599
 20
349.0273304253
 10
525.3281191422
 20
345.9490383668
 10
523.8293724482
 20
349.717088838
 10
522.6883153599
 20
349.0273304253
  0
HATCH
  5
31E
330
31A
100
AcDbEntity
  8
Default
  6
Continuous
 62
     7
 48
25.4
100
AcDbHatch
 10
0.0
 20
0.0
 30
0.0
210
0.0
220
0.0
230
1.0
  2
SOLID
 70
     1
 71
     0
 91
        1
 92
        1
 93
        3
 72
     1
 10
443.2383389609735
 20
396.2463421469421
 11
439.2257381996616
 21
395.6602695090364
 72
     1
 10
439.2257381996616
 20
395.6602695090364
 11
443.2115192348179
 21
394.9132785141974
 72
     1
 10
443.211519234818
 20
394.9132785141974
 11
443.2383389609735
 21
396.2463421469421
 97
        0
 75
     0
 76
     1
 98
        0
  0
LWPOLYLINE
  5
31F
330
31A
100
AcDbEntity
  8
Default
  6
Continuous
 62
     7
 48
25.4
370
    20
100
AcDbPolyline
 90
        4
 70
     1
 43
0.0
 10
443.238338961
 20
396.2463421469
 10
439.2257381997
 20
395.660269509
 10
443.2115192348
 20
394.9132785142
 10
443.238338961
 20
396.2463421469
  0
LINE
  5
320
330
31A
100
AcDbEntity
  8
Default
  6
Continuous
 62
     7
 48
25.4
100
AcDbLine
 10
491.1786050524
 20
326.2328072143
 30
0.0
 11
527.0601670074
 21
346.949036668
 31
0.0
  0
LINE
  5
321
330
31A
100
AcDbEntity
  8
Default
  6
Continuous
 62
     7
 48
25.4
100
AcDbLine
 10
439.2257410969
 20
296.2378072245
 30
0.0
 11
439.2257410969
 21
397.6602661116
 31
0.0
  0
ARC
  5
322
330
31A
100
AcDbEntity
  8
Default
  6
Continuous
 62
     7
 48
25.4
100
AcDbCircle
 10
439.2257410969
 20
296.2378072245
 30
0.0
 40
99.42246228456496
100
AcDbArc
 50
30.0
 51
90.0000016697
  0
TEXT
  5
323
330
31A
100
AcDbEntity
  8
Default
  6
Continuous
 62
     7
 48
25.4
100
AcDbText
 10
485.7469509535
 20
385.3366454561
 30
0.0
 40
4.0
  1
60°
 50
330.0
  7
SEACAD_arial_ttf
 11
487.7469509535
 21
388.8007470712
 31
0.0
100
AcDbText
 73
     3
  0
ENDBLK
  5
325
330
31A
100
AcDbEntity
  8
0
100
AcDbBlockEnd
  0
BLOCK
  5
330
330
326
100
AcDbEntity
  8
0
100
AcDbBlockBegin
  2
GDimGGroup8
 70
     0
 71
     0
 10
0.0
 20
0.0
 30
0.0
  3
GDimGGroup8
  1

  0
HATCH
  5
328
330
326
100
AcDbEntity
  8
Default
  6
Continuous
 62
     7
 48
25.4
100
AcDbHatch
 10
0.0
 20
0.0
 30
0.0
210
0.0
220
0.0
230
1.0
  2
SOLID
 70
     1
 71
     0
 91
        1
 92
        1
 93
        3
 72
     1
 10
533.5342420725814
 20
325.5403959513357
 11
535.2840221348342
 21
321.8821565195427
 72
     1
 10
535.2840221348342
 20
321.8821565195427
 11
534.815280810582
 21
325.9101495157531
 72
     1
 10
534.8152808105821
 20
325.9101495157531
 11
533.5342420725814
 21
325.5403959513357
 97
        0
 75
     0
 76
     1
 98
        0
  0
LWPOLYLINE
  5
329
330
326
100
AcDbEntity
  8
Default
  6
Continuous
 62
     7
 48
25.4
370
    20
100
AcDbPolyline
 90
        4
 70
     1
 43
0.0
 10
533.5342420726
 20
325.5403959513
 10
535.2840221348
 20
321.8821565195
 10
534.8152808106
 20
325.9101495158
 10
533.5342420726
 20
325.5403959513
  0
HATCH
  5
32A
330
326
100
AcDbEntity
  8
Default
  6
Continuous
 62
     7
 48
25.4
100
AcDbHatch
 10
0.0
 20
0.0
 30
0.0
210
0.0
220
0.0
230
1.0
  2
SOLID
 70
     1
 71
     0
 91
        1
 92
        1
 93
        3
 72
     1
 10
527.8419734310382
 20
342.7670600216521
 11
525.3281193644473
 21
345.9490379817372
 72
     1
 10
525.3281193644473
 20
345.9490379817372
 11
526.6740965755192
 21
342.1237548087083
 72
     1
 10
526.6740965755192
 20
342.1237548087083
 11
527.8419734310382
 21
342.7670600216521
 97
        0
 75
     0
 76
     1
 98
        0
  0
LWPOLYLINE
  5
32B
330
326
100
AcDbEntity
  8
Default
  6
Continuous
 62
     7
 48
25.4
370
    20
100
AcDbPolyline
 90
        4
 70
     1
 43
0.0
 10
527.841973431
 20
342.7670600217
 10
525.3281193644
 20
345.9490379817
 10
526.6740965755
 20
342.1237548087
 10
527.841973431
 20
342.7670600217
  0
LINE
  5
32C
330
326
100
AcDbEntity
  8
Default
  6
Continuous
 62
     7
 48
25.4
100
AcDbLine
 10
484.2665397001
 20
308.2621944968
 30
0.0
 11
537.2163443818
 21
322.3980219516
 31
0.0
  0
LINE
  5
32D
330
326
100
AcDbEntity
  8
Default
  6
Continuous
 62
     7
 48
25.4
100
AcDbLine
 10
491.1786050524
 20
326.2328072143
 30
0.0
 11
527.0601670074
 21
346.949036668
 31
0.0
  0
ARC
  5
32E
330
326
100
AcDbEntity
  8
Default
  6
Continuous
 62
     7
 48
25.4
100
AcDbCircle
 10
439.2257410969
 20
296.2378072245
 30
0.0
 40
99.42246228456173
100
AcDbArc
 50
14.9474580962
 51
29.9999997438
  0
TEXT
  5
32F
330
326
100
AcDbEntity
  8
Default
  6
Continuous
 62
     7
 48
25.4
100
AcDbText
 10
530.3928505128
 20
338.5625529592
 30
0.0
 40
4.0
  1
15°
 50
292.4737290481
  7
SEACAD_arial_ttf
 11
534.0890701181
 21
340.0915920787
 31
0.0
100
AcDbText
 73
     3
  0
ENDBLK
  5
331
330
326
100
AcDbEntity
  8
0
100
AcDbBlockEnd
  0
BLOCK
  5
33C
330
332
100
AcDbEntity
  8
0
100
AcDbBlockBegin
  2
GDimGGroup9
 70
     0
 71
     0
 10
0.0
 20
0.0
 30
0.0
  3
GDimGGroup9
  1

  0
HATCH
  5
334
330
332
100
AcDbEntity
  8
Default
  6
Continuous
 62
     7
 48
25.4
100
AcDbHatch
 10
0.0
 20
0.0
 30
0.0
210
0.0
220
0.0
230
1.0
  2
SOLID
 70
     1
 71
     0
 91
        1
 92
        1
 93
        3
 72
     1
 10
537.9721243958005
 20
300.2235989394916
 11
538.719058402966
 21
296.2378072244715
 72
     1
 10
538.719058402966
 20
296.2378072244715
 11
539.3051884118702
 21
300.2503996058684
 72
     1
 10
539.3051884118702
 20
300.2503996058685
 11
537.9721243958006
 21
300.2235989394916
 97
        0
 75
     0
 76
     1
 98
        0
  0
LWPOLYLINE
  5
335
330
332
100
AcDbEntity
  8
Default
  6
Continuous
 62
     7
 48
25.4
370
    20
100
AcDbPolyline
 90
        4
 70
     1
 43
0.0
 10
537.9721243958
 20
300.2235989395
 10
538.719058403
 20
296.2378072245
 10
539.3051884119
 20
300.2503996059
 10
537.9721243958
 20
300.2235989395
  0
HATCH
  5
336
330
332
100
AcDbEntity
  8
Default
  6
Continuous
 62
     7
 48
25.4
100
AcDbHatch
 10
0.0
 20
0.0
 30
0.0
210
0.0
220
0.0
230
1.0
  2
SOLID
 70
     1
 71
     0
 91
        1
 92
        1
 93
        3
 72
     1
 10
536.9335991036808
 20
318.2644083116441
 11
535.3289056384027
 21
321.9885733038372
 72
     1
 10
535.3289056384027
 20
321.9885733038372
 11
535.6390216216031
 21
317.9452734035643
 72
     1
 10
535.6390216216032
 20
317.9452734035643
 11
536.9335991036809
 21
318.2644083116441
 97
        0
 75
     0
 76
     1
 98
        0
  0
LWPOLYLINE
  5
337
330
332
100
AcDbEntity
  8
Default
  6
Continuous
 62
     7
 48
25.4
370
    20
100
AcDbPolyline
 90
        4
 70
     1
 43
0.0
 10
536.9335991037
 20
318.2644083116
 10
535.3289056384
 20
321.9885733038
 10
535.6390216216
 20
317.9452734036
 10
536.9335991037
 20
318.2644083116
  0
LINE
  5
338
330
332
100
AcDbEntity
  8
Default
  6
Continuous
 62
     7
 48
25.4
100
AcDbLine
 10
439.2257410969
 20
296.2378072245
 30
0.0
 11
540.7190550055
 21
296.2378072245
 31
0.0
  0
LINE
  5
339
330
332
100
AcDbEntity
  8
Default
  6
Continuous
 62
     7
 48
25.4
100
AcDbLine
 10
484.3248163408
 20
308.3220680155
 30
0.0
 11
537.2607541969
 21
322.5062098146
 31
0.0
  0
ARC
  5
33A
330
332
100
AcDbEntity
  8
Default
  6
Continuous
 62
     7
 48
25.4
100
AcDbCircle
 10
439.2257410969
 20
296.2378072245
 30
0.0
 40
99.49331730604827
100
AcDbArc
 50
0.0
 51
15.0000004174
  0
TEXT
  5
33B
330
332
100
AcDbEntity
  8
Default
  6
Continuous
 62
     7
 48
25.4
100
AcDbText
 10
538.3031690625
 20
313.5792345114
 30
0.0
 40
4.0
  1
15°
 50
277.5
  7
SEACAD_arial_ttf
 11
542.268948508
 21
314.1013392803
 31
0.0
100
AcDbText
 73
     3
  0
ENDBLK
  5
33D
330
332
100
AcDbEntity
  8
0
100
AcDbBlockEnd
  0
BLOCK
  5
348
330
33E
100
AcDbEntity
  8
0
100
AcDbBlockBegin
  2
GDimGGroup10
 70
     0
 71
     0
 10
0.0
 20
0.0
 30
0.0
  3
GDimGGroup10
  1

  0
HATCH
  5
340
330
33E
100
AcDbEntity
  8
Default
  6
Continuous
 62
     7
 48
25.4
100
AcDbHatch
 10
0.0
 20
0.0
 30
0.0
210
0.0
220
0.0
230
1.0
  2
SOLID
 70
     1
 71
     0
 91
        1
 92
        1
 93
        3
 72
     1
 10
526.7355134230967
 20
250.3164124544342
 11
525.3894813907422
 21
246.4911485714506
 72
     1
 10
525.3894813907422
 20
246.4911485714506
 11
527.9033810590721
 21
249.6730905043201
 72
     1
 10
527.9033810590721
 20
249.6730905043201
 11
526.7355134230967
 21
250.3164124544342
 97
        0
 75
     0
 76
     1
 98
        0
  0
LWPOLYLINE
  5
341
330
33E
100
AcDbEntity
  8
Default
  6
Continuous
 62
     7
 48
25.4
370
    20
100
AcDbPolyline
 90
        4
 70
     1
 43
0.0
 10
526.7355134231
 20
250.3164124544
 10
525.3894813907
 20
246.4911485715
 10
527.9033810591
 20
249.6730905043
 10
526.7355134231
 20
250.3164124544
  0
HATCH
  5
342
330
33E
100
AcDbEntity
  8
Default
  6
Continuous
 62
     7
 48
25.4
100
AcDbHatch
 10
0.0
 20
0.0
 30
0.0
210
0.0
220
0.0
230
1.0
  2
SOLID
 70
     1
 71
     0
 91
        1
 92
        1
 93
        3
 72
     1
 10
539.3051884665043
 20
292.2252163007187
 11
538.719058402966
 21
296.2378086741351
 72
     1
 10
538.719058402966
 20
296.2378086741351
 11
537.9721244500699
 21
292.252016948945
 72
     1
 10
537.9721244500699
 20
292.252016948945
 11
539.3051884665043
 21
292.2252163007187
 97
        0
 75
     0
 76
     1
 98
        0
  0
LWPOLYLINE
  5
343
330
33E
100
AcDbEntity
  8
Default
  6
Continuous
 62
     7
 48
25.4
370
    20
100
AcDbPolyline
 90
        4
 70
     1
 43
0.0
 10
539.3051884665
 20
292.2252163007
 10
538.719058403
 20
296.2378086741
 10
537.9721244501
 20
292.2520169489
 10
539.3051884665
 20
292.2252163007
  0
LINE
  5
344
330
33E
100
AcDbEntity
  8
Default
  6
Continuous
 62
     7
 48
25.4
100
AcDbLine
 10
501.6878579813
 20
260.1752872271
 30
0.0
 11
527.121529256
 21
245.4911502702
 31
0.0
  0
LINE
  5
345
330
33E
100
AcDbEntity
  8
Default
  6
Continuous
 62
     7
 48
25.4
100
AcDbLine
 10
439.2257410969
 20
296.2378072245
 30
0.0
 11
540.7190550055
 21
296.2378072245
 31
0.0
  0
ARC
  5
346
330
33E
100
AcDbEntity
  8
Default
  6
Continuous
 62
     7
 48
25.4
100
AcDbCircle
 10
439.2257410969
 20
296.2378072245
 30
0.0
 40
99.49331730604156
100
AcDbArc
 50
330.0
 51
0.0000008348
  0
TEXT
  5
347
330
33E
100
AcDbEntity
  8
Default
  6
Continuous
 62
     7
 48
25.4
100
AcDbText
 10
533.2601858075
 20
266.6301769348
 30
0.0
 40
4.0
  1
30°
 50
75.0
  7
SEACAD_arial_ttf
 11
529.3964825024
 21
267.6654531153
 31
0.0
100
AcDbText
 73
     3
  0
ENDBLK
  5
349
330
33E
100
AcDbEntity
  8
0
100
AcDbBlockEnd
  0
BLOCK
  5
355
330
34A
100
AcDbEntity
  8
0
100
AcDbBlockBegin
  2
GDimGGroup11
 70
     0
 71
     0
 10
0.0
 20
0.0
 30
0.0
  3
GDimGGroup11
  1

  0
HATCH
  5
34C
330
34A
100
AcDbEntity
  8
Default
  6
Continuous
 62
     7
 48
25.4
100
AcDbHatch
 10
0.0
 20
0.0
 30
0.0
210
0.0
220
0.0
230
1.0
  2
SOLID
 70
     1
 71
     0
 91
        1
 92
        1
 93
        3
 72
     1
 10
19.72832848184335
 20
211.5049156226887
 11
20.39499518017498
 21
207.5049154326989
 72
     1
 10
20.39499518017498
 20
207.5049154326989
 11
21.06166187850662
 21
211.5049156226887
 72
     1
 10
21.06166187850662
 20
211.5049156226887
 11
19.72832848184335
 21
211.5049156226887
 97
        0
 75
     0
 76
     1
 98
        0
  0
LWPOLYLINE
  5
34D
330
34A
100
AcDbEntity
  8
Default
  6
Continuous
 62
     7
 48
25.4
370
    20
100
AcDbPolyline
 90
        4
 70
     1
 43
0.0
 10
19.7283284818
 20
211.5049156227
 10
20.3949951802
 20
207.5049154327
 10
21.0616618785
 20
211.5049156227
 10
19.7283284818
 20
211.5049156227
  0
HATCH
  5
34E
330
34A
100
AcDbEntity
  8
Default
  6
Continuous
 62
     7
 48
25.4
100
AcDbHatch
 10
0.0
 20
0.0
 30
0.0
210
0.0
220
0.0
230
1.0
  2
SOLID
 70
     1
 71
     0
 91
        1
 92
        1
 93
        3
 72
     1
 10
19.72832848184335
 20
381.3049149566068
 11
21.06166187850662
 21
381.3049149566068
 72
     1
 10
21.06166187850662
 20
381.3049149566068
 11
20.39499518017498
 21
385.3049151465966
 72
     1
 10
20.39499518017498
 20
385.3049151465966
 11
19.72832848184335
 21
381.3049149566068
 97
        0
 75
     0
 76
     1
 98
        0
  0
LWPOLYLINE
  5
34F
330
34A
100
AcDbEntity
  8
Default
  6
Continuous
 62
     7
 48
25.4
370
    20
100
AcDbPolyline
 90
        4
 70
     1
 43
0.0
 10
19.7283284818
 20
381.3049149566
 10
20.3949951802
 20
385.3049151466
 10
21.0616618785
 20
381.3049149566
 10
19.7283284818
 20
381.3049149566
  0
LINE
  5
350
330
34A
100
AcDbEntity
  8
Default
  6
Continuous
 62
     7
 48
25.4
100
AcDbLine
 10
141.0411962543
 20
207.5049154327
 30
0.0
 11
18.3949950852
 21
207.5049154327
 31
0.0
  0
LINE
  5
351
330
34A
100
AcDbEntity
  8
Default
  6
Continuous
 62
     7
 48
25.4
100
AcDbLine
 10
141.0411962543
 20
385.3049154327
 30
0.0
 11
18.3949950852
 21
385.3049154327
 31
0.0
  0
LINE
  5
352
330
34A
100
AcDbEntity
  8
Default
  6
Continuous
 62
     7
 48
25.4
100
AcDbLine
 10
20.3949951802
 20
207.5049154327
 30
0.0
 11
20.3949951802
 21
385.3049151466
 31
0.0
  0
TEXT
  5
353
330
34A
100
AcDbEntity
  8
Default
  6
Continuous
 62
     7
 48
25.4
100
AcDbText
 10
19.3949951802
 20
295.3899648701
 30
0.0
 40
4.0
  1
254
 50
90.0
  7
SEACAD_arial_ttf
 11
15.3949951802
 21
295.3899648701
 31
0.0
100
AcDbText
 73
     3
  0
TEXT
  5
354
330
34A
100
AcDbEntity
  8
Default
  6
Continuous
 62
     7
 48
25.4
100
AcDbText
 10
19.3949951802
 20
288.0285613613
 30
0.0
 40
4.0
  1
O
 50
90.0
  7
SEACAD_semeca1_ttf
 11
15.3949951802
 21
288.0285613613
 31
0.0
100
AcDbText
 73
     3
  0
ENDBLK
  5
356
330
34A
100
AcDbEntity
  8
0
100
AcDbBlockEnd
  0
BLOCK
  5
362
330
357
100
AcDbEntity
  8
0
100
AcDbBlockBegin
  2
GDimGGroup12
 70
     0
 71
     0
 10
0.0
 20
0.0
 30
0.0
  3
GDimGGroup12
  1

  0
HATCH
  5
359
330
357
100
AcDbEntity
  8
Default
  6
Continuous
 62
     7
 48
25.4
100
AcDbHatch
 10
0.0
 20
0.0
 30
0.0
210
0.0
220
0.0
230
1.0
  2
SOLID
 70
     1
 71
     0
 91
        1
 92
        1
 93
        3
 72
     1
 10
91.89656658523303
 20
274.8549156226888
 11
92.56323328356467
 21
270.854915432699
 72
     1
 10
92.56323328356467
 20
270.854915432699
 11
93.22989998189631
 21
274.8549156226888
 72
     1
 10
93.22989998189631
 20
274.8549156226888
 11
91.89656658523303
 21
274.8549156226888
 97
        0
 75
     0
 76
     1
 98
        0
  0
LWPOLYLINE
  5
35A
330
357
100
AcDbEntity
  8
Default
  6
Continuous
 62
     7
 48
25.4
370
    20
100
AcDbPolyline
 90
        4
 70
     1
 43
0.0
 10
91.8965665852
 20
274.8549156227
 10
92.5632332836
 20
270.8549154327
 10
93.2298999819
 20
274.8549156227
 10
91.8965665852
 20
274.8549156227
  0
HATCH
  5
35B
330
357
100
AcDbEntity
  8
Default
  6
Continuous
 62
     7
 48
25.4
100
AcDbHatch
 10
0.0
 20
0.0
 30
0.0
210
0.0
220
0.0
230
1.0
  2
SOLID
 70
     1
 71
     0
 91
        1
 92
        1
 93
        3
 72
     1
 10
91.89656658523303
 20
317.9549159818068
 11
93.22989998189631
 21
317.9549159818068
 72
     1
 10
93.22989998189631
 20
317.9549159818068
 11
92.56323328356467
 21
321.9549161717966
 72
     1
 10
92.56323328356467
 20
321.9549161717966
 11
91.89656658523303
 21
317.9549159818068
 97
        0
 75
     0
 76
     1
 98
        0
  0
LWPOLYLINE
  5
35C
330
357
100
AcDbEntity
  8
Default
  6
Continuous
 62
     7
 48
25.4
370
    20
100
AcDbPolyline
 90
        4
 70
     1
 43
0.0
 10
91.8965665852
 20
317.9549159818
 10
92.5632332836
 20
321.9549161718
 10
93.2298999819
 20
317.9549159818
 10
91.8965665852
 20
317.9549159818
  0
LINE
  5
35D
330
357
100
AcDbEntity
  8
Default
  6
Continuous
 62
     7
 48
25.4
100
AcDbLine
 10
137.5411962543
 20
270.8549154327
 30
0.0
 11
90.5632331886
 21
270.8549154327
 31
0.0
  0
LINE
  5
35E
330
357
100
AcDbEntity
  8
Default
  6
Continuous
 62
     7
 48
25.4
100
AcDbLine
 10
150.1925994091
 20
321.9549154327
 30
0.0
 11
90.5632331886
 21
321.9549154327
 31
0.0
  0
LINE
  5
35F
330
357
100
AcDbEntity
  8
Default
  6
Continuous
 62
     7
 48
25.4
100
AcDbLine
 10
92.5632332836
 20
270.8549154327
 30
0.0
 11
92.5632332836
 21
321.9549161718
 31
0.0
  0
TEXT
  5
360
330
357
100
AcDbEntity
  8
Default
  6
Continuous
 62
     7
 48
25.4
100
AcDbText
 10
91.5632332836
 20
296.955182774
 30
0.0
 40
4.0
  1
73
 50
90.0
  7
SEACAD_arial_ttf
 11
87.5632332836
 21
296.955182774
 31
0.0
100
AcDbText
 73
     3
  0
TEXT
  5
361
330
357
100
AcDbEntity
  8
Default
  6
Continuous
 62
     7
 48
25.4
100
AcDbText
 10
91.5632332836
 20
289.5937792653
 30
0.0
 40
4.0
  1
O
 50
90.0
  7
SEACAD_semeca1_ttf
 11
87.5632332836
 21
289.5937792653
 31
0.0
100
AcDbText
 73
     3
  0
ENDBLK
  5
363
330
357
100
AcDbEntity
  8
0
100
AcDbBlockEnd
  0
BLOCK
  5
36D
330
364
100
AcDbEntity
  8
0
100
AcDbBlockBegin
  2
GDimGGroup13
 70
     0
 71
     0
 10
0.0
 20
0.0
 30
0.0
  3
GDimGGroup13
  1

  0
HATCH
  5
366
330
364
100
AcDbEntity
  8
Default
  6
Continuous
 62
     7
 48
25.4
100
AcDbHatch
 10
0.0
 20
0.0
 30
0.0
210
0.0
220
0.0
230
1.0
  2
SOLID
 70
     1
 71
     0
 91
        1
 92
        1
 93
        3
 72
     1
 10
150.0854003998441
 20
284.6549156226888
 11
148.7520670031808
 21
284.6549156226888
 72
     1
 10
148.7520670031808
 20
284.6549156226888
 11
149.4187337015125
 21
280.6549154326989
 72
     1
 10
149.4187337015125
 20
280.6549154326989
 11
150.0854003998441
 21
284.6549156226888
 97
        0
 75
     0
 76
     1
 98
        0
  0
LWPOLYLINE
  5
367
330
364
100
AcDbEntity
  8
Default
  6
Continuous
 62
     7
 48
25.4
370
    20
100
AcDbPolyline
 90
        4
 70
     1
 43
0.0
 10
150.0854003998
 20
284.6549156227
 10
149.4187337015
 20
280.6549154327
 10
148.7520670032
 20
284.6549156227
 10
150.0854003998
 20
284.6549156227
  0
HATCH
  5
368
330
364
100
AcDbEntity
  8
Default
  6
Continuous
 62
     7
 48
25.4
100
AcDbHatch
 10
0.0
 20
0.0
 30
0.0
210
0.0
220
0.0
230
1.0
  2
SOLID
 70
     1
 71
     0
 91
        1
 92
        1
 93
        3
 72
     1
 10
150.0854003998441
 20
308.1549157493486
 11
149.4187337015125
 21
312.1549159393384
 72
     1
 10
149.4187337015125
 20
312.1549159393384
 11
148.7520670031808
 21
308.1549157493486
 72
     1
 10
148.7520670031808
 20
308.1549157493486
 11
150.0854003998441
 21
308.1549157493486
 97
        0
 75
     0
 76
     1
 98
        0
  0
LWPOLYLINE
  5
369
330
364
100
AcDbEntity
  8
Default
  6
Continuous
 62
     7
 48
25.4
370
    20
100
AcDbPolyline
 90
        4
 70
     1
 43
0.0
 10
150.0854003998
 20
308.1549157493
 10
149.4187337015
 20
312.1549159393
 10
148.7520670032
 20
308.1549157493
 10
150.0854003998
 20
308.1549157493
  0
LINE
  5
36A
330
364
100
AcDbEntity
  8
Default
  6
Continuous
 62
     7
 48
25.4
100
AcDbLine
 10
149.4187337015
 20
280.6549154327
 30
0.0
 11
149.4187337015
 21
312.1549159393
 31
0.0
  0
TEXT
  5
36B
330
364
100
AcDbEntity
  8
Default
  6
Continuous
 62
     7
 48
25.4
100
AcDbText
 10
148.4187337015
 20
296.9551826578
 30
0.0
 40
4.0
  1
45
 50
90.0
  7
SEACAD_arial_ttf
 11
144.4187337015
 21
296.9551826578
 31
0.0
100
AcDbText
 73
     3
  0
TEXT
  5
36C
330
364
100
AcDbEntity
  8
Default
  6
Continuous
 62
     7
 48
25.4
100
AcDbText
 10
148.4187337015
 20
289.593779149
 30
0.0
 40
4.0
  1
O
 50
90.0
  7
SEACAD_semeca1_ttf
 11
144.4187337015
 21
289.593779149
 31
0.0
100
AcDbText
 73
     3
  0
ENDBLK
  5
36E
330
364
100
AcDbEntity
  8
0
100
AcDbBlockEnd
  0
BLOCK
  5
37A
330
36F
100
AcDbEntity
  8
0
100
AcDbBlockBegin
  2
GDimGGroup14
 70
     0
 71
     0
 10
0.0
 20
0.0
 30
0.0
  3
GDimGGroup14
  1

  0
HATCH
  5
371
330
36F
100
AcDbEntity
  8
Default
  6
Continuous
 62
     7
 48
25.4
100
AcDbHatch
 10
0.0
 20
0.0
 30
0.0
210
0.0
220
0.0
230
1.0
  2
SOLID
 70
     1
 71
     0
 91
        1
 92
        1
 93
        3
 72
     1
 10
193.8870208562
 20
281.8549156226887
 11
194.5536875545317
 21
277.8549154326989
 72
     1
 10
194.5536875545317
 20
277.8549154326989
 11
195.2203542528633
 21
281.8549156226887
 72
     1
 10
195.2203542528633
 20
281.8549156226887
 11
193.8870208562
 21
281.8549156226887
 97
        0
 75
     0
 76
     1
 98
        0
  0
LWPOLYLINE
  5
372
330
36F
100
AcDbEntity
  8
Default
  6
Continuous
 62
     7
 48
25.4
370
    20
100
AcDbPolyline
 90
        4
 70
     1
 43
0.0
 10
193.8870208562
 20
281.8549156227
 10
194.5536875545
 20
277.8549154327
 10
195.2203542529
 20
281.8549156227
 10
193.8870208562
 20
281.8549156227
  0
HATCH
  5
373
330
36F
100
AcDbEntity
  8
Default
  6
Continuous
 62
     7
 48
25.4
100
AcDbHatch
 10
0.0
 20
0.0
 30
0.0
210
0.0
220
0.0
230
1.0
  2
SOLID
 70
     1
 71
     0
 91
        1
 92
        1
 93
        3
 72
     1
 10
193.8870208562
 20
310.9549136870279
 11
195.2203542528633
 21
310.9549136870279
 72
     1
 10
195.2203542528633
 20
310.9549136870279
 11
194.5536875545317
 21
314.9549138770177
 72
     1
 10
194.5536875545317
 20
314.9549138770177
 11
193.8870208562
 21
310.9549136870279
 97
        0
 75
     0
 76
     1
 98
        0
  0
LWPOLYLINE
  5
374
330
36F
100
AcDbEntity
  8
Default
  6
Continuous
 62
     7
 48
25.4
370
    20
100
AcDbPolyline
 90
        4
 70
     1
 43
0.0
 10
193.8870208562
 20
310.954913687
 10
194.5536875545
 20
314.954913877
 10
195.2203542529
 20
310.954913687
 10
193.8870208562
 20
310.954913687
  0
LINE
  5
375
330
36F
100
AcDbEntity
  8
Default
  6
Continuous
 62
     7
 48
25.4
100
AcDbLine
 10
218.3911812871
 20
277.8549154327
 30
0.0
 11
192.5536874595
 21
277.8549154327
 31
0.0
  0
LINE
  5
376
330
36F
100
AcDbEntity
  8
Default
  6
Continuous
 62
     7
 48
25.4
100
AcDbLine
 10
218.3911812871
 20
314.9549154327
 30
0.0
 11
192.5536874595
 21
314.9549154327
 31
0.0
  0
LINE
  5
377
330
36F
100
AcDbEntity
  8
Default
  6
Continuous
 62
     7
 48
25.4
100
AcDbLine
 10
194.5536875545
 20
277.8549154327
 30
0.0
 11
194.5536875545
 21
314.954913877
 31
0.0
  0
TEXT
  5
378
330
36F
100
AcDbEntity
  8
Default
  6
Continuous
 62
     7
 48
25.4
100
AcDbText
 10
193.5536875545
 20
296.9551816266
 30
0.0
 40
4.0
  1
53
 50
90.0
  7
SEACAD_arial_ttf
 11
189.5536875545
 21
296.9551816266
 31
0.0
100
AcDbText
 73
     3
  0
TEXT
  5
379
330
36F
100
AcDbEntity
  8
Default
  6
Continuous
 62
     7
 48
25.4
100
AcDbText
 10
193.5536875545
 20
289.5937781179
 30
0.0
 40
4.0
  1
O
 50
90.0
  7
SEACAD_semeca1_ttf
 11
189.5536875545
 21
289.5937781179
 31
0.0
100
AcDbText
 73
     3
  0
ENDBLK
  5
37B
330
36F
100
AcDbEntity
  8
0
100
AcDbBlockEnd
  0
BLOCK
  5
386
330
37C
100
AcDbEntity
  8
0
100
AcDbBlockBegin
  2
GDimGGroup15
 70
     0
 71
     0
 10
0.0
 20
0.0
 30
0.0
  3
GDimGGroup15
  1

  0
HATCH
  5
37E
330
37C
100
AcDbEntity
  8
Default
  6
Continuous
 62
     7
 48
25.4
100
AcDbHatch
 10
0.0
 20
0.0
 30
0.0
210
0.0
220
0.0
230
1.0
  2
SOLID
 70
     1
 71
     0
 91
        1
 92
        1
 93
        3
 72
     1
 10
294.5373012451414
 20
385.5080289709986
 11
293.8706345468098
 21
389.5080291609884
 72
     1
 10
293.8706345468098
 20
389.5080291609884
 11
293.2039678484781
 21
385.5080289709986
 72
     1
 10
293.2039678484781
 20
385.5080289709986
 11
294.5373012451414
 21
385.5080289709986
 97
        0
 75
     0
 76
     1
 98
        0
  0
LWPOLYLINE
  5
37F
330
37C
100
AcDbEntity
  8
Default
  6
Continuous
 62
     7
 48
25.4
370
    20
100
AcDbPolyline
 90
        4
 70
     1
 43
0.0
 10
294.5373012451
 20
385.508028971
 10
293.8706345468
 20
389.508029161
 10
293.2039678485
 20
385.508028971
 10
294.5373012451
 20
385.508028971
  0
HATCH
  5
380
330
37C
100
AcDbEntity
  8
Default
  6
Continuous
 62
     7
 48
25.4
100
AcDbHatch
 10
0.0
 20
0.0
 30
0.0
210
0.0
220
0.0
230
1.0
  2
SOLID
 70
     1
 71
     0
 91
        1
 92
        1
 93
        3
 72
     1
 10
294.5373012451414
 20
372.5080296341003
 11
293.2039678484781
 21
372.5080296341003
 72
     1
 10
293.2039678484781
 20
372.5080296341003
 11
293.8706345468098
 21
368.5080294441105
 72
     1
 10
293.8706345468098
 20
368.5080294441105
 11
294.5373012451414
 21
372.5080296341003
 97
        0
 75
     0
 76
     1
 98
        0
  0
LWPOLYLINE
  5
381
330
37C
100
AcDbEntity
  8
Default
  6
Continuous
 62
     7
 48
25.4
370
    20
100
AcDbPolyline
 90
        4
 70
     1
 43
0.0
 10
294.5373012451
 20
372.5080296341
 10
293.8706345468
 20
368.5080294441
 10
293.2039678485
 20
372.5080296341
 10
294.5373012451
 20
372.5080296341
  0
LINE
  5
382
330
37C
100
AcDbEntity
  8
Default
  6
Continuous
 62
     7
 48
25.4
100
AcDbLine
 10
249.5411812871
 20
389.508029161
 30
0.0
 11
295.8706346418
 21
389.508029161
 31
0.0
  0
LINE
  5
383
330
37C
100
AcDbEntity
  8
Default
  6
Continuous
 62
     7
 48
25.4
100
AcDbLine
 10
253.1964222697
 20
368.508029161
 30
0.0
 11
295.8706346418
 21
368.508029161
 31
0.0
  0
LINE
  5
384
330
37C
100
AcDbEntity
  8
Default
  6
Continuous
 62
     7
 48
25.4
100
AcDbLine
 10
293.8706345468
 20
389.508029161
 30
0.0
 11
293.8706345468
 21
368.5080294441
 31
0.0
  0
TEXT
  5
385
330
37C
100
AcDbEntity
  8
Default
  6
Continuous
 62
     7
 48
25.4
100
AcDbText
 10
292.8706345468
 20
375.8775945199
 30
0.0
 40
4.0
  1
30
 50
90.0
  7
SEACAD_arial_ttf
 11
288.8706345468
 21
375.8775945199
 31
0.0
100
AcDbText
 73
     3
  0
ENDBLK
  5
387
330
37C
100
AcDbEntity
  8
0
100
AcDbBlockEnd
  0
BLOCK
  5
392
330
388
100
AcDbEntity
  8
0
100
AcDbBlockBegin
  2
GDimGGroup16
 70
     0
 71
     0
 10
0.0
 20
0.0
 30
0.0
  3
GDimGGroup16
  1

  0
HATCH
  5
38A
330
388
100
AcDbEntity
  8
Default
  6
Continuous
 62
     7
 48
25.4
100
AcDbHatch
 10
0.0
 20
0.0
 30
0.0
210
0.0
220
0.0
230
1.0
  2
SOLID
 70
     1
 71
     0
 91
        1
 92
        1
 93
        3
 72
     1
 10
294.5373022880733
 20
364.5080289709987
 11
293.8706355897417
 21
368.5080291609885
 72
     1
 10
293.8706355897417
 20
368.5080291609885
 11
293.20396889141
 21
364.5080289709987
 72
     1
 10
293.20396889141
 20
364.5080289709987
 11
294.5373022880733
 21
364.5080289709987
 97
        0
 75
     0
 76
     1
 98
        0
  0
LWPOLYLINE
  5
38B
330
388
100
AcDbEntity
  8
Default
  6
Continuous
 62
     7
 48
25.4
370
    20
100
AcDbPolyline
 90
        4
 70
     1
 43
0.0
 10
294.5373022881
 20
364.508028971
 10
293.8706355897
 20
368.508029161
 10
293.2039688914
 20
364.508028971
 10
294.5373022881
 20
364.508028971
  0
HATCH
  5
38C
330
388
100
AcDbEntity
  8
Default
  6
Continuous
 62
     7
 48
25.4
100
AcDbHatch
 10
0.0
 20
0.0
 30
0.0
210
0.0
220
0.0
230
1.0
  2
SOLID
 70
     1
 71
     0
 91
        1
 92
        1
 93
        3
 72
     1
 10
294.5373022880733
 20
351.5078713092627
 11
293.20396889141
 21
351.5078713092627
 72
     1
 10
293.20396889141
 20
351.5078713092627
 11
293.8706355897417
 21
347.5078711192729
 72
     1
 10
293.8706355897417
 20
347.5078711192729
 11
294.5373022880733
 21
351.5078713092627
 97
        0
 75
     0
 76
     1
 98
        0
  0
LWPOLYLINE
  5
38D
330
388
100
AcDbEntity
  8
Default
  6
Continuous
 62
     7
 48
25.4
370
    20
100
AcDbPolyline
 90
        4
 70
     1
 43
0.0
 10
294.5373022881
 20
351.5078713093
 10
293.8706355897
 20
347.5078711193
 10
293.2039688914
 20
351.5078713093
 10
294.5373022881
 20
351.5078713093
  0
LINE
  5
38E
330
388
100
AcDbEntity
  8
Default
  6
Continuous
 62
     7
 48
25.4
100
AcDbLine
 10
253.1964222697
 20
368.508029161
 30
0.0
 11
295.8706356847
 21
368.508029161
 31
0.0
  0
LINE
  5
38F
330
388
100
AcDbEntity
  8
Default
  6
Continuous
 62
     7
 48
25.4
100
AcDbLine
 10
253.5652356839
 20
347.5078716776
 30
0.0
 11
295.8706356847
 21
347.5078716776
 31
0.0
  0
LINE
  5
390
330
388
100
AcDbEntity
  8
Default
  6
Continuous
 62
     7
 48
25.4
100
AcDbLine
 10
293.8706355897
 20
368.508029161
 30
0.0
 11
293.8706355897
 21
347.5078711193
 31
0.0
  0
TEXT
  5
391
330
388
100
AcDbEntity
  8
Default
  6
Continuous
 62
     7
 48
25.4
100
AcDbText
 10
292.8706355897
 20
354.8775153575
 30
0.0
 40
4.0
  1
30
 50
90.0
  7
SEACAD_arial_ttf
 11
288.8706355897
 21
354.8775153575
 31
0.0
100
AcDbText
 73
     3
  0
ENDBLK
  5
393
330
388
100
AcDbEntity
  8
0
100
AcDbBlockEnd
  0
BLOCK
  5
3A0
330
394
100
AcDbEntity
  8
0
100
AcDbBlockBegin
  2
GDimGGroup17
 70
     0
 71
     0
 10
0.0
 20
0.0
 30
0.0
  3
GDimGGroup17
  1

  0
HATCH
  5
396
330
394
100
AcDbEntity
  8
Default
  6
Continuous
 62
     7
 48
25.4
100
AcDbHatch
 10
0.0
 20
0.0
 30
0.0
210
0.0
220
0.0
230
1.0
  2
SOLID
 70
     1
 71
     0
 91
        1
 92
        1
 93
        3
 72
     1
 10
272.1763934764224
 20
300.4049156226888
 11
270.8430600797591
 21
300.4049156226888
 72
     1
 10
270.8430600797591
 20
300.4049156226888
 11
271.5097267780907
 21
296.4049154326989
 72
     1
 10
271.5097267780907
 20
296.4049154326989
 11
272.1763934764224
 21
300.4049156226888
 97
        0
 75
     0
 76
     1
 98
        0
  0
LWPOLYLINE
  5
397
330
394
100
AcDbEntity
  8
Default
  6
Continuous
 62
     7
 48
25.4
370
    20
100
AcDbPolyline
 90
        4
 70
     1
 43
0.0
 10
272.1763934764
 20
300.4049156227
 10
271.5097267781
 20
296.4049154327
 10
270.8430600798
 20
300.4049156227
 10
272.1763934764
 20
300.4049156227
  0
HATCH
  5
398
330
394
100
AcDbEntity
  8
Default
  6
Continuous
 62
     7
 48
25.4
100
AcDbHatch
 10
0.0
 20
0.0
 30
0.0
210
0.0
220
0.0
230
1.0
  2
SOLID
 70
     1
 71
     0
 91
        1
 92
        1
 93
        3
 72
     1
 10
272.1763934764224
 20
336.1549144976511
 11
271.5097267780907
 21
340.1549146876409
 72
     1
 10
271.5097267780907
 20
340.1549146876409
 11
270.8430600797591
 21
336.1549144976511
 72
     1
 10
270.8430600797591
 20
336.1549144976511
 11
272.1763934764224
 21
336.1549144976511
 97
        0
 75
     0
 76
     1
 98
        0
  0
LWPOLYLINE
  5
399
330
394
100
AcDbEntity
  8
Default
  6
Continuous
 62
     7
 48
25.4
370
    20
100
AcDbPolyline
 90
        4
 70
     1
 43
0.0
 10
272.1763934764
 20
336.1549144977
 10
271.5097267781
 20
340.1549146876
 10
270.8430600798
 20
336.1549144977
 10
272.1763934764
 20
336.1549144977
  0
LINE
  5
39A
330
394
100
AcDbEntity
  8
Default
  6
Continuous
 62
     7
 48
25.4
100
AcDbLine
 10
257.5569555764
 20
296.4049154327
 30
0.0
 11
273.5097268731
 21
296.4049154327
 31
0.0
  0
LINE
  5
39B
330
394
100
AcDbEntity
  8
Default
  6
Continuous
 62
     7
 48
25.4
100
AcDbLine
 10
219.4411812912
 20
340.1549154327
 30
0.0
 11
273.5097268731
 21
340.1549154327
 31
0.0
  0
LINE
  5
39C
330
394
100
AcDbEntity
  8
Default
  6
Continuous
 62
     7
 48
25.4
100
AcDbLine
 10
271.5097267781
 20
265.7743418024
 30
0.0
 11
271.5097267781
 21
340.1549146876
 31
0.0
  0
TEXT
  5
39D
330
394
100
AcDbEntity
  8
Default
  6
Continuous
 62
     7
 48
25.4
100
AcDbText
 10
264.5097267781
 20
281.8873856206
 30
0.0
 40
4.0
  1
62.5
 50
90.0
  7
SEACAD_arial_ttf
 11
260.5097267781
 21
281.8873856206
 31
0.0
100
AcDbText
 73
     3
  0
TEXT
  5
39E
330
394
100
AcDbEntity
  8
Default
  6
Continuous
 62
     7
 48
25.4
100
AcDbText
 10
264.5097267781
 20
267.1743421423
 30
0.0
 40
4.0
  1
MAX
 50
90.0
  7
SEACAD_arial_ttf
 11
260.5097267781
 21
267.1743421423
 31
0.0
100
AcDbText
 73
     3
  0
TEXT
  5
39F
330
394
100
AcDbEntity
  8
Default
  6
Continuous
 62
     7
 48
25.4
100
AcDbText
 10
270.5097267781
 20
267.1743421423
 30
0.0
 40
4.0
  1
MIN 47.5
 50
90.0
  7
SEACAD_arial_ttf
 11
266.5097267781
 21
267.1743421423
 31
0.0
100
AcDbText
 73
     3
  0
ENDBLK
  5
3A1
330
394
100
AcDbEntity
  8
0
100
AcDbBlockEnd
  0
BLOCK
  5
3AE
330
3A2
100
AcDbEntity
  8
0
100
AcDbBlockBegin
  2
GDimGGroup18
 70
     0
 71
     0
 10
0.0
 20
0.0
 30
0.0
  3
GDimGGroup18
  1

  0
HATCH
  5
3A4
330
3A2
100
AcDbEntity
  8
Default
  6
Continuous
 62
     7
 48
25.4
100
AcDbHatch
 10
0.0
 20
0.0
 30
0.0
210
0.0
220
0.0
230
1.0
  2
SOLID
 70
     1
 71
     0
 91
        1
 92
        1
 93
        3
 72
     1
 10
294.537298878837
 20
336.1549152427091
 11
293.8706321805054
 21
340.1549154326989
 72
     1
 10
293.8706321805054
 20
340.1549154326989
 11
293.2039654821737
 21
336.1549152427091
 72
     1
 10
293.2039654821737
 20
336.1549152427091
 11
294.537298878837
 21
336.1549152427091
 97
        0
 75
     0
 76
     1
 98
        0
  0
LWPOLYLINE
  5
3A5
330
3A2
100
AcDbEntity
  8
Default
  6
Continuous
 62
     7
 48
25.4
370
    20
100
AcDbPolyline
 90
        4
 70
     1
 43
0.0
 10
294.5372988788
 20
336.1549152427
 10
293.8706321805
 20
340.1549154327
 10
293.2039654822
 20
336.1549152427
 10
294.5372988788
 20
336.1549152427
  0
HATCH
  5
3A6
330
3A2
100
AcDbEntity
  8
Default
  6
Continuous
 62
     7
 48
25.4
100
AcDbHatch
 10
0.0
 20
0.0
 30
0.0
210
0.0
220
0.0
230
1.0
  2
SOLID
 70
     1
 71
     0
 91
        1
 92
        1
 93
        3
 72
     1
 10
294.537298878837
 20
351.507871867568
 11
293.2039654821737
 21
351.507871867568
 72
     1
 10
293.2039654821737
 20
351.507871867568
 11
293.8706321805054
 21
347.5078716775782
 72
     1
 10
293.8706321805054
 20
347.5078716775782
 11
294.537298878837
 21
351.507871867568
 97
        0
 75
     0
 76
     1
 98
        0
  0
LWPOLYLINE
  5
3A7
330
3A2
100
AcDbEntity
  8
Default
  6
Continuous
 62
     7
 48
25.4
370
    20
100
AcDbPolyline
 90
        4
 70
     1
 43
0.0
 10
294.5372988788
 20
351.5078718676
 10
293.8706321805
 20
347.5078716776
 10
293.2039654822
 20
351.5078718676
 10
294.5372988788
 20
351.5078718676
  0
LINE
  5
3A8
330
3A2
100
AcDbEntity
  8
Default
  6
Continuous
 62
     7
 48
25.4
100
AcDbLine
 10
220.1411812497
 20
340.1549154327
 30
0.0
 11
295.8706322755
 21
340.1549154327
 31
0.0
  0
LINE
  5
3A9
330
3A2
100
AcDbEntity
  8
Default
  6
Continuous
 62
     7
 48
25.4
100
AcDbLine
 10
253.565234984
 20
347.5078716776
 30
0.0
 11
295.8706322755
 21
347.5078716776
 31
0.0
  0
LINE
  5
3AA
330
3A2
100
AcDbEntity
  8
Default
  6
Continuous
 62
     7
 48
25.4
100
AcDbLine
 10
293.8706321805
 20
278.3793614612
 30
0.0
 11
293.8706321805
 21
355.507871452
 31
0.0
  0
TEXT
  5
3AB
330
3A2
100
AcDbEntity
  8
Default
  6
Continuous
 62
     7
 48
25.4
100
AcDbText
 10
286.8706321805
 20
294.4924052762
 30
0.0
 40
4.0
  1
26.25
 50
90.0
  7
SEACAD_arial_ttf
 11
282.8706321805
 21
294.4924052762
 31
0.0
100
AcDbText
 73
     3
  0
TEXT
  5
3AC
330
3A2
100
AcDbEntity
  8
Default
  6
Continuous
 62
     7
 48
25.4
100
AcDbText
 10
286.8706321805
 20
279.7793617979
 30
0.0
 40
4.0
  1
MAX
 50
90.0
  7
SEACAD_arial_ttf
 11
282.8706321805
 21
279.7793617979
 31
0.0
100
AcDbText
 73
     3
  0
TEXT
  5
3AD
330
3A2
100
AcDbEntity
  8
Default
  6
Continuous
 62
     7
 48
25.4
100
AcDbText
 10
292.8706321805
 20
279.7793617979
 30
0.0
 40
4.0
  1
MIN 11.25
 50
90.0
  7
SEACAD_arial_ttf
 11
288.8706321805
 21
279.7793617979
 31
0.0
100
AcDbText
 73
     3
  0
ENDBLK
  5
3AF
330
3A2
100
AcDbEntity
  8
0
100
AcDbBlockEnd
  0
BLOCK
  5
3BA
330
3B0
100
AcDbEntity
  8
0
100
AcDbBlockBegin
  2
GDimGGroup19
 70
     0
 71
     0
 10
0.0
 20
0.0
 30
0.0
  3
GDimGGroup19
  1

  0
HATCH
  5
3B2
330
3B0
100
AcDbEntity
  8
Default
  6
Continuous
 62
     7
 48
25.4
100
AcDbHatch
 10
0.0
 20
0.0
 30
0.0
210
0.0
220
0.0
230
1.0
  2
SOLID
 70
     1
 71
     0
 91
        1
 92
        1
 93
        3
 72
     1
 10
245.5411810971135
 20
401.3841237524819
 11
245.5411810971135
 21
400.0507903558186
 72
     1
 10
245.5411810971135
 20
400.0507903558186
 11
249.5411812871033
 21
400.7174570541502
 72
     1
 10
249.5411812871033
 20
400.7174570541502
 11
245.5411810971135
 21
401.3841237524819
 97
        0
 75
     0
 76
     1
 98
        0
  0
LWPOLYLINE
  5
3B3
330
3B0
100
AcDbEntity
  8
Default
  6
Continuous
 62
     7
 48
25.4
370
    20
100
AcDbPolyline
 90
        4
 70
     1
 43
0.0
 10
245.5411810971
 20
401.3841237525
 10
249.5411812871
 20
400.7174570542
 10
245.5411810971
 20
400.0507903558
 10
245.5411810971
 20
401.3841237525
  0
HATCH
  5
3B4
330
3B0
100
AcDbEntity
  8
Default
  6
Continuous
 62
     7
 48
25.4
100
AcDbHatch
 10
0.0
 20
0.0
 30
0.0
210
0.0
220
0.0
230
1.0
  2
SOLID
 70
     1
 71
     0
 91
        1
 92
        1
 93
        3
 72
     1
 10
223.4411823175186
 20
401.3841237524819
 11
219.4411821275288
 21
400.7174570541502
 72
     1
 10
219.4411821275288
 20
400.7174570541502
 11
223.4411823175186
 21
400.0507903558186
 72
     1
 10
223.4411823175186
 20
400.0507903558186
 11
223.4411823175186
 21
401.3841237524819
 97
        0
 75
     0
 76
     1
 98
        0
  0
LWPOLYLINE
  5
3B5
330
3B0
100
AcDbEntity
  8
Default
  6
Continuous
 62
     7
 48
25.4
370
    20
100
AcDbPolyline
 90
        4
 70
     1
 43
0.0
 10
223.4411823175
 20
401.3841237525
 10
219.4411821275
 20
400.7174570542
 10
223.4411823175
 20
400.0507903558
 10
223.4411823175
 20
401.3841237525
  0
LINE
  5
3B6
330
3B0
100
AcDbEntity
  8
Default
  6
Continuous
 62
     7
 48
25.4
100
AcDbLine
 10
249.5411812871
 20
389.5080287438
 30
0.0
 11
249.5411812871
 21
402.7174571491
 31
0.0
  0
LINE
  5
3B7
330
3B0
100
AcDbEntity
  8
Default
  6
Continuous
 62
     7
 48
25.4
100
AcDbLine
 10
219.4411812871
 20
383.9049154327
 30
0.0
 11
219.4411812871
 21
402.7174571491
 31
0.0
  0
LINE
  5
3B8
330
3B0
100
AcDbEntity
  8
Default
  6
Continuous
 62
     7
 48
25.4
100
AcDbLine
 10
249.5411812871
 20
400.7174570542
 30
0.0
 11
219.4411821275
 21
400.7174570542
 31
0.0
  0
TEXT
  5
3B9
330
3B0
100
AcDbEntity
  8
Default
  6
Continuous
 62
     7
 48
25.4
100
AcDbText
 10
231.3607469247
 20
401.7174570542
 30
0.0
 40
4.0
  1
43
  7
SEACAD_arial_ttf
 11
231.3607469247
 21
405.7174570542
 31
0.0
100
AcDbText
 73
     3
  0
ENDBLK
  5
3BB
330
3B0
100
AcDbEntity
  8
0
100
AcDbBlockEnd
  0
BLOCK
  5
3C7
330
3BC
100
AcDbEntity
  8
0
100
AcDbBlockBegin
  2
GDimGGroup20
 70
     0
 71
     0
 10
0.0
 20
0.0
 30
0.0
  3
GDimGGroup20
  1

  0
HATCH
  5
3BE
330
3BC
100
AcDbEntity
  8
Default
  6
Continuous
 62
     7
 48
25.4
100
AcDbHatch
 10
0.0
 20
0.0
 30
0.0
210
0.0
220
0.0
230
1.0
  2
SOLID
 70
     1
 71
     0
 91
        1
 92
        1
 93
        3
 72
     1
 10
75.76958560102209
 20
264.6760205373514
 11
76.43625229935373
 21
260.6760203473616
 72
     1
 10
76.43625229935373
 20
260.6760203473616
 11
77.10291899768536
 21
264.6760205373514
 72
     1
 10
77.10291899768536
 20
264.6760205373514
 11
75.76958560102209
 21
264.6760205373514
 97
        0
 75
     0
 76
     1
 98
        0
  0
LWPOLYLINE
  5
3BF
330
3BC
100
AcDbEntity
  8
Default
  6
Continuous
 62
     7
 48
25.4
370
    20
100
AcDbPolyline
 90
        4
 70
     1
 43
0.0
 10
75.769585601
 20
264.6760205374
 10
76.4362522994
 20
260.6760203474
 10
77.1029189977
 20
264.6760205374
 10
75.769585601
 20
264.6760205374
  0
HATCH
  5
3C0
330
3BC
100
AcDbEntity
  8
Default
  6
Continuous
 62
     7
 48
25.4
100
AcDbHatch
 10
0.0
 20
0.0
 30
0.0
210
0.0
220
0.0
230
1.0
  2
SOLID
 70
     1
 71
     0
 91
        1
 92
        1
 93
        3
 72
     1
 10
75.76958560102209
 20
328.1338085055697
 11
77.10291899768536
 21
328.1338085055697
 72
     1
 10
77.10291899768536
 20
328.1338085055697
 11
76.43625229935373
 21
332.1338086955595
 72
     1
 10
76.43625229935373
 20
332.1338086955595
 11
75.76958560102209
 21
328.1338085055697
 97
        0
 75
     0
 76
     1
 98
        0
  0
LWPOLYLINE
  5
3C1
330
3BC
100
AcDbEntity
  8
Default
  6
Continuous
 62
     7
 48
25.4
370
    20
100
AcDbPolyline
 90
        4
 70
     1
 43
0.0
 10
75.769585601
 20
328.1338085056
 10
76.4362522994
 20
332.1338086956
 10
77.1029189977
 20
328.1338085056
 10
75.769585601
 20
328.1338085056
  0
LINE
  5
3C2
330
3BC
100
AcDbEntity
  8
Default
  6
Continuous
 62
     7
 48
25.4
100
AcDbLine
 10
141.3911962543
 20
260.6760203474
 30
0.0
 11
74.4362522044
 21
260.6760203474
 31
0.0
  0
LINE
  5
3C3
330
3BC
100
AcDbEntity
  8
Default
  6
Continuous
 62
     7
 48
25.4
100
AcDbLine
 10
147.3746236803
 20
332.133810518
 30
0.0
 11
74.4362522044
 21
332.133810518
 31
0.0
  0
LINE
  5
3C4
330
3BC
100
AcDbEntity
  8
Default
  6
Continuous
 62
     7
 48
25.4
100
AcDbLine
 10
76.4362522994
 20
260.6760203474
 30
0.0
 11
76.4362522994
 21
332.1338086956
 31
0.0
  0
TEXT
  5
3C5
330
3BC
100
AcDbEntity
  8
Default
  6
Continuous
 62
     7
 48
25.4
100
AcDbText
 10
75.4362522994
 20
295.3899641019
 30
0.0
 40
4.0
  1
102
 50
90.0
  7
SEACAD_arial_ttf
 11
71.4362522994
 21
295.3899641019
 31
0.0
100
AcDbText
 73
     3
  0
TEXT
  5
3C6
330
3BC
100
AcDbEntity
  8
Default
  6
Continuous
 62
     7
 48
25.4
100
AcDbText
 10
75.4362522994
 20
288.0285605932
 30
0.0
 40
4.0
  1
O
 50
90.0
  7
SEACAD_semeca1_ttf
 11
71.4362522994
 21
288.0285605932
 31
0.0
100
AcDbText
 73
     3
  0
ENDBLK
  5
3C8
330
3BC
100
AcDbEntity
  8
0
100
AcDbBlockEnd
  0
BLOCK
  5
3D3
330
3C9
100
AcDbEntity
  8
0
100
AcDbBlockBegin
  2
GDimGGroup21
 70
     0
 71
     0
 10
0.0
 20
0.0
 30
0.0
  3
GDimGGroup21
  1

  0
HATCH
  5
3CB
330
3C9
100
AcDbEntity
  8
Default
  6
Continuous
 62
     7
 48
25.4
100
AcDbHatch
 10
0.0
 20
0.0
 30
0.0
210
0.0
220
0.0
230
1.0
  2
SOLID
 70
     1
 71
     0
 91
        1
 92
        1
 93
        3
 72
     1
 10
127.5411964442882
 20
307.5369068361942
 11
123.5411962542984
 21
306.8702401378625
 72
     1
 10
123.5411962542984
 20
306.8702401378625
 11
127.5411964442882
 21
306.2035734395309
 72
     1
 10
127.5411964442882
 20
306.2035734395309
 11
127.5411964442882
 21
307.5369068361942
 97
        0
 75
     0
 76
     1
 98
        0
  0
LWPOLYLINE
  5
3CC
330
3C9
100
AcDbEntity
  8
Default
  6
Continuous
 62
     7
 48
25.4
370
    20
100
AcDbPolyline
 90
        4
 70
     1
 43
0.0
 10
127.5411964443
 20
307.5369068362
 10
123.5411962543
 20
306.8702401379
 10
127.5411964443
 20
306.2035734395
 10
127.5411964443
 20
307.5369068362
  0
HATCH
  5
3CD
330
3C9
100
AcDbEntity
  8
Default
  6
Continuous
 62
     7
 48
25.4
100
AcDbHatch
 10
0.0
 20
0.0
 30
0.0
210
0.0
220
0.0
230
1.0
  2
SOLID
 70
     1
 71
     0
 91
        1
 92
        1
 93
        3
 72
     1
 10
132.8411958229098
 20
307.5369068361942
 11
132.8411958229098
 21
306.2035734395309
 72
     1
 10
132.8411958229098
 20
306.2035734395309
 11
136.8411960128996
 21
306.8702401378625
 72
     1
 10
136.8411960128996
 20
306.8702401378625
 11
132.8411958229098
 21
307.5369068361942
 97
        0
 75
     0
 76
     1
 98
        0
  0
LWPOLYLINE
  5
3CE
330
3C9
100
AcDbEntity
  8
Default
  6
Continuous
 62
     7
 48
25.4
370
    20
100
AcDbPolyline
 90
        4
 70
     1
 43
0.0
 10
132.8411958229
 20
307.5369068362
 10
136.8411960129
 20
306.8702401379
 10
132.8411958229
 20
306.2035734395
 10
132.8411958229
 20
307.5369068362
  0
LINE
  5
3CF
330
3C9
100
AcDbEntity
  8
Default
  6
Continuous
 62
     7
 48
25.4
100
AcDbLine
 10
98.4382940505
 20
306.8702401379
 30
0.0
 11
136.8411960129
 21
306.8702401379
 31
0.0
  0
TEXT
  5
3D0
330
3C9
100
AcDbEntity
  8
Default
  6
Continuous
 62
     7
 48
25.4
100
AcDbText
 10
114.5513369421
 20
313.8702401379
 30
0.0
 40
4.0
  1
19
  7
SEACAD_arial_ttf
 11
114.5513369421
 21
317.8702401379
 31
0.0
100
AcDbText
 73
     3
  0
TEXT
  5
3D1
330
3C9
100
AcDbEntity
  8
Default
  6
Continuous
 62
     7
 48
25.4
100
AcDbText
 10
99.8382934638
 20
313.8702401379
 30
0.0
 40
4.0
  1
MAX
  7
SEACAD_arial_ttf
 11
99.8382934638
 21
317.8702401379
 31
0.0
100
AcDbText
 73
     3
  0
TEXT
  5
3D2
330
3C9
100
AcDbEntity
  8
Default
  6
Continuous
 62
     7
 48
25.4
100
AcDbText
 10
99.8382934638
 20
307.8702401379
 30
0.0
 40
4.0
  1
MIN -3
  7
SEACAD_arial_ttf
 11
99.8382934638
 21
311.8702401379
 31
0.0
100
AcDbText
 73
     3
  0
ENDBLK
  5
3D4
330
3C9
100
AcDbEntity
  8
0
100
AcDbBlockEnd
  0
BLOCK
  5
3DD
330
3D5
100
AcDbEntity
  8
0
100
AcDbBlockBegin
  2
GDimGGroup22
 70
     0
 71
     0
 10
0.0
 20
0.0
 30
0.0
  3
GDimGGroup22
  1

  0
HATCH
  5
3D7
330
3D5
100
AcDbEntity
  8
Default
  6
Continuous
 62
     7
 48
25.4
100
AcDbHatch
 10
0.0
 20
0.0
 30
0.0
210
0.0
220
0.0
230
1.0
  2
SOLID
 70
     1
 71
     0
 91
        1
 92
        1
 93
        3
 72
     1
 10
140.8411964442881
 20
277.4231134677355
 11
140.8411964442881
 21
278.7564468643988
 72
     1
 10
140.8411964442881
 20
278.7564468643988
 11
136.8411962542983
 21
278.0897801660671
 72
     1
 10
136.8411962542983
 20
278.0897801660671
 11
140.8411964442881
 21
277.4231134677355
 97
        0
 75
     0
 76
     1
 98
        0
  0
LWPOLYLINE
  5
3D8
330
3D5
100
AcDbEntity
  8
Default
  6
Continuous
 62
     7
 48
25.4
370
    20
100
AcDbPolyline
 90
        4
 70
     1
 43
0.0
 10
140.8411964443
 20
277.4231134677
 10
136.8411962543
 20
278.0897801661
 10
140.8411964443
 20
278.7564468644
 10
140.8411964443
 20
277.4231134677
  0
HATCH
  5
3D9
330
3D5
100
AcDbEntity
  8
Default
  6
Continuous
 62
     7
 48
25.4
100
AcDbHatch
 10
0.0
 20
0.0
 30
0.0
210
0.0
220
0.0
230
1.0
  2
SOLID
 70
     1
 71
     0
 91
        1
 92
        1
 93
        3
 72
     1
 10
160.8411969285759
 20
277.4231134677355
 11
164.8411971185657
 21
278.0897801660671
 72
     1
 10
164.8411971185657
 20
278.0897801660671
 11
160.8411969285759
 21
278.7564468643988
 72
     1
 10
160.8411969285759
 20
278.7564468643988
 11
160.8411969285759
 21
277.4231134677355
 97
        0
 75
     0
 76
     1
 98
        0
  0
LWPOLYLINE
  5
3DA
330
3D5
100
AcDbEntity
  8
Default
  6
Continuous
 62
     7
 48
25.4
370
    20
100
AcDbPolyline
 90
        4
 70
     1
 43
0.0
 10
160.8411969286
 20
277.4231134677
 10
164.8411971186
 20
278.0897801661
 10
160.8411969286
 20
278.7564468644
 10
160.8411969286
 20
277.4231134677
  0
LINE
  5
3DB
330
3D5
100
AcDbEntity
  8
Default
  6
Continuous
 62
     7
 48
25.4
100
AcDbLine
 10
112.9885163758
 20
278.0897801661
 30
0.0
 11
164.8411971186
 21
278.0897801661
 31
0.0
  0
TEXT
  5
3DC
330
3D5
100
AcDbEntity
  8
Default
  6
Continuous
 62
     7
 48
25.4
100
AcDbText
 10
114.3885167353
 20
279.0897801661
 30
0.0
 40
4.0
  1
40
  7
SEACAD_arial_ttf
 11
114.3885167353
 21
283.0897801661
 31
0.0
100
AcDbText
 73
     3
  0
ENDBLK
  5
3DE
330
3D5
100
AcDbEntity
  8
0
100
AcDbBlockEnd
  0
BLOCK
  5
3EA
330
3DF
100
AcDbEntity
  8
0
100
AcDbBlockBegin
  2
GDimGGroup23
 70
     0
 71
     0
 10
0.0
 20
0.0
 30
0.0
  3
GDimGGroup23
  1

  0
HATCH
  5
3E1
330
3DF
100
AcDbEntity
  8
Default
  6
Continuous
 62
     7
 48
25.4
100
AcDbHatch
 10
0.0
 20
0.0
 30
0.0
210
0.0
220
0.0
230
1.0
  2
SOLID
 70
     1
 71
     0
 91
        1
 92
        1
 93
        3
 72
     1
 10
57.62673308007943
 20
263.1736656226888
 11
58.29339977841106
 21
259.173665432699
 72
     1
 10
58.29339977841106
 20
259.173665432699
 11
58.9600664767427
 21
263.1736656226888
 72
     1
 10
58.9600664767427
 20
263.1736656226888
 11
57.62673308007943
 21
263.1736656226888
 97
        0
 75
     0
 76
     1
 98
        0
  0
LWPOLYLINE
  5
3E2
330
3DF
100
AcDbEntity
  8
Default
  6
Continuous
 62
     7
 48
25.4
370
    20
100
AcDbPolyline
 90
        4
 70
     1
 43
0.0
 10
57.6267330801
 20
263.1736656227
 10
58.2933997784
 20
259.1736654327
 10
58.9600664767
 20
263.1736656227
 10
57.6267330801
 20
263.1736656227
  0
HATCH
  5
3E3
330
3DF
100
AcDbEntity
  8
Default
  6
Continuous
 62
     7
 48
25.4
100
AcDbHatch
 10
0.0
 20
0.0
 30
0.0
210
0.0
220
0.0
230
1.0
  2
SOLID
 70
     1
 71
     0
 91
        1
 92
        1
 93
        3
 72
     1
 10
57.62673308007943
 20
329.6361684375181
 11
58.9600664767427
 21
329.6361684375181
 72
     1
 10
58.9600664767427
 20
329.6361684375181
 11
58.29339977841106
 21
333.6361686275079
 72
     1
 10
58.29339977841106
 20
333.6361686275079
 11
57.62673308007943
 21
329.6361684375181
 97
        0
 75
     0
 76
     1
 98
        0
  0
LWPOLYLINE
  5
3E4
330
3DF
100
AcDbEntity
  8
Default
  6
Continuous
 62
     7
 48
25.4
370
    20
100
AcDbPolyline
 90
        4
 70
     1
 43
0.0
 10
57.6267330801
 20
329.6361684375
 10
58.2933997784
 20
333.6361686275
 10
58.9600664767
 20
329.6361684375
 10
57.6267330801
 20
329.6361684375
  0
LINE
  5
3E5
330
3DF
100
AcDbEntity
  8
Default
  6
Continuous
 62
     7
 48
25.4
100
AcDbLine
 10
123.5411962543
 20
259.1736654327
 30
0.0
 11
56.2933996834
 21
259.1736654327
 31
0.0
  0
LINE
  5
3E6
330
3DF
100
AcDbEntity
  8
Default
  6
Continuous
 62
     7
 48
25.4
100
AcDbLine
 10
123.5411962543
 20
333.6361654327
 30
0.0
 11
56.2933996834
 21
333.6361654327
 31
0.0
  0
LINE
  5
3E7
330
3DF
100
AcDbEntity
  8
Default
  6
Continuous
 62
     7
 48
25.4
100
AcDbLine
 10
58.2933997784
 20
259.1736654327
 30
0.0
 11
58.2933997784
 21
333.6361686275
 31
0.0
  0
TEXT
  5
3E8
330
3DF
100
AcDbEntity
  8
Default
  6
Continuous
 62
     7
 48
25.4
100
AcDbText
 10
57.2933997784
 20
289.911705741
 30
0.0
 40
4.0
  1
106.375
 50
90.0
  7
SEACAD_arial_ttf
 11
53.2933997784
 21
289.911705741
 31
0.0
100
AcDbText
 73
     3
  0
TEXT
  5
3E9
330
3DF
100
AcDbEntity
  8
Default
  6
Continuous
 62
     7
 48
25.4
100
AcDbText
 10
57.2933997784
 20
282.5503022322
 30
0.0
 40
4.0
  1
O
 50
90.0
  7
SEACAD_semeca1_ttf
 11
53.2933997784
 21
282.5503022322
 31
0.0
100
AcDbText
 73
     3
  0
ENDBLK
  5
3EB
330
3DF
100
AcDbEntity
  8
0
100
AcDbBlockEnd
  0
BLOCK
  5
3F6
330
3EC
100
AcDbEntity
  8
0
100
AcDbBlockBegin
  2
GDimGGroup24
 70
     0
 71
     0
 10
0.0
 20
0.0
 30
0.0
  3
GDimGGroup24
  1

  0
HATCH
  5
3EE
330
3EC
100
AcDbEntity
  8
Default
  6
Continuous
 62
     7
 48
25.4
100
AcDbHatch
 10
0.0
 20
0.0
 30
0.0
210
0.0
220
0.0
230
1.0
  2
SOLID
 70
     1
 71
     0
 91
        1
 92
        1
 93
        3
 72
     1
 10
127.5411964442882
 20
180.551640307317
 11
127.5411964442882
 21
181.8849737039803
 72
     1
 10
127.5411964442882
 20
181.8849737039803
 11
123.5411962542984
 21
181.2183070056487
 72
     1
 10
123.5411962542984
 20
181.2183070056487
 11
127.5411964442882
 21
180.551640307317
 97
        0
 75
     0
 76
     1
 98
        0
  0
LWPOLYLINE
  5
3EF
330
3EC
100
AcDbEntity
  8
Default
  6
Continuous
 62
     7
 48
25.4
370
    20
100
AcDbPolyline
 90
        4
 70
     1
 43
0.0
 10
127.5411964443
 20
180.5516403073
 10
123.5411962543
 20
181.2183070056
 10
127.5411964443
 20
181.884973704
 10
127.5411964443
 20
180.5516403073
  0
HATCH
  5
3F0
330
3EC
100
AcDbEntity
  8
Default
  6
Continuous
 62
     7
 48
25.4
100
AcDbHatch
 10
0.0
 20
0.0
 30
0.0
210
0.0
220
0.0
230
1.0
  2
SOLID
 70
     1
 71
     0
 91
        1
 92
        1
 93
        3
 72
     1
 10
215.4411803048405
 20
180.551640307317
 11
219.4411804948303
 21
181.2183070056487
 72
     1
 10
219.4411804948303
 20
181.2183070056487
 11
215.4411803048405
 21
181.8849737039803
 72
     1
 10
215.4411803048405
 20
181.8849737039803
 11
215.4411803048405
 21
180.551640307317
 97
        0
 75
     0
 76
     1
 98
        0
  0
LWPOLYLINE
  5
3F1
330
3EC
100
AcDbEntity
  8
Default
  6
Continuous
 62
     7
 48
25.4
370
    20
100
AcDbPolyline
 90
        4
 70
     1
 43
0.0
 10
215.4411803048
 20
180.5516403073
 10
219.4411804948
 20
181.2183070056
 10
215.4411803048
 20
181.884973704
 10
215.4411803048
 20
180.5516403073
  0
LINE
  5
3F2
330
3EC
100
AcDbEntity
  8
Default
  6
Continuous
 62
     7
 48
25.4
100
AcDbLine
 10
123.5411962543
 20
220.0760203474
 30
0.0
 11
123.5411962543
 21
179.2183069107
 31
0.0
  0
LINE
  5
3F3
330
3EC
100
AcDbEntity
  8
Default
  6
Continuous
 62
     7
 48
25.4
100
AcDbLine
 10
219.4411812871
 20
208.9049154327
 30
0.0
 11
219.4411812871
 21
179.2183069107
 31
0.0
  0
LINE
  5
3F4
330
3EC
100
AcDbEntity
  8
Default
  6
Continuous
 62
     7
 48
25.4
100
AcDbLine
 10
123.5411962543
 20
181.2183070056
 30
0.0
 11
219.4411804948
 21
181.2183070056
 31
0.0
  0
TEXT
  5
3F5
330
3EC
100
AcDbEntity
  8
Default
  6
Continuous
 62
     7
 48
25.4
100
AcDbText
 10
166.7955362007
 20
182.2183070056
 30
0.0
 40
4.0
  1
137
  7
SEACAD_arial_ttf
 11
166.7955362007
 21
186.2183070056
 31
0.0
100
AcDbText
 73
     3
  0
ENDBLK
  5
3F7
330
3EC
100
AcDbEntity
  8
0
100
AcDbBlockEnd
  0
BLOCK
  5
402
330
3F8
100
AcDbEntity
  8
0
100
AcDbBlockBegin
  2
GDimGGroup25
 70
     0
 71
     0
 10
0.0
 20
0.0
 30
0.0
  3
GDimGGroup25
  1

  0
HATCH
  5
3FA
330
3F8
100
AcDbEntity
  8
Default
  6
Continuous
 62
     7
 48
25.4
100
AcDbHatch
 10
0.0
 20
0.0
 30
0.0
210
0.0
220
0.0
230
1.0
  2
SOLID
 70
     1
 71
     0
 91
        1
 92
        1
 93
        3
 72
     1
 10
119.5411960643086
 20
180.551640307317
 11
123.5411962542984
 21
181.2183070056487
 72
     1
 10
123.5411962542984
 20
181.2183070056487
 11
119.5411960643086
 21
181.8849737039803
 72
     1
 10
119.5411960643086
 20
181.8849737039803
 11
119.5411960643086
 21
180.551640307317
 97
        0
 75
     0
 76
     1
 98
        0
  0
LWPOLYLINE
  5
3FB
330
3F8
100
AcDbEntity
  8
Default
  6
Continuous
 62
     7
 48
25.4
370
    20
100
AcDbPolyline
 90
        4
 70
     1
 43
0.0
 10
119.5411960643
 20
180.5516403073
 10
123.5411962543
 20
181.2183070056
 10
119.5411960643
 20
181.884973704
 10
119.5411960643
 20
180.5516403073
  0
HATCH
  5
3FC
330
3F8
100
AcDbEntity
  8
Default
  6
Continuous
 62
     7
 48
25.4
100
AcDbHatch
 10
0.0
 20
0.0
 30
0.0
210
0.0
220
0.0
230
1.0
  2
SOLID
 70
     1
 71
     0
 91
        1
 92
        1
 93
        3
 72
     1
 10
114.5911960911307
 20
180.551640307317
 11
114.5911960911307
 21
181.8849737039803
 72
     1
 10
114.5911960911307
 20
181.8849737039803
 11
110.5911959011409
 21
181.2183070056487
 72
     1
 10
110.5911959011409
 20
181.2183070056487
 11
114.5911960911307
 21
180.551640307317
 97
        0
 75
     0
 76
     1
 98
        0
  0
LWPOLYLINE
  5
3FD
330
3F8
100
AcDbEntity
  8
Default
  6
Continuous
 62
     7
 48
25.4
370
    20
100
AcDbPolyline
 90
        4
 70
     1
 43
0.0
 10
114.5911960911
 20
180.5516403073
 10
110.5911959011
 20
181.2183070056
 10
114.5911960911
 20
181.884973704
 10
114.5911960911
 20
180.5516403073
  0
LINE
  5
3FE
330
3F8
100
AcDbEntity
  8
Default
  6
Continuous
 62
     7
 48
25.4
100
AcDbLine
 10
123.5411962543
 20
220.0760203474
 30
0.0
 11
123.5411962543
 21
179.2183069107
 31
0.0
  0
LINE
  5
3FF
330
3F8
100
AcDbEntity
  8
Default
  6
Continuous
 62
     7
 48
25.4
100
AcDbLine
 10
110.5911962543
 20
245.7519599178
 30
0.0
 11
110.5911962543
 21
179.2183069107
 31
0.0
  0
LINE
  5
400
330
3F8
100
AcDbEntity
  8
Default
  6
Continuous
 62
     7
 48
25.4
100
AcDbLine
 10
123.5411962543
 20
181.2183070056
 30
0.0
 11
110.5911959011
 21
181.2183070056
 31
0.0
  0
TEXT
  5
401
330
3F8
100
AcDbEntity
  8
Default
  6
Continuous
 62
     7
 48
25.4
100
AcDbText
 10
111.5879352082
 20
182.2183070056
 30
0.0
 40
4.0
  1
18.5
  7
SEACAD_arial_ttf
 11
111.5879352082
 21
186.2183070056
 31
0.0
100
AcDbText
 73
     3
  0
ENDBLK
  5
403
330
3F8
100
AcDbEntity
  8
0
100
AcDbBlockEnd
  0
BLOCK
  5
40E
330
404
100
AcDbEntity
  8
0
100
AcDbBlockBegin
  2
GDimGGroup26
 70
     0
 71
     0
 10
0.0
 20
0.0
 30
0.0
  3
GDimGGroup26
  1

  0
HATCH
  5
406
330
404
100
AcDbEntity
  8
Default
  6
Continuous
 62
     7
 48
25.4
100
AcDbHatch
 10
0.0
 20
0.0
 30
0.0
210
0.0
220
0.0
230
1.0
  2
SOLID
 70
     1
 71
     0
 91
        1
 92
        1
 93
        3
 72
     1
 10
137.0411960643086
 20
196.0537842542563
 11
141.0411962542984
 21
196.720450952588
 72
     1
 10
141.0411962542984
 20
196.720450952588
 11
137.0411960643086
 21
197.3871176509196
 72
     1
 10
137.0411960643086
 20
197.3871176509196
 11
137.0411960643086
 21
196.0537842542563
 97
        0
 75
     0
 76
     1
 98
        0
  0
LWPOLYLINE
  5
407
330
404
100
AcDbEntity
  8
Default
  6
Continuous
 62
     7
 48
25.4
370
    20
100
AcDbPolyline
 90
        4
 70
     1
 43
0.0
 10
137.0411960643
 20
196.0537842543
 10
141.0411962543
 20
196.7204509526
 10
137.0411960643
 20
197.3871176509
 10
137.0411960643
 20
196.0537842543
  0
HATCH
  5
408
330
404
100
AcDbEntity
  8
Default
  6
Continuous
 62
     7
 48
25.4
100
AcDbHatch
 10
0.0
 20
0.0
 30
0.0
210
0.0
220
0.0
230
1.0
  2
SOLID
 70
     1
 71
     0
 91
        1
 92
        1
 93
        3
 72
     1
 10
127.5411963697824
 20
196.0537842542563
 11
127.5411963697824
 21
197.3871176509196
 72
     1
 10
127.5411963697824
 20
197.3871176509196
 11
123.5411961797926
 21
196.720450952588
 72
     1
 10
123.5411961797926
 20
196.720450952588
 11
127.5411963697824
 21
196.0537842542563
 97
        0
 75
     0
 76
     1
 98
        0
  0
LWPOLYLINE
  5
409
330
404
100
AcDbEntity
  8
Default
  6
Continuous
 62
     7
 48
25.4
370
    20
100
AcDbPolyline
 90
        4
 70
     1
 43
0.0
 10
127.5411963698
 20
196.0537842543
 10
123.5411961798
 20
196.7204509526
 10
127.5411963698
 20
197.3871176509
 10
127.5411963698
 20
196.0537842543
  0
LINE
  5
40A
330
404
100
AcDbEntity
  8
Default
  6
Continuous
 62
     7
 48
25.4
100
AcDbLine
 10
141.0411962543
 20
224.9060215651
 30
0.0
 11
141.0411962543
 21
194.7204508576
 31
0.0
  0
LINE
  5
40B
330
404
100
AcDbEntity
  8
Default
  6
Continuous
 62
     7
 48
25.4
100
AcDbLine
 10
123.5411962543
 20
220.0760203474
 30
0.0
 11
123.5411962543
 21
194.7204508576
 31
0.0
  0
LINE
  5
40C
330
404
100
AcDbEntity
  8
Default
  6
Continuous
 62
     7
 48
25.4
100
AcDbLine
 10
141.0411962543
 20
196.7204509526
 30
0.0
 11
123.5411961798
 21
196.7204509526
 31
0.0
  0
TEXT
  5
40D
330
404
100
AcDbEntity
  8
Default
  6
Continuous
 62
     7
 48
25.4
100
AcDbText
 10
129.1607614344
 20
197.7204509526
 30
0.0
 40
4.0
  1
25
  7
SEACAD_arial_ttf
 11
129.1607614344
 21
201.7204509526
 31
0.0
100
AcDbText
 73
     3
  0
ENDBLK
  5
40F
330
404
100
AcDbEntity
  8
0
100
AcDbBlockEnd
  0
BLOCK
  5
41A
330
410
100
AcDbEntity
  8
0
100
AcDbBlockBegin
  2
GDimGGroup27
 70
     0
 71
     0
 10
0.0
 20
0.0
 30
0.0
  3
GDimGGroup27
  1

  0
HATCH
  5
412
330
410
100
AcDbEntity
  8
Default
  6
Continuous
 62
     7
 48
25.4
100
AcDbHatch
 10
0.0
 20
0.0
 30
0.0
210
0.0
220
0.0
230
1.0
  2
SOLID
 70
     1
 71
     0
 91
        1
 92
        1
 93
        3
 72
     1
 10
215.4411810971134
 20
195.1679475816015
 11
219.4411812871032
 21
195.8346142799332
 72
     1
 10
219.4411812871032
 20
195.8346142799332
 11
215.4411810971134
 21
196.5012809782648
 72
     1
 10
215.4411810971134
 20
196.5012809782648
 11
215.4411810971134
 21
195.1679475816015
 97
        0
 75
     0
 76
     1
 98
        0
  0
LWPOLYLINE
  5
413
330
410
100
AcDbEntity
  8
Default
  6
Continuous
 62
     7
 48
25.4
370
    20
100
AcDbPolyline
 90
        4
 70
     1
 43
0.0
 10
215.4411810971
 20
195.1679475816
 10
219.4411812871
 20
195.8346142799
 10
215.4411810971
 20
196.5012809783
 10
215.4411810971
 20
195.1679475816
  0
HATCH
  5
414
330
410
100
AcDbEntity
  8
Default
  6
Continuous
 62
     7
 48
25.4
100
AcDbHatch
 10
0.0
 20
0.0
 30
0.0
210
0.0
220
0.0
230
1.0
  2
SOLID
 70
     1
 71
     0
 91
        1
 92
        1
 93
        3
 72
     1
 10
206.6411820761197
 20
195.1679475816015
 11
206.6411820761197
 21
196.5012809782648
 72
     1
 10
206.6411820761197
 20
196.5012809782648
 11
202.6411818861299
 21
195.8346142799332
 72
     1
 10
202.6411818861299
 20
195.8346142799332
 11
206.6411820761197
 21
195.1679475816015
 97
        0
 75
     0
 76
     1
 98
        0
  0
LWPOLYLINE
  5
415
330
410
100
AcDbEntity
  8
Default
  6
Continuous
 62
     7
 48
25.4
370
    20
100
AcDbPolyline
 90
        4
 70
     1
 43
0.0
 10
206.6411820761
 20
195.1679475816
 10
202.6411818861
 20
195.8346142799
 10
206.6411820761
 20
196.5012809783
 10
206.6411820761
 20
195.1679475816
  0
LINE
  5
416
330
410
100
AcDbEntity
  8
Default
  6
Continuous
 62
     7
 48
25.4
100
AcDbLine
 10
219.4411812871
 20
208.9049154327
 30
0.0
 11
219.4411812871
 21
193.8346141849
 31
0.0
  0
LINE
  5
417
330
410
100
AcDbEntity
  8
Default
  6
Continuous
 62
     7
 48
25.4
100
AcDbLine
 10
202.6411812871
 20
227.5837787016
 30
0.0
 11
202.6411812871
 21
193.8346141849
 31
0.0
  0
LINE
  5
418
330
410
100
AcDbEntity
  8
Default
  6
Continuous
 62
     7
 48
25.4
100
AcDbLine
 10
219.4411812871
 20
195.8346142799
 30
0.0
 11
202.6411818861
 21
195.8346142799
 31
0.0
  0
TEXT
  5
419
330
410
100
AcDbEntity
  8
Default
  6
Continuous
 62
     7
 48
25.4
100
AcDbText
 10
207.910746804
 20
196.8346142799
 30
0.0
 40
4.0
  1
24
  7
SEACAD_arial_ttf
 11
207.910746804
 21
200.8346142799
 31
0.0
100
AcDbText
 73
     3
  0
ENDBLK
  5
41B
330
410
100
AcDbEntity
  8
0
100
AcDbBlockEnd
  0
BLOCK
  5
426
330
41C
100
AcDbEntity
  8
0
100
AcDbBlockBegin
  2
GDimGGroup28
 70
     0
 71
     0
 10
0.0
 20
0.0
 30
0.0
  3
GDimGGroup28
  1

  0
HATCH
  5
41E
330
41C
100
AcDbEntity
  8
Default
  6
Continuous
 62
     7
 48
25.4
100
AcDbHatch
 10
0.0
 20
0.0
 30
0.0
210
0.0
220
0.0
230
1.0
  2
SOLID
 70
     1
 71
     0
 91
        1
 92
        1
 93
        3
 72
     1
 10
145.0411964442882
 20
212.1245897442733
 11
145.0411964442882
 21
213.4579231409365
 72
     1
 10
145.0411964442882
 20
213.4579231409365
 11
141.0411962542984
 21
212.7912564426049
 72
     1
 10
141.0411962542984
 20
212.7912564426049
 11
145.0411964442882
 21
212.1245897442733
 97
        0
 75
     0
 76
     1
 98
        0
  0
LWPOLYLINE
  5
41F
330
41C
100
AcDbEntity
  8
Default
  6
Continuous
 62
     7
 48
25.4
370
    20
100
AcDbPolyline
 90
        4
 70
     1
 43
0.0
 10
145.0411964443
 20
212.1245897443
 10
141.0411962543
 20
212.7912564426
 10
145.0411964443
 20
213.4579231409
 10
145.0411964443
 20
212.1245897443
  0
HATCH
  5
420
330
41C
100
AcDbEntity
  8
Default
  6
Continuous
 62
     7
 48
25.4
100
AcDbHatch
 10
0.0
 20
0.0
 30
0.0
210
0.0
220
0.0
230
1.0
  2
SOLID
 70
     1
 71
     0
 91
        1
 92
        1
 93
        3
 72
     1
 10
133.5411960643086
 20
212.1245897442733
 11
137.5411962542984
 21
212.7912564426049
 72
     1
 10
137.5411962542984
 20
212.7912564426049
 11
133.5411960643086
 21
213.4579231409365
 72
     1
 10
133.5411960643086
 20
213.4579231409365
 11
133.5411960643086
 21
212.1245897442733
 97
        0
 75
     0
 76
     1
 98
        0
  0
LWPOLYLINE
  5
421
330
41C
100
AcDbEntity
  8
Default
  6
Continuous
 62
     7
 48
25.4
370
    20
100
AcDbPolyline
 90
        4
 70
     1
 43
0.0
 10
133.5411960643
 20
212.1245897443
 10
137.5411962543
 20
212.7912564426
 10
133.5411960643
 20
213.4579231409
 10
133.5411960643
 20
212.1245897443
  0
LINE
  5
422
330
41C
100
AcDbEntity
  8
Default
  6
Continuous
 62
     7
 48
25.4
100
AcDbLine
 10
141.0411962543
 20
224.9060215651
 30
0.0
 11
141.0411962543
 21
210.7912563476
 31
0.0
  0
LINE
  5
423
330
41C
100
AcDbEntity
  8
Default
  6
Continuous
 62
     7
 48
25.4
100
AcDbLine
 10
137.5411962543
 20
219.3760203474
 30
0.0
 11
137.5411962543
 21
210.7912563476
 31
0.0
  0
LINE
  5
424
330
41C
100
AcDbEntity
  8
Default
  6
Continuous
 62
     7
 48
25.4
100
AcDbLine
 10
151.7877823908
 20
212.7912564426
 30
0.0
 11
129.5411962319
 21
212.7912564426
 31
0.0
  0
TEXT
  5
425
330
41C
100
AcDbEntity
  8
Default
  6
Continuous
 62
     7
 48
25.4
100
AcDbText
 10
147.2573474784
 20
213.7912564426
 30
0.0
 40
4.0
  1
5
  7
SEACAD_arial_ttf
 11
147.2573474784
 21
217.7912564426
 31
0.0
100
AcDbText
 73
     3
  0
ENDBLK
  5
427
330
41C
100
AcDbEntity
  8
0
100
AcDbBlockEnd
  0
BLOCK
  5
433
330
428
100
AcDbEntity
  8
0
100
AcDbBlockBegin
  2
GDimGGroup29
 70
     0
 71
     0
 10
0.0
 20
0.0
 30
0.0
  3
GDimGGroup29
  1

  0
HATCH
  5
42A
330
428
100
AcDbEntity
  8
Default
  6
Continuous
 62
     7
 48
25.4
100
AcDbHatch
 10
0.0
 20
0.0
 30
0.0
210
0.0
220
0.0
230
1.0
  2
SOLID
 70
     1
 71
     0
 91
        1
 92
        1
 93
        3
 72
     1
 10
234.9082128105644
 20
231.58377857526
 11
233.5748794139011
 21
231.58377857526
 72
     1
 10
233.5748794139011
 20
231.58377857526
 11
234.2415461122328
 21
227.5837783852702
 72
     1
 10
234.2415461122328
 20
227.5837783852702
 11
234.9082128105644
 21
231.58377857526
 97
        0
 75
     0
 76
     1
 98
        0
  0
LWPOLYLINE
  5
42B
330
428
100
AcDbEntity
  8
Default
  6
Continuous
 62
     7
 48
25.4
370
    20
100
AcDbPolyline
 90
        4
 70
     1
 43
0.0
 10
234.9082128106
 20
231.5837785753
 10
234.2415461122
 20
227.5837783853
 10
233.5748794139
 20
231.5837785753
 10
234.9082128106
 20
231.5837785753
  0
HATCH
  5
42C
330
428
100
AcDbEntity
  8
Default
  6
Continuous
 62
     7
 48
25.4
100
AcDbHatch
 10
0.0
 20
0.0
 30
0.0
210
0.0
220
0.0
230
1.0
  2
SOLID
 70
     1
 71
     0
 91
        1
 92
        1
 93
        3
 72
     1
 10
234.9082128105644
 20
241.1882621194633
 11
234.2415461122328
 21
245.1882623094531
 72
     1
 10
234.2415461122328
 20
245.1882623094531
 11
233.5748794139011
 21
241.1882621194633
 72
     1
 10
233.5748794139011
 20
241.1882621194633
 11
234.9082128105644
 21
241.1882621194633
 97
        0
 75
     0
 76
     1
 98
        0
  0
LWPOLYLINE
  5
42D
330
428
100
AcDbEntity
  8
Default
  6
Continuous
 62
     7
 48
25.4
370
    20
100
AcDbPolyline
 90
        4
 70
     1
 43
0.0
 10
234.9082128106
 20
241.1882621195
 10
234.2415461122
 20
245.1882623095
 10
233.5748794139
 20
241.1882621195
 10
234.9082128106
 20
241.1882621195
  0
LINE
  5
42E
330
428
100
AcDbEntity
  8
Default
  6
Continuous
 62
     7
 48
25.4
100
AcDbLine
 10
218.7411812871
 20
227.5837783853
 30
0.0
 11
236.2415462072
 21
227.5837783853
 31
0.0
  0
LINE
  5
42F
330
428
100
AcDbEntity
  8
Default
  6
Continuous
 62
     7
 48
25.4
100
AcDbLine
 10
218.7411812871
 20
245.1882623095
 30
0.0
 11
236.2415462072
 21
245.1882623095
 31
0.0
  0
LINE
  5
430
330
428
100
AcDbEntity
  8
Default
  6
Continuous
 62
     7
 48
25.4
100
AcDbLine
 10
234.2415461122
 20
227.5837783853
 30
0.0
 11
234.2415461122
 21
263.4598178009
 31
0.0
  0
TEXT
  5
431
330
428
100
AcDbEntity
  8
Default
  6
Continuous
 62
     7
 48
25.4
100
AcDbText
 10
233.2415461122
 20
255.7989495811
 30
0.0
 40
4.0
  1
25
 50
90.0
  7
SEACAD_arial_ttf
 11
229.2415461122
 21
255.7989495811
 31
0.0
100
AcDbText
 73
     3
  0
TEXT
  5
432
330
428
100
AcDbEntity
  8
Default
  6
Continuous
 62
     7
 48
25.4
100
AcDbText
 10
233.2415461122
 20
248.4375460724
 30
0.0
 40
4.0
  1
O
 50
90.0
  7
SEACAD_semeca1_ttf
 11
229.2415461122
 21
248.4375460724
 31
0.0
100
AcDbText
 73
     3
  0
ENDBLK
  5
434
330
428
100
AcDbEntity
  8
0
100
AcDbBlockEnd
  0
BLOCK
  5
441
330
435
100
AcDbEntity
  8
0
100
AcDbBlockBegin
  2
GDimGGroup30
 70
     0
 71
     0
 10
0.0
 20
0.0
 30
0.0
  3
GDimGGroup30
  1

  0
HATCH
  5
437
330
435
100
AcDbEntity
  8
Default
  6
Continuous
 62
     7
 48
25.4
100
AcDbHatch
 10
0.0
 20
0.0
 30
0.0
210
0.0
220
0.0
230
1.0
  2
SOLID
 70
     1
 71
     0
 91
        1
 92
        1
 93
        3
 72
     1
 10
58.67077561332032
 20
345.6499678397806
 11
58.72086021495711
 21
341.595101930868
 72
     1
 10
58.72086021495711
 20
341.595101930868
 11
59.98857453521829
 21
345.4470295533432
 72
     1
 10
59.98857453521829
 20
345.4470295533432
 11
58.67077561332032
 21
345.6499678397806
 97
        0
 75
     0
 76
     1
 98
        0
  0
LWPOLYLINE
  5
438
330
435
100
AcDbEntity
  8
Default
  6
Continuous
 62
     7
 48
25.4
370
    20
100
AcDbPolyline
 90
        4
 70
     1
 43
0.0
 10
58.6707756133
 20
345.6499678398
 10
58.720860215
 20
341.5951019309
 10
59.9885745352
 20
345.4470295533
 10
58.6707756133
 20
345.6499678398
  0
HATCH
  5
439
330
435
100
AcDbEntity
  8
Default
  6
Continuous
 62
     7
 48
25.4
100
AcDbHatch
 10
0.0
 20
0.0
 30
0.0
210
0.0
220
0.0
230
1.0
  2
SOLID
 70
     1
 71
     0
 91
        1
 92
        1
 93
        3
 72
     1
 10
59.02290389066431
 20
329.6584539839221
 11
58.23407080511777
 21
333.6361654326989
 72
     1
 10
58.23407080511776
 20
333.6361654326989
 11
57.69019568643687
 21
329.6176276561112
 72
     1
 10
57.69019568643688
 20
329.6176276561112
 11
59.02290389066431
 21
329.6584539839221
 97
        0
 75
     0
 76
     1
 98
        0
  0
LWPOLYLINE
  5
43A
330
435
100
AcDbEntity
  8
Default
  6
Continuous
 62
     7
 48
25.4
370
    20
100
AcDbPolyline
 90
        4
 70
     1
 43
0.0
 10
59.0229038907
 20
329.6584539839
 10
58.2340708051
 20
333.6361654327
 10
57.6901956864
 20
329.6176276561
 10
59.0229038907
 20
329.6584539839
  0
LINE
  5
43B
330
435
100
AcDbEntity
  8
Default
  6
Continuous
 62
     7
 48
25.4
100
AcDbLine
 10
137.5411961363
 20
331.9171815945
 30
0.0
 11
56.7357712838
 21
341.8388402036
 31
0.0
  0
LINE
  5
43C
330
435
100
AcDbEntity
  8
Default
  6
Continuous
 62
     7
 48
25.4
100
AcDbLine
 10
123.5411962543
 20
333.6361654327
 30
0.0
 11
56.2340742026
 21
333.6361654327
 31
0.0
  0
ARC
  5
43D
330
435
100
AcDbEntity
  8
Default
  6
Continuous
 62
     7
 48
25.4
100
AcDbCircle
 10
123.5411962543
 20
333.6361654327
 30
0.0
 40
65.30712544918124
100
AcDbArc
 50
165.9813748754
 51
180.0000000525
  0
ARC
  5
43E
330
435
100
AcDbEntity
  8
Default
  6
Continuous
 62
     7
 48
25.4
100
AcDbCircle
 10
123.5411962543
 20
333.6361654327
 30
0.0
 40
65.30712544917894
100
AcDbArc
 50
180.0
 51
187.0186251246
  0
TEXT
  5
43F
330
435
100
AcDbEntity
  8
Default
  6
Continuous
 62
     7
 48
25.4
100
AcDbText
 10
56.7281507176
 20
327.3903110288
 30
0.0
 40
4.0
  1
7°
 50
86.5
  7
SEACAD_arial_ttf
 11
52.735611524
 21
327.634505187
 31
0.0
100
AcDbText
 73
     3
  0
TEXT
  5
440
330
435
100
AcDbEntity
  8
Default
  6
Continuous
 62
     7
 48
25.4
100
AcDbText
 10
57.228217885
 20
335.5663369429
 30
0.0
 40
4.0
  1
7'30"
 50
86.5
  7
SEACAD_arial_ttf
 11
53.2356786913
 21
335.810531101
 31
0.0
100
AcDbText
 73
     3
  0
ENDBLK
  5
442
330
435
100
AcDbEntity
  8
0
100
AcDbBlockEnd
  0
BLOCK
  5
44B
330
443
100
AcDbEntity
  8
0
100
AcDbBlockBegin
  2
GDimGGroup31
 70
     0
 71
     0
 10
0.0
 20
0.0
 30
0.0
  3
GDimGGroup31
  1

  0
LINE
  5
445
330
443
100
AcDbEntity
  8
Default
  6
Continuous
 62
     7
 48
25.4
100
AcDbLine
 10
439.2257410969
 20
296.2378072245
 30
0.0
 11
475.3317899623
 21
344.1455658122
 31
0.0
  0
HATCH
  5
446
330
443
100
AcDbEntity
  8
Default
  6
Continuous
 62
     7
 48
25.4
100
AcDbHatch
 10
0.0
 20
0.0
 30
0.0
210
0.0
220
0.0
230
1.0
  2
SOLID
 70
     1
 71
     0
 91
        1
 92
        1
 93
        3
 72
     1
 10
472.3919215027149
 20
341.3524279200083
 11
473.4567158768749
 21
340.5499374917695
 72
     1
 10
473.4567158768749
 20
340.5499374917695
 11
475.3317899745111
 21
344.1455658283688
 72
     1
 10
475.3317899745111
 20
344.1455658283689
 11
472.3919215027149
 21
341.3524279200083
 97
        0
 75
     0
 76
     1
 98
        0
  0
LWPOLYLINE
  5
447
330
443
100
AcDbEntity
  8
Default
  6
Continuous
 62
     7
 48
25.4
370
    20
100
AcDbPolyline
 90
        4
 70
     1
 43
0.0
 10
472.3919215027
 20
341.35242792
 10
475.3317899745
 20
344.1455658284
 10
473.4567158769
 20
340.5499374918
 10
472.3919215027
 20
341.35242792
  0
ARC
  5
448
330
443
100
AcDbEntity
  8
Default
  6
Continuous
 62
     7
 48
25.4
100
AcDbCircle
 10
439.2257410969
 20
296.2378072245
 30
0.0
 40
59.99000000000424
100
AcDbArc
 50
38.3644531023
 51
54.906391796
  0
TEXT
  5
449
330
443
100
AcDbEntity
  8
Default
  6
Continuous
 62
     7
 48
25.4
100
AcDbText
 10
460.8431855709
 20
326.5826758975
 30
0.0
 40
4.0
  1
R
 50
52.9962141159
  7
SEACAD_arial_ttf
 11
457.6488026001
 21
328.9901470679
 31
0.0
100
AcDbText
 73
     3
  0
TEXT
  5
44A
330
443
100
AcDbEntity
  8
Default
  6
Continuous
 62
     7
 48
25.4
100
AcDbText
 10
464.6951394435
 20
331.6936886507
 30
0.0
 40
4.0
  1
85.7
 50
52.9962141159
  7
SEACAD_arial_ttf
 11
461.5007564727
 21
334.1011598211
 31
0.0
100
AcDbText
 73
     3
  0
ENDBLK
  5
44C
330
443
100
AcDbEntity
  8
0
100
AcDbBlockEnd
  0
BLOCK
  5
455
330
44D
100
AcDbEntity
  8
0
100
AcDbBlockBegin
  2
GDimGGroup32
 70
     0
 71
     0
 10
0.0
 20
0.0
 30
0.0
  3
GDimGGroup32
  1

  0
LINE
  5
44F
330
44D
100
AcDbEntity
  8
Default
  6
Continuous
 62
     7
 48
25.4
100
AcDbLine
 10
439.2257410969
 20
296.2378072245
 30
0.0
 11
485.6981103712
 21
300.7405664625
 31
0.0
  0
HATCH
  5
450
330
44D
100
AcDbEntity
  8
Default
  6
Continuous
 62
     7
 48
25.4
100
AcDbHatch
 10
0.0
 20
0.0
 30
0.0
210
0.0
220
0.0
230
1.0
  2
SOLID
 70
     1
 71
     0
 91
        1
 92
        1
 93
        3
 72
     1
 10
481.6524634249795
 20
301.0183679408967
 11
481.7810494065653
 21
299.6912494111499
 72
     1
 10
481.7810494065652
 20
299.6912494111499
 11
485.6981120050127
 21
300.7405666207805
 72
     1
 10
485.6981120050127
 20
300.7405666207804
 11
481.6524634249795
 21
301.0183679408966
 97
        0
 75
     0
 76
     1
 98
        0
  0
LWPOLYLINE
  5
451
330
44D
100
AcDbEntity
  8
Default
  6
Continuous
 62
     7
 48
25.4
370
    20
100
AcDbPolyline
 90
        4
 70
     1
 43
0.0
 10
481.652463425
 20
301.0183679409
 10
485.698112005
 20
300.7405666208
 10
481.7810494066
 20
299.6912494111
 10
481.652463425
 20
301.0183679409
  0
ARC
  5
452
330
44D
100
AcDbEntity
  8
Default
  6
Continuous
 62
     7
 48
25.4
100
AcDbCircle
 10
439.2257410969
 20
296.2378072245
 30
0.0
 40
46.68999999998414
100
AcDbArc
 50
3.0798702371
 51
9.8442175302
  0
TEXT
  5
453
330
44D
100
AcDbEntity
  8
Default
  6
Continuous
 62
     7
 48
25.4
100
AcDbText
 10
460.7163586022
 20
299.3247398922
 30
0.0
 40
4.0
  1
R
 50
5.5341764917
  7
SEACAD_arial_ttf
 11
460.3306006757
 21
303.3060952924
 31
0.0
100
AcDbText
 73
     3
  0
TEXT
  5
454
330
44D
100
AcDbEntity
  8
Default
  6
Continuous
 62
     7
 48
25.4
100
AcDbText
 10
467.0865272424
 20
299.9419525745
 30
0.0
 40
4.0
  1
66.7
 50
5.5341764917
  7
SEACAD_arial_ttf
 11
466.7007693159
 21
303.9233079747
 31
0.0
100
AcDbText
 73
     3
  0
ENDBLK
  5
456
330
44D
100
AcDbEntity
  8
0
100
AcDbBlockEnd
  0
ENDSEC
  0
SECTION
  2
ENTITIES
  0
INSERT
  5
2C
330
1F
100
AcDbEntity
  8
Default
100
AcDbBlockReference
  2
SEANNOT_GROUP
 10
0.0
 20
0.0
 30
0.0
  0
INSERT
  5
37
330
1F
100
AcDbEntity
  8
Default
100
AcDbBlockReference
  2
SEANNOT_GROUP1
 10
0.0
 20
0.0
 30
0.0
  0
INSERT
  5
40
330
1F
100
AcDbEntity
  8
Default
100
AcDbBlockReference
  2
SEANNOT_GROUP2
 10
0.0
 20
0.0
 30
0.0
  0
INSERT
  5
49
330
1F
100
AcDbEntity
  8
Default
100
AcDbBlockReference
  2
SEANNOT_GROUP3
 10
0.0
 20
0.0
 30
0.0
  0
INSERT
  5
52
330
1F
100
AcDbEntity
  8
Default
100
AcDbBlockReference
  2
SE
 10
0.0
 20
0.0
 30
0.0
  0
INSERT
  5
168
330
1F
100
AcDbEntity
  8
Default
100
AcDbBlockReference
  2
SE1
 10
0.0
 20
0.0
 30
0.0
  0
INSERT
  5
232
330
1F
100
AcDbEntity
  8
Default
100
AcDbBlockReference
  2
SE2
 10
0.0
 20
0.0
 30
0.0
  0
INSERT
  5
2C3
330
1F
100
AcDbEntity
  8
Default
100
AcDbBlockReference
  2
GDimGGroup
 10
0.0
 20
0.0
 30
0.0
  0
INSERT
  5
2D0
330
1F
100
AcDbEntity
  8
Default
100
AcDbBlockReference
  2
GDimGGroup1
 10
0.0
 20
0.0
 30
0.0
  0
INSERT
  5
2DC
330
1F
100
AcDbEntity
  8
Default
100
AcDbBlockReference
  2
GDimGGroup2
 10
0.0
 20
0.0
 30
0.0
  0
INSERT
  5
2E8
330
1F
100
AcDbEntity
  8
Default
100
AcDbBlockReference
  2
GDimGGroup3
 10
0.0
 20
0.0
 30
0.0
  0
INSERT
  5
2F4
330
1F
100
AcDbEntity
  8
Default
100
AcDbBlockReference
  2
GDimGGroup4
 10
0.0
 20
0.0
 30
0.0
  0
INSERT
  5
303
330
1F
100
AcDbEntity
  8
Default
100
AcDbBlockReference
  2
GDimGGroup5
 10
0.0
 20
0.0
 30
0.0
  0
INSERT
  5
30F
330
1F
100
AcDbEntity
  8
Default
100
AcDbBlockReference
  2
GDimGGroup6
 10
0.0
 20
0.0
 30
0.0
  0
INSERT
  5
31B
330
1F
100
AcDbEntity
  8
Default
100
AcDbBlockReference
  2
GDimGGroup7
 10
0.0
 20
0.0
 30
0.0
  0
INSERT
  5
327
330
1F
100
AcDbEntity
  8
Default
100
AcDbBlockReference
  2
GDimGGroup8
 10
0.0
 20
0.0
 30
0.0
  0
INSERT
  5
333
330
1F
100
AcDbEntity
  8
Default
100
AcDbBlockReference
  2
GDimGGroup9
 10
0.0
 20
0.0
 30
0.0
  0
INSERT
  5
33F
330
1F
100
AcDbEntity
  8
Default
100
AcDbBlockReference
  2
GDimGGroup10
 10
0.0
 20
0.0
 30
0.0
  0
INSERT
  5
34B
330
1F
100
AcDbEntity
  8
Default
100
AcDbBlockReference
  2
GDimGGroup11
 10
0.0
 20
0.0
 30
0.0
  0
INSERT
  5
358
330
1F
100
AcDbEntity
  8
Default
100
AcDbBlockReference
  2
GDimGGroup12
 10
0.0
 20
0.0
 30
0.0
  0
INSERT
  5
365
330
1F
100
AcDbEntity
  8
Default
100
AcDbBlockReference
  2
GDimGGroup13
 10
0.0
 20
0.0
 30
0.0
  0
INSERT
  5
370
330
1F
100
AcDbEntity
  8
Default
100
AcDbBlockReference
  2
GDimGGroup14
 10
0.0
 20
0.0
 30
0.0
  0
INSERT
  5
37D
330
1F
100
AcDbEntity
  8
Default
100
AcDbBlockReference
  2
GDimGGroup15
 10
0.0
 20
0.0
 30
0.0
  0
INSERT
  5
389
330
1F
100
AcDbEntity
  8
Default
100
AcDbBlockReference
  2
GDimGGroup16
 10
0.0
 20
0.0
 30
0.0
  0
INSERT
  5
395
330
1F
100
AcDbEntity
  8
Default
100
AcDbBlockReference
  2
GDimGGroup17
 10
0.0
 20
0.0
 30
0.0
  0
INSERT
  5
3A3
330
1F
100
AcDbEntity
  8
Default
100
AcDbBlockReference
  2
GDimGGroup18
 10
0.0
 20
0.0
 30
0.0
  0
INSERT
  5
3B1
330
1F
100
AcDbEntity
  8
Default
100
AcDbBlockReference
  2
GDimGGroup19
 10
0.0
 20
0.0
 30
0.0
  0
INSERT
  5
3BD
330
1F
100
AcDbEntity
  8
Default
100
AcDbBlockReference
  2
GDimGGroup20
 10
0.0
 20
0.0
 30
0.0
  0
INSERT
  5
3CA
330
1F
100
AcDbEntity
  8
Default
100
AcDbBlockReference
  2
GDimGGroup21
 10
0.0
 20
0.0
 30
0.0
  0
INSERT
  5
3D6
330
1F
100
AcDbEntity
  8
Default
100
AcDbBlockReference
  2
GDimGGroup22
 10
0.0
 20
0.0
 30
0.0
  0
INSERT
  5
3E0
330
1F
100
AcDbEntity
  8
Default
100
AcDbBlockReference
  2
GDimGGroup23
 10
0.0
 20
0.0
 30
0.0
  0
INSERT
  5
3ED
330
1F
100
AcDbEntity
  8
Default
100
AcDbBlockReference
  2
GDimGGroup24
 10
0.0
 20
0.0
 30
0.0
  0
INSERT
  5
3F9
330
1F
100
AcDbEntity
  8
Default
100
AcDbBlockReference
  2
GDimGGroup25
 10
0.0
 20
0.0
 30
0.0
  0
INSERT
  5
405
330
1F
100
AcDbEntity
  8
Default
100
AcDbBlockReference
  2
GDimGGroup26
 10
0.0
 20
0.0
 30
0.0
  0
INSERT
  5
411
330
1F
100
AcDbEntity
  8
Default
100
AcDbBlockReference
  2
GDimGGroup27
 10
0.0
 20
0.0
 30
0.0
  0
INSERT
  5
41D
330
1F
100
AcDbEntity
  8
Default
100
AcDbBlockReference
  2
GDimGGroup28
 10
0.0
 20
0.0
 30
0.0
  0
INSERT
  5
429
330
1F
100
AcDbEntity
  8
Default
100
AcDbBlockReference
  2
GDimGGroup29
 10
0.0
 20
0.0
 30
0.0
  0
INSERT
  5
436
330
1F
100
AcDbEntity
  8
Default
100
AcDbBlockReference
  2
GDimGGroup30
 10
0.0
 20
0.0
 30
0.0
  0
INSERT
  5
444
330
1F
100
AcDbEntity
  8
Default
100
AcDbBlockReference
  2
GDimGGroup31
 10
0.0
 20
0.0
 30
0.0
  0
INSERT
  5
44E
330
1F
100
AcDbEntity
  8
Default
100
AcDbBlockReference
  2
GDimGGroup32
 10
0.0
 20
0.0
 30
0.0
  0
LINE
  5
458
330
1F
100
AcDbEntity
  8
BORDER
  6
Continuous
 62
     7
 48
25.4
100
AcDbLine
 10
6.2292620399
 20
410.0
 30
0.0
 11
586.2292620399
 21
410.0
 31
0.0
  0
LINE
  5
459
330
1F
100
AcDbEntity
  8
BORDER
  6
Continuous
 62
     7
 48
25.4
100
AcDbLine
 10
6.2292620399
 20
410.0
 30
0.0
 11
6.2292620399
 21
10.0
 31
0.0
  0
LINE
  5
45A
330
1F
100
AcDbEntity
  8
BORDER
  6
Continuous
 62
     7
 48
25.4
100
AcDbLine
 10
6.2292620399
 20
10.0
 30
0.0
 11
586.2292620399
 21
10.0
 31
0.0
  0
LINE
  5
45B
330
1F
100
AcDbEntity
  8
BORDER
  6
Continuous
 62
     7
 48
25.4
100
AcDbLine
 10
586.2292620399
 20
10.0
 30
0.0
 11
586.2292620399
 21
410.0
 31
0.0
  0
LINE
  5
45C
330
1F
100
AcDbEntity
  8
Default
  6
Continuous
 62
     7
 48
25.4
100
AcDbLine
 10
3.7292620399
 20
412.5
 30
0.0
 11
588.7292620399
 21
412.5
 31
0.0
  0
LINE
  5
45D
330
1F
100
AcDbEntity
  8
Default
  6
Continuous
 62
     7
 48
25.4
100
AcDbLine
 10
588.7292620399
 20
412.5
 30
0.0
 11
588.7292620399
 21
7.5
 31
0.0
  0
LINE
  5
45E
330
1F
100
AcDbEntity
  8
Default
  6
Continuous
 62
     7
 48
25.4
100
AcDbLine
 10
588.7292620399
 20
7.5
 30
0.0
 11
3.7292620399
 21
7.5
 31
0.0
  0
LINE
  5
45F
330
1F
100
AcDbEntity
  8
Default
  6
Continuous
 62
     7
 48
25.4
100
AcDbLine
 10
3.7292620399
 20
7.5
 30
0.0
 11
3.7292620399
 21
412.5
 31
0.0
  0
TEXT
  5
460
330
1F
100
AcDbEntity
  8
Default
  6
Continuous
 62
     7
 48
25.4
100
AcDbText
 10
473.5242219525
 20
28.1561611714
 30
0.0
 40
5.0
  1
TITLE :
  7
SEACAD_arial_ttf
 11
473.5242219525
 21
33.1561611714
 31
0.0
100
AcDbText
 73
     3
  0
TEXT
  5
461
330
1F
100
AcDbEntity
  8
Default
  6
Continuous
 62
     7
 48
25.4
100
AcDbText
 10
473.4498030642
 20
40.2710242694
 30
0.0
 40
5.0
  1
KITAGAWA EUROPE LIMITED
  7
SEACAD_arial_ttf
 11
473.4498030642
 21
45.2710242694
 31
0.0
100
AcDbText
 73
     3
  0
TEXT
  5
462
330
1F
100
AcDbEntity
  8
Default
  6
Continuous
 62
     7
 48
25.4
100
AcDbText
 10
474.4044215056
 20
15.7611952147
 30
0.0
 40
5.0
  1
www.kitagawaeurope.com
  7
SEACAD_arial_ttf
 11
474.4044215056
 21
20.7611952147
 31
0.0
100
AcDbText
 73
     3
  0
TEXT
  5
463
330
1F
100
AcDbEntity
  8
Default
  6
Continuous
 62
     7
 48
25.4
100
AcDbText
 10
497.8463064412
 20
27.8559210467
 30
0.0
 40
5.0
  1
BL210A6 POWER CHUCK
  7
SEACAD_arial_ttf
 11
497.8463064412
 21
32.8559210467
 31
0.0
100
AcDbText
 73
     3
  0
LINE
  5
464
330
1F
100
AcDbEntity
  8
Default
  6
Continuous
 62
     7
 48
25.4
100
AcDbLine
 10
471.5030858285
 20
50.0
 30
0.0
 11
586.2292620399
 21
50.0
 31
0.0
  0
LINE
  5
465
330
1F
100
AcDbEntity
  8
Default
  6
Continuous
 62
     7
 48
25.4
100
AcDbLine
 10
471.5030858285
 20
36.7
 30
0.0
 11
586.2292620399
 21
36.7
 31
0.0
  0
LINE
  5
466
330
1F
100
AcDbEntity
  8
Default
  6
Continuous
 62
     7
 48
25.4
100
AcDbLine
 10
586.2292620399
 20
23.4
 30
0.0
 11
471.5030858285
 21
23.4
 31
0.0
  0
LINE
  5
467
330
1F
100
AcDbEntity
  8
Default
  6
Continuous
 62
     7
 48
25.4
100
AcDbLine
 10
471.5030858285
 20
50.0
 30
0.0
 11
471.5030858285
 21
10.0
 31
0.0
  0
ENDSEC
  0
SECTION
  2
OBJECTS
  0
DICTIONARY
  5
C
330
0
100
AcDbDictionary
281
     1
  3
ACAD_GROUP
350
D
  3
ACAD_LAYOUT
350
1A
  3
ACAD_MLINESTYLE
350
17
  3
ACAD_PLOTSETTINGS
350
19
  3
ACAD_PLOTSTYLENAME
350
E
  0
DICTIONARY
  5
D
102
{ACAD_REACTORS
330
C
102
}
330
C
100
AcDbDictionary
281
     1
  0
DICTIONARY
  5
1A
102
{ACAD_REACTORS
330
C
102
}
330
C
100
AcDbDictionary
281
     1
  3
Layout1
350
1E
  3
Model
350
22
  0
DICTIONARY
  5
17
102
{ACAD_REACTORS
330
C
102
}
330
C
100
AcDbDictionary
281
     1
  3
Standard
350
18
  0
DICTIONARY
  5
19
102
{ACAD_REACTORS
330
C
102
}
330
C
100
AcDbDictionary
281
     1
  0
ACDBDICTIONARYWDFLT
  5
E
102
{ACAD_REACTORS
330
C
102
}
330
C
100
AcDbDictionary
281
     1
  3
Normal
350
F
100
AcDbDictionaryWithDefault
340
F
  0
LAYOUT
  5
1E
102
{ACAD_REACTORS
330
1A
102
}
330
1A
100
AcDbPlotSettings
  1

  2

  4

  6

 40
0.0
 41
0.0
 42
0.0
 43
0.0
 44
0.0
 45
0.0
 46
0.0
 47
0.0
 48
0.0
 49
0.0
140
0.0
141
0.0
142
1.0
143
1.0
 70
   688
 72
     0
 73
     0
 74
     5
  7

 75
    16
147
1.0
148
0.0
149
0.0
100
AcDbLayout
  1
Layout1
 70
     1
 71
     1
 10
0.0
 20
0.0
 11
594.0
 21
420.0
 12
0.0
 22
0.0
 32
0.0
 14
0.0
 24
0.0
 34
0.0
 15
594.0
 25
420.0
 35
0.0
146
0.0
 13
0.0
 23
0.0
 33
0.0
 16
1.0
 26
0.0
 36
0.0
 17
0.0
 27
1.0
 37
0.0
 76
     0
330
1B
  0
LAYOUT
  5
22
102
{ACAD_REACTORS
330
1A
102
}
330
1A
100
AcDbPlotSettings
  1

  2

  4

  6

 40
0.0
 41
0.0
 42
0.0
 43
0.0
 44
0.0
 45
0.0
 46
0.0
 47
0.0
 48
0.0
 49
0.0
140
0.0
141
0.0
142
1.0
143
1.0
 70
  1712
 72
     0
 73
     0
 74
     0
  7

 75
     0
147
1.0
148
0.0
149
0.0
100
AcDbLayout
  1
Model
 70
     1
 71
     0
 10
0.0
 20
0.0
 11
594.0
 21
420.0
 12
0.0
 22
0.0
 32
0.0
 14
0.0
 24
0.0
 34
0.0
 15
594.0
 25
420.0
 35
0.0
146
0.0
 13
0.0
 23
0.0
 33
0.0
 16
1.0
 26
0.0
 36
0.0
 17
0.0
 27
1.0
 37
0.0
 76
     0
330
1F
  0
MLINESTYLE
  5
18
102
{ACAD_REACTORS
330
17
102
}
330
17
100
AcDbMlineStyle
  2
Standard
 70
     0
  3

 62
   256
 51
90.0
 52
90.0
 71
     2
 49
0.5
 62
   256
  6
BYLAYER
 49
-0.5
 62
   256
  6
BYLAYER
  0
ACDBPLACEHOLDER
  5
F
102
{ACAD_REACTORS
330
E
102
}
330
E
  0
ENDSEC
  0
EOF
