  0
SECTION
  2
HEADER
  9
$ACADVER
  1
AC1015
  9
$ACADMAINTVER
 70
     6
  9
$DWGCODEPAGE
  3
ANSI_1252
  9
$INSBASE
 10
0.0
 20
0.0
 30
0.0
  9
$EXTMIN
 10
0.0
 20
0.0
 30
0.0
  9
$EXTMAX
 10
594.0
 20
420.0
 30
0.0
  9
$LIMMIN
 10
0.0
 20
0.0
  9
$LIMMAX
 10
594.0
 20
420.0
  9
$ORTHOMODE
 70
     0
  9
$REGENMODE
 70
     1
  9
$FILLMODE
 70
     1
  9
$QTEXTMODE
 70
     0
  9
$MIRRTEXT
 70
     1
  9
$LTSCALE
 40
1.0
  9
$ATTMODE
 70
     1
  9
$TEXTSIZE
 40
0.2
  9
$TRACEWID
 40
0.05
  9
$TEXTSTYLE
  7
Standard
  9
$CLAYER
  8
0
  9
$CELTYPE
  6
ByLayer
  9
$CECOLOR
 62
   256
  9
$CELTSCALE
 40
25.4
  9
$DISPSILH
 70
     0
  9
$DIMSCALE
 40
1.0
  9
$DIMASZ
 40
0.18
  9
$DIMEXO
 40
0.0625
  9
$DIMDLI
 40
0.38
  9
$DIMRND
 40
0.0
  9
$DIMDLE
 40
0.0
  9
$DIMEXE
 40
0.18
  9
$DIMTP
 40
0.0
  9
$DIMTM
 40
0.0
  9
$DIMTXT
 40
0.18
  9
$DIMCEN
 40
0.09
  9
$DIMTSZ
 40
0.0
  9
$DIMTOL
 70
     0
  9
$DIMLIM
 70
     0
  9
$DIMTIH
 70
     1
  9
$DIMTOH
 70
     1
  9
$DIMSE1
 70
     0
  9
$DIMSE2
 70
     0
  9
$DIMTAD
 70
     0
  9
$DIMZIN
 70
     0
  9
$DIMBLK
  1

  9
$DIMASO
 70
     1
  9
$DIMSHO
 70
     1
  9
$DIMPOST
  1

  9
$DIMAPOST
  1

  9
$DIMALT
 70
     0
  9
$DIMALTD
 70
     2
  9
$DIMALTF
 40
25.4
  9
$DIMLFAC
 40
1.0
  9
$DIMTOFL
 70
     0
  9
$DIMTVP
 40
0.0
  9
$DIMTIX
 70
     0
  9
$DIMSOXD
 70
     0
  9
$DIMSAH
 70
     0
  9
$DIMBLK1
  1

  9
$DIMBLK2
  1

  9
$DIMSTYLE
  2
Standard
  9
$DIMCLRD
 70
     0
  9
$DIMCLRE
 70
     0
  9
$DIMCLRT
 70
     0
  9
$DIMTFAC
 40
1.0
  9
$DIMGAP
 40
0.09
  9
$DIMJUST
 70
     0
  9
$DIMSD1
 70
     0
  9
$DIMSD2
 70
     0
  9
$DIMTOLJ
 70
     1
  9
$DIMTZIN
 70
     0
  9
$DIMALTZ
 70
     0
  9
$DIMALTTZ
 70
     0
  9
$DIMUPT
 70
     0
  9
$DIMDEC
 70
     4
  9
$DIMTDEC
 70
     4
  9
$DIMALTU
 70
     2
  9
$DIMALTTD
 70
     2
  9
$DIMTXSTY
  7
Standard
  9
$DIMAUNIT
 70
     0
  9
$DIMADEC
 70
     0
  9
$DIMALTRND
 40
0.0
  9
$DIMAZIN
 70
     0
  9
$DIMDSEP
 70
    46
  9
$DIMATFIT
 70
     3
  9
$DIMFRAC
 70
     0
  9
$DIMLDRBLK
  1

  9
$DIMLUNIT
 70
     2
  9
$DIMLWD
 70
    -2
  9
$DIMLWE
 70
    -2
  9
$DIMTMOVE
 70
     0
  9
$LUNITS
 70
     2
  9
$LUPREC
 70
     4
  9
$SKETCHINC
 40
0.1
  9
$FILLETRAD
 40
0.5
  9
$AUNITS
 70
     0
  9
$AUPREC
 70
     0
  9
$MENU
  1
.
  9
$ELEVATION
 40
0.0
  9
$PELEVATION
 40
0.0
  9
$THICKNESS
 40
0.0
  9
$LIMCHECK
 70
     0
  9
$CHAMFERA
 40
0.5
  9
$CHAMFERB
 40
0.5
  9
$CHAMFERC
 40
1.0
  9
$CHAMFERD
 40
0.0
  9
$SKPOLY
 70
     0
  9
$TDCREATE
 40
2454910.69320125
  9
$TDUCREATE
 40
2454910.69320125
  9
$TDUPDATE
 40
2454910.693201262
  9
$TDUUPDATE
 40
2454910.693201262
  9
$TDINDWG
 40
0.0000000116
  9
$TDUSRTIMER
 40
0.0000000116
  9
$USRTIMER
 70
     1
  9
$ANGBASE
 50
0.0
  9
$ANGDIR
 70
     0
  9
$PDMODE
 70
     0
  9
$PDSIZE
 40
0.0
  9
$PLINEWID
 40
0.0
  9
$SPLFRAME
 70
     0
  9
$SPLINETYPE
 70
     6
  9
$SPLINESEGS
 70
     8
  9
$HANDSEED
  5
478
  9
$SURFTAB1
 70
     6
  9
$SURFTAB2
 70
     6
  9
$SURFTYPE
 70
     6
  9
$SURFU
 70
     6
  9
$SURFV
 70
     6
  9
$UCSBASE
  2

  9
$UCSNAME
  2

  9
$UCSORG
 10
0.0
 20
0.0
 30
0.0
  9
$UCSXDIR
 10
1.0
 20
0.0
 30
0.0
  9
$UCSYDIR
 10
0.0
 20
1.0
 30
0.0
  9
$UCSORTHOREF
  2

  9
$UCSORTHOVIEW
 70
     0
  9
$UCSORGTOP
 10
0.0
 20
0.0
 30
0.0
  9
$UCSORGBOTTOM
 10
0.0
 20
0.0
 30
0.0
  9
$UCSORGLEFT
 10
0.0
 20
0.0
 30
0.0
  9
$UCSORGRIGHT
 10
0.0
 20
0.0
 30
0.0
  9
$UCSORGFRONT
 10
0.0
 20
0.0
 30
0.0
  9
$UCSORGBACK
 10
0.0
 20
0.0
 30
0.0
  9
$PUCSBASE
  2

  9
$PUCSNAME
  2

  9
$PUCSORG
 10
0.0
 20
0.0
 30
0.0
  9
$PUCSXDIR
 10
1.0
 20
0.0
 30
0.0
  9
$PUCSYDIR
 10
0.0
 20
1.0
 30
0.0
  9
$PUCSORTHOREF
  2

  9
$PUCSORTHOVIEW
 70
     0
  9
$PUCSORGTOP
 10
0.0
 20
0.0
 30
0.0
  9
$PUCSORGBOTTOM
 10
0.0
 20
0.0
 30
0.0
  9
$PUCSORGLEFT
 10
0.0
 20
0.0
 30
0.0
  9
$PUCSORGRIGHT
 10
0.0
 20
0.0
 30
0.0
  9
$PUCSORGFRONT
 10
0.0
 20
0.0
 30
0.0
  9
$PUCSORGBACK
 10
0.0
 20
0.0
 30
0.0
  9
$USERI1
 70
     0
  9
$USERI2
 70
     0
  9
$USERI3
 70
     0
  9
$USERI4
 70
     0
  9
$USERI5
 70
     0
  9
$USERR1
 40
0.0
  9
$USERR2
 40
0.0
  9
$USERR3
 40
0.0
  9
$USERR4
 40
0.0
  9
$USERR5
 40
0.0
  9
$WORLDVIEW
 70
     1
  9
$SHADEDGE
 70
     3
  9
$SHADEDIF
 70
    70
  9
$TILEMODE
 70
     1
  9
$MAXACTVP
 70
    64
  9
$PINSBASE
 10
0.0
 20
0.0
 30
0.0
  9
$PLIMCHECK
 70
     0
  9
$PEXTMIN
 10
0.0
 20
0.0
 30
0.0
  9
$PEXTMAX
 10
594.0
 20
420.0
 30
0.0
  9
$PLIMMIN
 10
0.0
 20
0.0
  9
$PLIMMAX
 10
594.0
 20
420.0
  9
$UNITMODE
 70
     0
  9
$VISRETAIN
 70
     1
  9
$PLINEGEN
 70
     0
  9
$PSLTSCALE
 70
     1
  9
$TREEDEPTH
 70
  3020
  9
$CMLSTYLE
  2
Standard
  9
$CMLJUST
 70
     0
  9
$CMLSCALE
 40
1.0
  9
$PROXYGRAPHICS
 70
     1
  9
$MEASUREMENT
 70
     1
  9
$CELWEIGHT
370
    -1
  9
$ENDCAPS
280
     0
  9
$JOINSTYLE
280
     0
  9
$LWDISPLAY
290
     0
  9
$INSUNITS
 70
     1
  9
$HYPERLINKBASE
  1

  9
$STYLESHEET
  1

  9
$XEDIT
290
     1
  9
$CEPSNTYPE
380
     0
  9
$PSTYLEMODE
290
     1
  9
$FINGERPRINTGUID
  2
{64DBD529-DCB9-412E-94B0-FF3A4C4714FF}
  9
$VERSIONGUID
  2
{FAEB1C32-E019-11D5-929B-00C0DF256EC4}
  9
$EXTNAMES
290
     1
  9
$PSVPSCALE
 40
0.0
  9
$OLESTARTUP
290
     0
  0
ENDSEC
  0
SECTION
  2
CLASSES
  0
CLASS
  1
ACDBDICTIONARYWDFLT
  2
AcDbDictionaryWithDefault
  3
ObjectDBX Classes
 90
        0
280
     0
281
     0
  0
CLASS
  1
ACDBPLACEHOLDER
  2
AcDbPlaceHolder
  3
ObjectDBX Classes
 90
        0
280
     0
281
     0
  0
CLASS
  1
LAYOUT
  2
AcDbLayout
  3
ObjectDBX Classes
 90
        0
280
     0
281
     0
  0
ENDSEC
  0
SECTION
  2
TABLES
  0
TABLE
  2
VPORT
  5
8
330
0
100
AcDbSymbolTable
 70
     1
  0
VPORT
  5
29
330
8
100
AcDbSymbolTableRecord
100
AcDbViewportTableRecord
  2
*Active
 70
     0
 10
0.0
 20
0.0
 11
1.0
 21
1.0
 12
10.4299065421
 22
4.5
 13
0.0
 23
0.0
 14
0.5
 24
0.5
 15
0.5
 25
0.5
 16
0.0
 26
0.0
 36
1.0
 17
0.0
 27
0.0
 37
0.0
 40
9.0
 41
1.9729729729
 42
50.0
 43
0.0
 44
0.0
 50
0.0
 51
0.0
 71
     0
 72
   100
 73
     1
 74
     3
 75
     0
 76
     0
 77
     0
 78
     0
281
     0
 65
     1
110
0.0
120
0.0
130
0.0
111
1.0
121
0.0
131
0.0
112
0.0
122
1.0
132
0.0
 79
     0
146
0.0
  0
ENDTAB
  0
TABLE
  2
LTYPE
  5
5
330
0
100
AcDbSymbolTable
 70
     3
  0
LTYPE
  5
14
330
5
100
AcDbSymbolTableRecord
100
AcDbLinetypeTableRecord
  2
ByBlock
 70
     0
  3

 72
    65
 73
     0
 40
0.0
  0
LTYPE
  5
15
330
5
100
AcDbSymbolTableRecord
100
AcDbLinetypeTableRecord
  2
ByLayer
 70
     0
  3

 72
    65
 73
     0
 40
0.0
  0
LTYPE
  5
16
330
5
100
AcDbSymbolTableRecord
100
AcDbLinetypeTableRecord
  2
Continuous
 70
     0
  3
Solid line
 72
    65
 73
     0
 40
0.0
  0
LTYPE
  5
96
330
5
100
AcDbSymbolTableRecord
100
AcDbLinetypeTableRecord
  2
CENTER2
 70
     0
  3
___ _ ___ _ ___ _ ___ _ ___ _ ___ _ ___ _ ___ _
 72
    65
 73
     4
 40
1.125
 49
0.75
 74
     4
 75
     0
340
0
 46
0.0
 50
0.0
 44
0.0
 45
0.0
 49
-0.125
 74
     4
 75
     0
340
0
 46
0.0
 50
0.0
 44
0.0
 45
0.0
 49
0.125
 74
     4
 75
     0
340
0
 46
0.0
 50
0.0
 44
0.0
 45
0.0
 49
-0.125
 74
     4
 75
     0
340
0
 46
0.0
 50
0.0
 44
0.0
 45
0.0
  0
LTYPE
  5
B3
330
5
100
AcDbSymbolTableRecord
100
AcDbLinetypeTableRecord
  2
HIDDEN2
 70
     0
  3
_ _ _ _ _ _ _ _ _ _ _ _ _ _ _ _ _ _ _ _ _ _ _ _
 72
    65
 73
     2
 40
0.1875
 49
0.125
 74
     4
 75
     0
340
0
 46
0.0
 50
0.0
 44
0.0
 45
0.0
 49
-0.0625
 74
     4
 75
     0
340
0
 46
0.0
 50
0.0
 44
0.0
 45
0.0
  0
ENDTAB
  0
TABLE
  2
LAYER
  5
2
330
0
100
AcDbSymbolTable
 70
     6
  0
LAYER
  5
10
330
2
100
AcDbSymbolTableRecord
100
AcDbLayerTableRecord
  2
0
 70
     0
 62
     7
  6
Continuous
370
    -3
390
F
  0
LAYER
  5
2A
330
2
100
AcDbSymbolTableRecord
100
AcDbLayerTableRecord
  2
Default
 70
     0
 62
     7
  6
Continuous
370
    -3
390
F
  0
LAYER
  5
54
330
2
100
AcDbSymbolTableRecord
100
AcDbLayerTableRecord
  2
DV1_Default
 70
     0
 62
     7
  6
Continuous
370
    -3
390
F
  0
LAYER
  5
19B
330
2
100
AcDbSymbolTableRecord
100
AcDbLayerTableRecord
  2
DV2_Default
 70
     0
 62
     7
  6
Continuous
370
    -3
390
F
  0
LAYER
  5
248
330
2
100
AcDbSymbolTableRecord
100
AcDbLayerTableRecord
  2
DV3_Default
 70
     0
 62
     7
  6
Continuous
370
    -3
390
F
  0
LAYER
  5
467
330
2
100
AcDbSymbolTableRecord
100
AcDbLayerTableRecord
  2
BORDER
 70
     0
 62
     7
  6
Continuous
370
    -3
390
F
  0
ENDTAB
  0
TABLE
  2
STYLE
  5
3
330
0
100
AcDbSymbolTable
 70
     3
  0
STYLE
  5
11
330
3
100
AcDbSymbolTableRecord
100
AcDbTextStyleTableRecord
  2
Standard
 70
     0
 40
0.0
 41
1.0
 50
0.0
 71
     0
 42
0.2
  3
txt
  4

  0
STYLE
  5
31
330
3
100
AcDbSymbolTableRecord
100
AcDbTextStyleTableRecord
  2
SEACAD_arial_ttf
 70
     0
 40
0.2
 41
1.0
 50
0.0
 71
     0
 42
0.2
  3
arial.ttf
  4

  0
STYLE
  5
347
330
3
100
AcDbSymbolTableRecord
100
AcDbTextStyleTableRecord
  2
SEACAD_semeca1_ttf
 70
     0
 40
0.2
 41
1.0
 50
0.0
 71
     0
 42
0.2
  3
semeca1.ttf
  4

  0
ENDTAB
  0
TABLE
  2
VIEW
  5
6
330
0
100
AcDbSymbolTable
 70
     0
  0
ENDTAB
  0
TABLE
  2
UCS
  5
7
330
0
100
AcDbSymbolTable
 70
     0
  0
ENDTAB
  0
TABLE
  2
APPID
  5
9
330
0
100
AcDbSymbolTable
 70
     1
  0
APPID
  5
12
330
9
100
AcDbSymbolTableRecord
100
AcDbRegAppTableRecord
  2
ACAD
 70
     0
  0
ENDTAB
  0
TABLE
  2
DIMSTYLE
  5
A
330
0
100
AcDbSymbolTable
 70
     1
100
AcDbDimStyleTable
  0
DIMSTYLE
105
27
330
A
100
AcDbSymbolTableRecord
100
AcDbDimStyleTableRecord
  2
Standard
 70
     0
340
11
  0
ENDTAB
  0
TABLE
  2
BLOCK_RECORD
  5
1
330
0
100
AcDbSymbolTable
 70
    41
  0
BLOCK_RECORD
  5
1F
330
1
100
AcDbSymbolTableRecord
100
AcDbBlockTableRecord
  2
*Model_Space
340
22
  0
BLOCK_RECORD
  5
1B
330
1
100
AcDbSymbolTableRecord
100
AcDbBlockTableRecord
  2
*Paper_Space
340
1E
  0
BLOCK_RECORD
  5
2B
330
1
100
AcDbSymbolTableRecord
100
AcDbBlockTableRecord
  2
SEANNOT_GROUP
340
0
102
{BLKREFS
331
2C
102
}
  0
BLOCK_RECORD
  5
35
330
1
100
AcDbSymbolTableRecord
100
AcDbBlockTableRecord
  2
SEANNOT_GROUP1
340
0
102
{BLKREFS
331
36
102
}
  0
BLOCK_RECORD
  5
40
330
1
100
AcDbSymbolTableRecord
100
AcDbBlockTableRecord
  2
SEANNOT_GROUP2
340
0
102
{BLKREFS
331
41
102
}
  0
BLOCK_RECORD
  5
49
330
1
100
AcDbSymbolTableRecord
100
AcDbBlockTableRecord
  2
SEANNOT_GROUP3
340
0
102
{BLKREFS
331
4A
102
}
  0
BLOCK_RECORD
  5
52
330
1
100
AcDbSymbolTableRecord
100
AcDbBlockTableRecord
  2
SE
340
0
102
{BLKREFS
331
53
102
}
  0
BLOCK_RECORD
  5
199
330
1
100
AcDbSymbolTableRecord
100
AcDbBlockTableRecord
  2
SE1
340
0
102
{BLKREFS
331
19A
102
}
  0
BLOCK_RECORD
  5
245
330
1
100
AcDbSymbolTableRecord
100
AcDbBlockTableRecord
  2
SE2
340
0
102
{BLKREFS
331
246
102
}
  0
BLOCK_RECORD
  5
2D3
330
1
100
AcDbSymbolTableRecord
100
AcDbBlockTableRecord
  2
GDimGGroup
340
0
102
{BLKREFS
331
2D4
102
}
  0
BLOCK_RECORD
  5
2E0
330
1
100
AcDbSymbolTableRecord
100
AcDbBlockTableRecord
  2
GDimGGroup1
340
0
102
{BLKREFS
331
2E1
102
}
  0
BLOCK_RECORD
  5
2EC
330
1
100
AcDbSymbolTableRecord
100
AcDbBlockTableRecord
  2
GDimGGroup2
340
0
102
{BLKREFS
331
2ED
102
}
  0
BLOCK_RECORD
  5
2F8
330
1
100
AcDbSymbolTableRecord
100
AcDbBlockTableRecord
  2
GDimGGroup3
340
0
102
{BLKREFS
331
2F9
102
}
  0
BLOCK_RECORD
  5
304
330
1
100
AcDbSymbolTableRecord
100
AcDbBlockTableRecord
  2
GDimGGroup4
340
0
102
{BLKREFS
331
305
102
}
  0
BLOCK_RECORD
  5
310
330
1
100
AcDbSymbolTableRecord
100
AcDbBlockTableRecord
  2
GDimGGroup5
340
0
102
{BLKREFS
331
311
102
}
  0
BLOCK_RECORD
  5
31C
330
1
100
AcDbSymbolTableRecord
100
AcDbBlockTableRecord
  2
GDimGGroup6
340
0
102
{BLKREFS
331
31D
102
}
  0
BLOCK_RECORD
  5
326
330
1
100
AcDbSymbolTableRecord
100
AcDbBlockTableRecord
  2
GDimGGroup7
340
0
102
{BLKREFS
331
327
102
}
  0
BLOCK_RECORD
  5
332
330
1
100
AcDbSymbolTableRecord
100
AcDbBlockTableRecord
  2
GDimGGroup8
340
0
102
{BLKREFS
331
333
102
}
  0
BLOCK_RECORD
  5
33D
330
1
100
AcDbSymbolTableRecord
100
AcDbBlockTableRecord
  2
GDimGGroup9
340
0
102
{BLKREFS
331
33E
102
}
  0
BLOCK_RECORD
  5
34B
330
1
100
AcDbSymbolTableRecord
100
AcDbBlockTableRecord
  2
GDimGGroup10
340
0
102
{BLKREFS
331
34C
102
}
  0
BLOCK_RECORD
  5
356
330
1
100
AcDbSymbolTableRecord
100
AcDbBlockTableRecord
  2
GDimGGroup11
340
0
102
{BLKREFS
331
357
102
}
  0
BLOCK_RECORD
  5
361
330
1
100
AcDbSymbolTableRecord
100
AcDbBlockTableRecord
  2
GDimGGroup12
340
0
102
{BLKREFS
331
362
102
}
  0
BLOCK_RECORD
  5
36E
330
1
100
AcDbSymbolTableRecord
100
AcDbBlockTableRecord
  2
GDimGGroup13
340
0
102
{BLKREFS
331
36F
102
}
  0
BLOCK_RECORD
  5
37C
330
1
100
AcDbSymbolTableRecord
100
AcDbBlockTableRecord
  2
GDimGGroup14
340
0
102
{BLKREFS
331
37D
102
}
  0
BLOCK_RECORD
  5
38A
330
1
100
AcDbSymbolTableRecord
100
AcDbBlockTableRecord
  2
GDimGGroup15
340
0
102
{BLKREFS
331
38B
102
}
  0
BLOCK_RECORD
  5
398
330
1
100
AcDbSymbolTableRecord
100
AcDbBlockTableRecord
  2
GDimGGroup16
340
0
102
{BLKREFS
331
399
102
}
  0
BLOCK_RECORD
  5
3A4
330
1
100
AcDbSymbolTableRecord
100
AcDbBlockTableRecord
  2
GDimGGroup17
340
0
102
{BLKREFS
331
3A5
102
}
  0
BLOCK_RECORD
  5
3B0
330
1
100
AcDbSymbolTableRecord
100
AcDbBlockTableRecord
  2
GDimGGroup18
340
0
102
{BLKREFS
331
3B1
102
}
  0
BLOCK_RECORD
  5
3BC
330
1
100
AcDbSymbolTableRecord
100
AcDbBlockTableRecord
  2
GDimGGroup19
340
0
102
{BLKREFS
331
3BD
102
}
  0
BLOCK_RECORD
  5
3C7
330
1
100
AcDbSymbolTableRecord
100
AcDbBlockTableRecord
  2
GDimGGroup20
340
0
102
{BLKREFS
331
3C8
102
}
  0
BLOCK_RECORD
  5
3D3
330
1
100
AcDbSymbolTableRecord
100
AcDbBlockTableRecord
  2
GDimGGroup21
340
0
102
{BLKREFS
331
3D4
102
}
  0
BLOCK_RECORD
  5
3DF
330
1
100
AcDbSymbolTableRecord
100
AcDbBlockTableRecord
  2
GDimGGroup22
340
0
102
{BLKREFS
331
3E0
102
}
  0
BLOCK_RECORD
  5
3EB
330
1
100
AcDbSymbolTableRecord
100
AcDbBlockTableRecord
  2
GDimGGroup23
340
0
102
{BLKREFS
331
3EC
102
}
  0
BLOCK_RECORD
  5
3F7
330
1
100
AcDbSymbolTableRecord
100
AcDbBlockTableRecord
  2
GDimGGroup24
340
0
102
{BLKREFS
331
3F8
102
}
  0
BLOCK_RECORD
  5
404
330
1
100
AcDbSymbolTableRecord
100
AcDbBlockTableRecord
  2
GDimGGroup25
340
0
102
{BLKREFS
331
405
102
}
  0
BLOCK_RECORD
  5
411
330
1
100
AcDbSymbolTableRecord
100
AcDbBlockTableRecord
  2
GDimGGroup26
340
0
102
{BLKREFS
331
412
102
}
  0
BLOCK_RECORD
  5
41D
330
1
100
AcDbSymbolTableRecord
100
AcDbBlockTableRecord
  2
GDimGGroup27
340
0
102
{BLKREFS
331
41E
102
}
  0
BLOCK_RECORD
  5
428
330
1
100
AcDbSymbolTableRecord
100
AcDbBlockTableRecord
  2
GDimGGroup28
340
0
102
{BLKREFS
331
429
102
}
  0
BLOCK_RECORD
  5
434
330
1
100
AcDbSymbolTableRecord
100
AcDbBlockTableRecord
  2
GDimGGroup29
340
0
102
{BLKREFS
331
435
102
}
  0
BLOCK_RECORD
  5
440
330
1
100
AcDbSymbolTableRecord
100
AcDbBlockTableRecord
  2
GDimGGroup30
340
0
102
{BLKREFS
331
441
102
}
  0
BLOCK_RECORD
  5
44C
330
1
100
AcDbSymbolTableRecord
100
AcDbBlockTableRecord
  2
GDimGGroup31
340
0
102
{BLKREFS
331
44D
102
}
  0
BLOCK_RECORD
  5
459
330
1
100
AcDbSymbolTableRecord
100
AcDbBlockTableRecord
  2
GDimGGroup32
340
0
102
{BLKREFS
331
45A
102
}
  0
ENDTAB
  0
ENDSEC
  0
SECTION
  2
BLOCKS
  0
BLOCK
  5
20
330
1F
100
AcDbEntity
  8
0
100
AcDbBlockBegin
  2
*Model_Space
 70
     0
 71
     0
 10
0.0
 20
0.0
 30
0.0
  3
*Model_Space
  1

  0
ENDBLK
  5
21
330
1F
100
AcDbEntity
  8
0
100
AcDbBlockEnd
  0
BLOCK
  5
1C
330
1B
100
AcDbEntity
 67
     1
  8
0
100
AcDbBlockBegin
  2
*Paper_Space
 70
     0
 71
     0
 10
0.0
 20
0.0
 30
0.0
  3
*Paper_Space
  1

  0
ENDBLK
  5
1D
330
1B
100
AcDbEntity
 67
     1
  8
0
100
AcDbBlockEnd
  0
BLOCK
  5
33
330
2B
100
AcDbEntity
  8
0
100
AcDbBlockBegin
  2
SEANNOT_GROUP
 70
     0
 71
     0
 10
0.0
 20
0.0
 30
0.0
  3
SEANNOT_GROUP
  1

  0
LWPOLYLINE
  5
2D
330
2B
100
AcDbEntity
  8
Default
  6
Continuous
 62
     7
 48
25.4
100
AcDbPolyline
 90
        2
 70
     0
 43
0.0
 10
117.385363501
 20
370.0751473007
 10
133.987520009
 20
352.8396388908
  0
HATCH
  5
2E
330
2B
100
AcDbEntity
  8
Default
  6
Continuous
 62
     7
 48
25.4
100
AcDbHatch
 10
0.0
 20
0.0
 30
0.0
210
0.0
220
0.0
230
1.0
  2
SOLID
 70
     1
 71
     0
 91
        1
 92
        1
 93
        3
 72
     1
 10
130.7323756129095
 20
355.2580021734407
 11
133.9875200090401
 21
352.8396388907797
 72
     1
 10
133.9875200090401
 20
352.8396388907797
 11
131.6926634016715
 21
356.1830023406905
 72
     1
 10
131.6926634016715
 20
356.1830023406905
 11
130.7323756129095
 21
355.2580021734407
 97
        0
 75
     0
 76
     1
 98
        0
  0
LWPOLYLINE
  5
2F
330
2B
100
AcDbEntity
  8
Default
  6
Continuous
 62
     7
 48
25.4
370
    20
100
AcDbPolyline
 90
        4
 70
     1
 43
0.0
 10
130.7323756129
 20
355.2580021734
 10
133.987520009
 20
352.8396388908
 10
131.6926634017
 20
356.1830023407
 10
130.7323756129
 20
355.2580021734
  0
LINE
  5
30
330
2B
100
AcDbEntity
  8
Default
  6
Continuous
 62
     7
 48
25.4
100
AcDbLine
 10
117.385363501
 20
370.0751473007
 30
0.0
 11
104.689711327
 21
370.0751473007
 31
0.0
  0
TEXT
  5
32
330
2B
100
AcDbEntity
  8
Default
  6
Continuous
 62
     7
 48
25.4
100
AcDbText
 10
104.689711327
 20
371.0751473007
 30
0.0
 40
4.0
  1
3-M8
  7
SEACAD_arial_ttf
 11
104.689711327
 21
375.0751473007
 31
0.0
100
AcDbText
 73
     3
  0
ENDBLK
  5
34
330
2B
100
AcDbEntity
  8
0
100
AcDbBlockEnd
  0
BLOCK
  5
3E
330
35
100
AcDbEntity
  8
0
100
AcDbBlockBegin
  2
SEANNOT_GROUP1
 70
     0
 71
     0
 10
0.0
 20
0.0
 30
0.0
  3
SEANNOT_GROUP1
  1

  0
LWPOLYLINE
  5
37
330
35
100
AcDbEntity
  8
Default
  6
Continuous
 62
     7
 48
25.4
100
AcDbPolyline
 90
        2
 70
     0
 43
0.0
 10
261.9386817995
 20
395.9068646823
 10
225.8215279467
 20
378.4543721177
  0
HATCH
  5
38
330
35
100
AcDbEntity
  8
Default
  6
Continuous
 62
     7
 48
25.4
100
AcDbHatch
 10
0.0
 20
0.0
 30
0.0
210
0.0
220
0.0
230
1.0
  2
SOLID
 70
     1
 71
     0
 91
        1
 92
        1
 93
        3
 72
     1
 10
229.1330285562563
 20
380.794972408014
 11
225.8215279466512
 21
378.4543721176679
 72
     1
 10
225.8215279466512
 20
378.4543721176679
 11
229.7131421309845
 21
379.5944532756909
 72
     1
 10
229.7131421309845
 20
379.5944532756909
 11
229.1330285562563
 21
380.794972408014
 97
        0
 75
     0
 76
     1
 98
        0
  0
LWPOLYLINE
  5
39
330
35
100
AcDbEntity
  8
Default
  6
Continuous
 62
     7
 48
25.4
370
    20
100
AcDbPolyline
 90
        4
 70
     1
 43
0.0
 10
229.1330285563
 20
380.794972408
 10
225.8215279467
 20
378.4543721177
 10
229.713142131
 20
379.5944532757
 10
229.1330285563
 20
380.794972408
  0
LINE
  5
3A
330
35
100
AcDbEntity
  8
Default
  6
Continuous
 62
     7
 48
25.4
100
AcDbLine
 10
261.9386817995
 20
395.9068646823
 30
0.0
 11
333.7792615097
 21
395.9068646823
 31
0.0
  0
LINE
  5
3B
330
35
100
AcDbEntity
  8
Default
  6
Continuous
 62
     7
 48
25.4
100
AcDbLine
 10
225.8215279467
 20
376.7791831535
 30
0.0
 11
225.8215279467
 21
380.4543721177
 31
0.0
  0
TEXT
  5
3C
330
35
100
AcDbEntity
  8
Default
  6
Continuous
 62
     7
 48
25.4
100
AcDbText
 10
261.9386817995
 20
396.9068646823
 30
0.0
 40
4.0
  1
SERRATION PITCH 1.5X60
  7
SEACAD_arial_ttf
 11
261.9386817995
 21
400.9068646823
 31
0.0
100
AcDbText
 73
     3
  0
TEXT
  5
3D
330
35
100
AcDbEntity
  8
Default
  6
Continuous
 62
     7
 48
25.4
100
AcDbText
 10
332.112594843
 20
396.9068646823
 30
0.0
 40
4.0
  1
°
  7
SEACAD_arial_ttf
 11
332.112594843
 21
400.9068646823
 31
0.0
100
AcDbText
 73
     3
  0
ENDBLK
  5
3F
330
35
100
AcDbEntity
  8
0
100
AcDbBlockEnd
  0
BLOCK
  5
47
330
40
100
AcDbEntity
  8
0
100
AcDbBlockBegin
  2
SEANNOT_GROUP2
 70
     0
 71
     0
 10
0.0
 20
0.0
 30
0.0
  3
SEANNOT_GROUP2
  1

  0
LWPOLYLINE
  5
42
330
40
100
AcDbEntity
  8
Default
  6
Continuous
 62
     7
 48
25.4
100
AcDbPolyline
 90
        2
 70
     0
 43
0.0
 10
170.4118574367
 20
344.4170508285
 10
158.5000840056
 20
315.8791831535
  0
HATCH
  5
43
330
40
100
AcDbEntity
  8
Default
  6
Continuous
 62
     7
 48
25.4
100
AcDbHatch
 10
0.0
 20
0.0
 30
0.0
210
0.0
220
0.0
230
1.0
  2
SOLID
 70
     1
 71
     0
 91
        1
 92
        1
 93
        3
 72
     1
 10
159.4256354629728
 20
319.8273220196378
 11
158.5000840055887
 21
315.8791831534988
 72
     1
 10
158.5000840055887
 20
315.8791831534988
 11
160.6560831245647
 21
319.3137302569111
 72
     1
 10
160.6560831245647
 20
319.3137302569111
 11
159.4256354629728
 21
319.8273220196379
 97
        0
 75
     0
 76
     1
 98
        0
  0
LWPOLYLINE
  5
44
330
40
100
AcDbEntity
  8
Default
  6
Continuous
 62
     7
 48
25.4
370
    20
100
AcDbPolyline
 90
        4
 70
     1
 43
0.0
 10
159.425635463
 20
319.8273220196
 10
158.5000840056
 20
315.8791831535
 10
160.6560831246
 20
319.3137302569
 10
159.425635463
 20
319.8273220196
  0
LINE
  5
45
330
40
100
AcDbEntity
  8
Default
  6
Continuous
 62
     7
 48
25.4
100
AcDbLine
 10
170.4118574367
 20
344.4170508285
 30
0.0
 11
206.1509878714
 21
344.4170508285
 31
0.0
  0
TEXT
  5
46
330
40
100
AcDbEntity
  8
Default
  6
Continuous
 62
     7
 48
25.4
100
AcDbText
 10
170.4118574367
 20
345.4170508285
 30
0.0
 40
4.0
  1
MAX M75X2.0
  7
SEACAD_arial_ttf
 11
170.4118574367
 21
349.4170508285
 31
0.0
100
AcDbText
 73
     3
  0
ENDBLK
  5
48
330
40
100
AcDbEntity
  8
0
100
AcDbBlockEnd
  0
BLOCK
  5
50
330
49
100
AcDbEntity
  8
0
100
AcDbBlockBegin
  2
SEANNOT_GROUP3
 70
     0
 71
     0
 10
0.0
 20
0.0
 30
0.0
  3
SEANNOT_GROUP3
  1

  0
LWPOLYLINE
  5
4B
330
49
100
AcDbEntity
  8
Default
  6
Continuous
 62
     7
 48
25.4
100
AcDbPolyline
 90
        2
 70
     0
 43
0.0
 10
102.9946466525
 20
212.1190393713
 10
127.4405706342
 20
237.1591831535
  0
HATCH
  5
4C
330
49
100
AcDbEntity
  8
Default
  6
Continuous
 62
     7
 48
25.4
100
AcDbHatch
 10
0.0
 20
0.0
 30
0.0
210
0.0
220
0.0
230
1.0
  2
SOLID
 70
     1
 71
     0
 91
        1
 92
        1
 93
        3
 72
     1
 10
125.1233387572262
 20
233.8312885585781
 11
127.4405706342036
 21
237.1591831534989
 72
     1
 10
127.4405706342036
 20
237.1591831534988
 11
124.1692773684399
 21
234.7627094157016
 72
     1
 10
124.1692773684399
 20
234.7627094157016
 11
125.1233387572262
 21
233.8312885585781
 97
        0
 75
     0
 76
     1
 98
        0
  0
LWPOLYLINE
  5
4D
330
49
100
AcDbEntity
  8
Default
  6
Continuous
 62
     7
 48
25.4
370
    20
100
AcDbPolyline
 90
        4
 70
     1
 43
0.0
 10
125.1233387572
 20
233.8312885586
 10
127.4405706342
 20
237.1591831535
 10
124.1692773684
 20
234.7627094157
 10
125.1233387572
 20
233.8312885586
  0
LINE
  5
4E
330
49
100
AcDbEntity
  8
Default
  6
Continuous
 62
     7
 48
25.4
100
AcDbLine
 10
102.9946466525
 20
212.1190393713
 30
0.0
 11
87.168559696
 21
212.1190393713
 31
0.0
  0
TEXT
  5
4F
330
49
100
AcDbEntity
  8
Default
  6
Continuous
 62
     7
 48
25.4
100
AcDbText
 10
87.168559696
 20
213.1190393713
 30
0.0
 40
4.0
  1
3-M16
  7
SEACAD_arial_ttf
 11
87.168559696
 21
217.1190393713
 31
0.0
100
AcDbText
 73
     3
  0
ENDBLK
  5
51
330
49
100
AcDbEntity
  8
0
100
AcDbBlockEnd
  0
BLOCK
  5
197
330
52
100
AcDbEntity
  8
0
100
AcDbBlockBegin
  2
SE
 70
     0
 71
     0
 10
0.0
 20
0.0
 30
0.0
  3
SE
  1

  0
LINE
  5
55
330
52
100
AcDbEntity
  8
DV1_Default
  6
Continuous
 62
     7
 48
25.4
100
AcDbLine
 10
208.7255866487
 20
249.4591831535
 30
0.0
 11
208.7255866487
 21
241.9591831535
 31
0.0
  0
LINE
  5
56
330
52
100
AcDbEntity
  8
DV1_Default
  6
Continuous
 62
     7
 48
25.4
100
AcDbLine
 10
152.7934255699
 20
246.7144022412
 30
0.0
 11
152.7934255699
 21
241.9144043288
 31
0.0
  0
LINE
  5
57
330
52
100
AcDbEntity
  8
DV1_Default
  6
Continuous
 62
     7
 48
25.4
100
AcDbLine
 10
208.7255866487
 20
249.1591831535
 30
0.0
 11
217.7255866487
 21
249.1591831535
 31
0.0
  0
LINE
  5
58
330
52
100
AcDbEntity
  8
DV1_Default
  6
Continuous
 62
     7
 48
25.4
100
AcDbLine
 10
218.6255866487
 20
248.2591831535
 30
0.0
 11
218.6255866487
 21
241.9591831535
 31
0.0
  0
LINE
  5
59
330
52
100
AcDbEntity
  8
DV1_Default
  6
Continuous
 62
     7
 48
25.4
100
AcDbLine
 10
118.7215279485
 20
246.1591831535
 30
0.0
 11
144.9934255699
 21
246.1591831535
 31
0.0
  0
LINE
  5
5A
330
52
100
AcDbEntity
  8
DV1_Default
  6
Continuous
 62
     7
 48
25.4
100
AcDbLine
 10
225.8215279467
 20
376.7791831535
 30
0.0
 11
255.5215279467
 21
376.7791831535
 31
0.0
  0
LINE
  5
5B
330
52
100
AcDbEntity
  8
DV1_Default
  6
Continuous
 62
     7
 48
25.4
100
AcDbLine
 10
255.5215279467
 20
376.7791831535
 30
0.0
 11
255.5215279467
 21
310.1791831535
 31
0.0
  0
LINE
  5
5C
330
52
100
AcDbEntity
  8
DV1_Default
  6
Continuous
 62
     7
 48
25.4
100
AcDbLine
 10
255.5215279467
 20
310.1791831535
 30
0.0
 11
226.7215279467
 21
310.1791831535
 31
0.0
  0
LINE
  5
5D
330
52
100
AcDbEntity
  8
DV1_Default
  6
Continuous
 62
     7
 48
25.4
100
AcDbLine
 10
225.5215279467
 20
316.0435395794
 30
0.0
 11
225.5215279467
 21
376.4791831535
 31
0.0
  0
LINE
  5
5E
330
52
100
AcDbEntity
  8
DV1_Default
  6
Continuous
 62
     7
 48
25.4
100
AcDbLine
 10
255.5215279467
 20
371.6791831535
 30
0.0
 11
235.7215279467
 21
371.6791831535
 31
0.0
  0
LINE
  5
5F
330
52
100
AcDbEntity
  8
DV1_Default
  6
Continuous
 62
     7
 48
25.4
100
AcDbLine
 10
235.7215279467
 20
356.6791831535
 30
0.0
 11
255.5215279467
 21
356.6791831535
 31
0.0
  0
LINE
  5
60
330
52
100
AcDbEntity
  8
DV1_Default
  6
Continuous
 62
     7
 48
25.4
100
AcDbLine
 10
225.5215279467
 20
376.4791831535
 30
0.0
 11
225.8215279467
 21
376.7791831535
 31
0.0
  0
LINE
  5
61
330
52
100
AcDbEntity
  8
DV1_Default
  6
Continuous
 62
     7
 48
25.4
100
AcDbLine
 10
225.8215279467
 20
376.7791831535
 30
0.0
 11
225.8215279467
 21
315.7362952077
 31
0.0
  0
LINE
  5
62
330
52
100
AcDbEntity
  8
DV1_Default
  6
Continuous
 62
     7
 48
25.4
100
AcDbLine
 10
226.7215279467
 20
310.1791831535
 30
0.0
 11
226.7215279467
 21
315.5541235211
 31
0.0
  0
ARC
  5
63
330
52
100
AcDbEntity
  8
DV1_Default
  6
Continuous
 62
     7
 48
25.4
100
AcDbCircle
 10
226.4810553325
 20
316.680357311
 30
0.0
 40
1.151620435565075
100
AcDbArc
 50
213.5713759273
 51
282.0527642758
  0
LINE
  5
64
330
52
100
AcDbEntity
  8
DV1_Default
  6
Continuous
 62
     7
 48
25.4
100
AcDbLine
 10
227.9215279467
 20
351.6151806882
 30
0.0
 11
227.9215279467
 21
358.7769303283
 31
0.0
  0
LINE
  5
65
330
52
100
AcDbEntity
  8
DV1_Default
  6
Continuous
 62
     7
 48
25.4
100
AcDbLine
 10
235.1215279467
 20
369.2769303283
 30
0.0
 11
235.1215279467
 21
359.0769303283
 31
0.0
  0
LINE
  5
66
330
52
100
AcDbEntity
  8
DV1_Default
  6
Continuous
 62
     7
 48
25.4
100
AcDbLine
 10
235.7215279467
 20
369.5769303283
 30
0.0
 11
227.9215279467
 21
369.5769303283
 31
0.0
  0
LINE
  5
67
330
52
100
AcDbEntity
  8
DV1_Default
  6
Continuous
 62
     7
 48
25.4
100
AcDbLine
 10
227.9215279467
 20
369.5769303283
 30
0.0
 11
227.9215279467
 21
376.7791831535
 31
0.0
  0
LINE
  5
68
330
52
100
AcDbEntity
  8
DV1_Default
  6
Continuous
 62
     7
 48
25.4
100
AcDbLine
 10
235.7215279467
 20
371.6791831535
 30
0.0
 11
235.7215279467
 21
356.6791831535
 31
0.0
  0
LINE
  5
69
330
52
100
AcDbEntity
  8
DV1_Default
  6
Continuous
 62
     7
 48
25.4
100
AcDbLine
 10
227.6215279467
 20
368.9769303283
 30
0.0
 11
235.1215279467
 21
368.9769303283
 31
0.0
  0
LINE
  5
6A
330
52
100
AcDbEntity
  8
DV1_Default
  6
Continuous
 62
     7
 48
25.4
100
AcDbLine
 10
235.7215279467
 20
358.7769303283
 30
0.0
 11
227.9215279467
 21
358.7769303283
 31
0.0
  0
LINE
  5
6B
330
52
100
AcDbEntity
  8
DV1_Default
  6
Continuous
 62
     7
 48
25.4
100
AcDbLine
 10
227.6215279467
 20
359.0769303283
 30
0.0
 11
235.7215279467
 21
359.0769303283
 31
0.0
  0
LINE
  5
6C
330
52
100
AcDbEntity
  8
DV1_Default
  6
Continuous
 62
     7
 48
25.4
100
AcDbLine
 10
227.6215279467
 20
359.3769303283
 30
0.0
 11
235.1215279467
 21
359.3769303283
 31
0.0
  0
LINE
  5
6D
330
52
100
AcDbEntity
  8
DV1_Default
  6
Continuous
 62
     7
 48
25.4
100
AcDbLine
 10
245.3215279467
 20
370.7791831535
 30
0.0
 11
245.3215279467
 21
357.5791831535
 31
0.0
  0
LINE
  5
6E
330
52
100
AcDbEntity
  8
DV1_Default
  6
Continuous
 62
     7
 48
25.4
100
AcDbLine
 10
244.7215279467
 20
371.3791831535
 30
0.0
 11
245.3215279467
 21
370.7791831535
 31
0.0
  0
LINE
  5
6F
330
52
100
AcDbEntity
  8
DV1_Default
  6
Continuous
 62
     7
 48
25.4
100
AcDbLine
 10
244.7215279467
 20
356.9791831535
 30
0.0
 11
245.3215279467
 21
357.5791831535
 31
0.0
  0
LINE
  5
70
330
52
100
AcDbEntity
  8
DV1_Default
  6
Continuous
 62
     7
 48
25.4
100
AcDbLine
 10
244.7215279467
 20
371.3791831535
 30
0.0
 11
244.7215279467
 21
356.9791831535
 31
0.0
  0
LINE
  5
71
330
52
100
AcDbEntity
  8
DV1_Default
  6
Continuous
 62
     7
 48
25.4
100
AcDbLine
 10
255.5215279467
 20
338.7129278631
 30
0.0
 11
235.7215279467
 21
338.7129278631
 31
0.0
  0
LINE
  5
72
330
52
100
AcDbEntity
  8
DV1_Default
  6
Continuous
 62
     7
 48
25.4
100
AcDbLine
 10
235.7215279467
 20
353.7129278631
 30
0.0
 11
255.5215279467
 21
353.7129278631
 31
0.0
  0
LINE
  5
73
330
52
100
AcDbEntity
  8
DV1_Default
  6
Continuous
 62
     7
 48
25.4
100
AcDbLine
 10
235.1215279467
 20
341.1151806882
 30
0.0
 11
235.1215279467
 21
351.3151806882
 31
0.0
  0
LINE
  5
74
330
52
100
AcDbEntity
  8
DV1_Default
  6
Continuous
 62
     7
 48
25.4
100
AcDbLine
 10
235.7215279467
 20
340.8151806882
 30
0.0
 11
227.9215279467
 21
340.8151806882
 31
0.0
  0
LINE
  5
75
330
52
100
AcDbEntity
  8
DV1_Default
  6
Continuous
 62
     7
 48
25.4
100
AcDbLine
 10
235.7215279467
 20
338.7129278631
 30
0.0
 11
235.7215279467
 21
353.7129278631
 31
0.0
  0
LINE
  5
76
330
52
100
AcDbEntity
  8
DV1_Default
  6
Continuous
 62
     7
 48
25.4
100
AcDbLine
 10
235.7215279467
 20
341.1151806882
 30
0.0
 11
227.6215279467
 21
341.1151806882
 31
0.0
  0
LINE
  5
77
330
52
100
AcDbEntity
  8
DV1_Default
  6
Continuous
 62
     7
 48
25.4
100
AcDbLine
 10
227.6215279467
 20
341.4151806882
 30
0.0
 11
235.1215279467
 21
341.4151806882
 31
0.0
  0
LINE
  5
78
330
52
100
AcDbEntity
  8
DV1_Default
  6
Continuous
 62
     7
 48
25.4
100
AcDbLine
 10
235.7215279467
 20
351.6151806882
 30
0.0
 11
227.9215279467
 21
351.6151806882
 31
0.0
  0
LINE
  5
79
330
52
100
AcDbEntity
  8
DV1_Default
  6
Continuous
 62
     7
 48
25.4
100
AcDbLine
 10
227.6215279467
 20
351.3151806882
 30
0.0
 11
235.7215279467
 21
351.3151806882
 31
0.0
  0
LINE
  5
7A
330
52
100
AcDbEntity
  8
DV1_Default
  6
Continuous
 62
     7
 48
25.4
100
AcDbLine
 10
227.6215279467
 20
351.0151806882
 30
0.0
 11
235.1215279467
 21
351.0151806882
 31
0.0
  0
LINE
  5
7B
330
52
100
AcDbEntity
  8
DV1_Default
  6
Continuous
 62
     7
 48
25.4
100
AcDbLine
 10
235.7215279467
 20
338.7129278631
 30
0.0
 11
235.7215279467
 21
339.0129278631
 31
0.0
  0
LINE
  5
7C
330
52
100
AcDbEntity
  8
DV1_Default
  6
Continuous
 62
     7
 48
25.4
100
AcDbLine
 10
245.3215279467
 20
339.6129278631
 30
0.0
 11
245.3215279467
 21
352.8129278631
 31
0.0
  0
LINE
  5
7D
330
52
100
AcDbEntity
  8
DV1_Default
  6
Continuous
 62
     7
 48
25.4
100
AcDbLine
 10
244.7215279467
 20
339.0129278631
 30
0.0
 11
245.3215279467
 21
339.6129278631
 31
0.0
  0
LINE
  5
7E
330
52
100
AcDbEntity
  8
DV1_Default
  6
Continuous
 62
     7
 48
25.4
100
AcDbLine
 10
244.7215279467
 20
353.4129278631
 30
0.0
 11
245.3215279467
 21
352.8129278631
 31
0.0
  0
LINE
  5
7F
330
52
100
AcDbEntity
  8
DV1_Default
  6
Continuous
 62
     7
 48
25.4
100
AcDbLine
 10
244.7215279467
 20
339.0129278631
 30
0.0
 11
244.7215279467
 21
353.4129278631
 31
0.0
  0
LINE
  5
80
330
52
100
AcDbEntity
  8
DV1_Default
  6
Continuous
 62
     7
 48
25.4
100
AcDbLine
 10
227.9215279467
 20
340.8151806882
 30
0.0
 11
227.9215279467
 21
310.1791831535
 31
0.0
  0
LINE
  5
81
330
52
100
AcDbEntity
  8
DV1_Default
  6
Continuous
 62
     7
 48
25.4
100
AcDbLine
 10
227.1715279467
 20
372.0606510671
 30
0.0
 11
227.1715279467
 21
338.6045983865
 31
0.0
  0
LINE
  5
82
330
52
100
AcDbEntity
  8
DV1_Default
  6
Continuous
 62
     7
 48
25.4
100
AcDbLine
 10
235.7215279467
 20
369.2769303283
 30
0.0
 11
227.1715279467
 21
369.2769303283
 31
0.0
  0
LINE
  5
83
330
52
100
AcDbEntity
  8
DV1_Default
  6
Continuous
 62
     7
 48
25.4
100
AcDbLine
 10
227.6215279467
 20
368.9769303283
 30
0.0
 11
227.1715279467
 21
368.9769303283
 31
0.0
  0
LINE
  5
84
330
52
100
AcDbEntity
  8
DV1_Default
  6
Continuous
 62
     7
 48
25.4
100
AcDbLine
 10
227.6215279467
 20
359.3769303283
 30
0.0
 11
227.1715279467
 21
359.3769303283
 31
0.0
  0
LINE
  5
85
330
52
100
AcDbEntity
  8
DV1_Default
  6
Continuous
 62
     7
 48
25.4
100
AcDbLine
 10
227.6215279467
 20
359.0769303283
 30
0.0
 11
227.1715279467
 21
359.0769303283
 31
0.0
  0
LINE
  5
86
330
52
100
AcDbEntity
  8
DV1_Default
  6
Continuous
 62
     7
 48
25.4
100
AcDbLine
 10
227.6215279467
 20
351.3151806882
 30
0.0
 11
227.1715279467
 21
351.3151806882
 31
0.0
  0
LINE
  5
87
330
52
100
AcDbEntity
  8
DV1_Default
  6
Continuous
 62
     7
 48
25.4
100
AcDbLine
 10
227.6215279467
 20
351.0151806882
 30
0.0
 11
227.1715279467
 21
351.0151806882
 31
0.0
  0
LINE
  5
88
330
52
100
AcDbEntity
  8
DV1_Default
  6
Continuous
 62
     7
 48
25.4
100
AcDbLine
 10
227.6215279467
 20
341.4151806882
 30
0.0
 11
227.1715279467
 21
341.4151806882
 31
0.0
  0
LINE
  5
89
330
52
100
AcDbEntity
  8
DV1_Default
  6
Continuous
 62
     7
 48
25.4
100
AcDbLine
 10
227.6215279467
 20
341.1151806882
 30
0.0
 11
227.1715279467
 21
341.1151806882
 31
0.0
  0
LINE
  5
8A
330
52
100
AcDbEntity
  8
DV1_Default
  6
Continuous
 62
     7
 48
25.4
100
AcDbLine
 10
225.8215279467
 20
376.7791831535
 30
0.0
 11
225.8215279467
 21
384.5791831535
 31
0.0
  0
LINE
  5
8B
330
52
100
AcDbEntity
  8
DV1_Default
  6
Continuous
 62
     7
 48
25.4
100
AcDbLine
 10
225.8215279467
 20
384.5791831535
 30
0.0
 11
225.8215279467
 21
387.2791831535
 31
0.0
  0
LINE
  5
8C
330
52
100
AcDbEntity
  8
DV1_Default
  6
Continuous
 62
     7
 48
25.4
100
AcDbLine
 10
225.5215279467
 20
387.5791831535
 30
0.0
 11
195.8215279467
 21
387.5791831535
 31
0.0
  0
LINE
  5
8D
330
52
100
AcDbEntity
  8
DV1_Default
  6
Continuous
 62
     7
 48
25.4
100
AcDbLine
 10
195.8215279467
 20
387.5791831535
 30
0.0
 11
195.8215279467
 21
384.5791831535
 31
0.0
  0
LINE
  5
8E
330
52
100
AcDbEntity
  8
DV1_Default
  6
Continuous
 62
     7
 48
25.4
100
AcDbLine
 10
225.8215279467
 20
387.2791831535
 30
0.0
 11
225.5215279467
 21
387.5791831535
 31
0.0
  0
LINE
  5
8F
330
52
100
AcDbEntity
  8
DV1_Default
  6
Continuous
 62
     7
 48
25.4
100
AcDbLine
 10
225.5215279467
 20
387.5791831535
 30
0.0
 11
225.5215279467
 21
376.4791831535
 31
0.0
  0
LINE
  5
90
330
52
100
AcDbEntity
  8
DV1_Default
  6
Continuous
 62
     7
 48
25.4
100
AcDbLine
 10
141.5215279485
 20
227.3791831535
 30
0.0
 11
141.5215279485
 21
203.3791831535
 31
0.0
  0
LINE
  5
91
330
52
100
AcDbEntity
  8
DV1_Default
  6
Continuous
 62
     7
 48
25.4
100
AcDbLine
 10
141.5215279485
 20
203.3791831535
 30
0.0
 11
142.7215279485
 21
202.1791831535
 31
0.0
  0
LINE
  5
92
330
52
100
AcDbEntity
  8
DV1_Default
  6
Continuous
 62
     7
 48
25.4
100
AcDbLine
 10
224.3215279485
 20
203.3791831535
 30
0.0
 11
223.1215279485
 21
202.1791831535
 31
0.0
  0
LINE
  5
93
330
52
100
AcDbEntity
  8
DV1_Default
  6
Continuous
 62
     7
 48
25.4
100
AcDbLine
 10
208.7255866487
 20
246.7591831535
 30
0.0
 11
208.7255866487
 21
247.0591831535
 31
0.0
  0
LINE
  5
94
330
52
100
AcDbEntity
  8
DV1_Default
  6
Continuous
 62
     7
 48
25.4
100
AcDbLine
 10
208.7255866487
 20
247.0591831535
 30
0.0
 11
148.7215279485
 21
247.0591831535
 31
0.0
  0
LINE
  5
95
330
52
100
AcDbEntity
  8
DV1_Default
  6
Continuous
 62
     7
 48
25.4
100
AcDbLine
 10
208.7255866487
 20
249.4591831535
 30
0.0
 11
224.3215279485
 21
249.4591831535
 31
0.0
  0
LINE
  5
97
330
52
100
AcDbEntity
  8
DV1_Default
  6
CENTER2
 62
     7
 48
25.4
100
AcDbLine
 10
110.1051913316
 20
293.3791831535
 30
0.0
 11
259.1573288953
 21
293.3791831535
 31
0.0
  0
LINE
  5
98
330
52
100
AcDbEntity
  8
DV1_Default
  6
Continuous
 62
     7
 48
25.4
100
AcDbLine
 10
224.3215279485
 20
273.2791831535
 30
0.0
 11
224.3215279485
 21
203.3791831535
 31
0.0
  0
LINE
  5
99
330
52
100
AcDbEntity
  8
DV1_Default
  6
Continuous
 62
     7
 48
25.4
100
AcDbLine
 10
208.7255866487
 20
234.4591831535
 30
0.0
 11
208.7255866487
 21
241.9591831535
 31
0.0
  0
LINE
  5
9A
330
52
100
AcDbEntity
  8
DV1_Default
  6
Continuous
 62
     7
 48
25.4
100
AcDbLine
 10
208.7255866487
 20
234.7591831535
 30
0.0
 11
217.7255866487
 21
234.7591831535
 31
0.0
  0
LINE
  5
9B
330
52
100
AcDbEntity
  8
DV1_Default
  6
Continuous
 62
     7
 48
25.4
100
AcDbLine
 10
218.6255866487
 20
235.6591831535
 30
0.0
 11
218.6255866487
 21
241.9591831535
 31
0.0
  0
LINE
  5
9C
330
52
100
AcDbEntity
  8
DV1_Default
  6
Continuous
 62
     7
 48
25.4
100
AcDbLine
 10
208.7255866487
 20
237.2039640658
 30
0.0
 11
208.7255866487
 21
236.9039640658
 31
0.0
  0
LINE
  5
9D
330
52
100
AcDbEntity
  8
DV1_Default
  6
Continuous
 62
     7
 48
25.4
100
AcDbLine
 10
208.7255866487
 20
234.4591831535
 30
0.0
 11
224.3215279485
 21
234.4591831535
 31
0.0
  0
LINE
  5
9E
330
52
100
AcDbEntity
  8
DV1_Default
  6
Continuous
 62
     7
 48
25.4
100
AcDbLine
 10
208.7255866487
 20
241.9591831535
 30
0.0
 11
208.7255866487
 21
247.0591831535
 31
0.0
  0
LINE
  5
9F
330
52
100
AcDbEntity
  8
DV1_Default
  6
Continuous
 62
     7
 48
25.4
100
AcDbLine
 10
208.7255866487
 20
234.4591831535
 30
0.0
 11
208.7255866487
 21
241.9591831535
 31
0.0
  0
LINE
  5
A0
330
52
100
AcDbEntity
  8
DV1_Default
  6
Continuous
 62
     7
 48
25.4
100
AcDbLine
 10
152.7934255699
 20
237.2039640658
 30
0.0
 11
152.7934255699
 21
242.0039619781
 31
0.0
  0
LINE
  5
A1
330
52
100
AcDbEntity
  8
DV1_Default
  6
Continuous
 62
     7
 48
25.4
100
AcDbLine
 10
118.7215279485
 20
237.7591831535
 30
0.0
 11
144.9934255699
 21
237.7591831535
 31
0.0
  0
LINE
  5
A2
330
52
100
AcDbEntity
  8
DV1_Default
  6
Continuous
 62
     7
 48
25.4
100
AcDbLine
 10
208.7255866487
 20
237.1591831535
 30
0.0
 11
208.7255866487
 21
236.8591831535
 31
0.0
  0
LINE
  5
A3
330
52
100
AcDbEntity
  8
DV1_Default
  6
Continuous
 62
     7
 48
25.4
100
AcDbLine
 10
208.7255866487
 20
236.8591831535
 30
0.0
 11
148.7215279485
 21
236.8591831535
 31
0.0
  0
LINE
  5
A4
330
52
100
AcDbEntity
  8
DV1_Default
  6
Continuous
 62
     7
 48
25.4
100
AcDbLine
 10
208.7255866487
 20
241.9591831535
 30
0.0
 11
208.7255866487
 21
236.8591831535
 31
0.0
  0
LINE
  5
A5
330
52
100
AcDbEntity
  8
DV1_Default
  6
Continuous
 62
     7
 48
25.4
100
AcDbLine
 10
118.7215279485
 20
246.7591831535
 30
0.0
 11
118.7215279485
 21
237.1591831535
 31
0.0
  0
LINE
  5
A6
330
52
100
AcDbEntity
  8
DV1_Default
  6
Continuous
 62
     7
 48
25.4
100
AcDbLine
 10
217.7255866487
 20
234.7591831535
 30
0.0
 11
218.6255866487
 21
235.6591831535
 31
0.0
  0
LINE
  5
A7
330
52
100
AcDbEntity
  8
DV1_Default
  6
Continuous
 62
     7
 48
25.4
100
AcDbLine
 10
218.6255866487
 20
248.2591831535
 30
0.0
 11
217.7255866487
 21
249.1591831535
 31
0.0
  0
LINE
  5
A8
330
52
100
AcDbEntity
  8
DV1_Default
  6
Continuous
 62
     7
 48
25.4
100
AcDbLine
 10
217.7255866487
 20
234.7591831535
 30
0.0
 11
217.7255866487
 21
249.1591831535
 31
0.0
  0
LINE
  5
A9
330
52
100
AcDbEntity
  8
DV1_Default
  6
CENTER2
 62
     7
 48
25.4
100
AcDbLine
 10
116.6215279485
 20
241.9591831535
 30
0.0
 11
226.8740083408
 21
241.9591831535
 31
0.0
  0
LINE
  5
AA
330
52
100
AcDbEntity
  8
DV1_Default
  6
Continuous
 62
     7
 48
25.4
100
AcDbLine
 10
196.4585535464
 20
257.6791831535
 30
0.0
 11
196.4585535464
 21
259.7791831535
 31
0.0
  0
LINE
  5
AB
330
52
100
AcDbEntity
  8
DV1_Default
  6
Continuous
 62
     7
 48
25.4
100
AcDbLine
 10
149.4415279485
 20
269.3791831535
 30
0.0
 11
149.4415279485
 21
293.3791831535
 31
0.0
  0
LINE
  5
AC
330
52
100
AcDbEntity
  8
DV1_Default
  6
Continuous
 62
     7
 48
25.4
100
AcDbLine
 10
196.4585535464
 20
268.4791831535
 30
0.0
 11
196.4585535464
 21
266.0791831535
 31
0.0
  0
LINE
  5
AD
330
52
100
AcDbEntity
  8
DV1_Default
  6
Continuous
 62
     7
 48
25.4
100
AcDbLine
 10
149.4415279485
 20
293.3791831535
 30
0.0
 11
149.4415279485
 21
278.3791831535
 31
0.0
  0
LINE
  5
AE
330
52
100
AcDbEntity
  8
DV1_Default
  6
Continuous
 62
     7
 48
25.4
100
AcDbLine
 10
149.4415279485
 20
278.3791831535
 30
0.0
 11
169.8415279485
 21
278.3791831535
 31
0.0
  0
LINE
  5
AF
330
52
100
AcDbEntity
  8
DV1_Default
  6
Continuous
 62
     7
 48
25.4
100
AcDbLine
 10
172.2415279485
 20
293.3791831535
 30
0.0
 11
172.2415279485
 21
270.5791831535
 31
0.0
  0
LINE
  5
B0
330
52
100
AcDbEntity
  8
DV1_Default
  6
Continuous
 62
     7
 48
25.4
100
AcDbLine
 10
172.2415279485
 20
270.5791831535
 30
0.0
 11
169.8415279485
 21
270.5791831535
 31
0.0
  0
LINE
  5
B1
330
52
100
AcDbEntity
  8
DV1_Default
  6
Continuous
 62
     7
 48
25.4
100
AcDbLine
 10
169.8415279485
 20
270.5791831535
 30
0.0
 11
169.8415279485
 21
293.3791831535
 31
0.0
  0
LINE
  5
B2
330
52
100
AcDbEntity
  8
DV1_Default
  6
Continuous
 62
     7
 48
25.4
100
AcDbLine
 10
169.8415279485
 20
293.3791831535
 30
0.0
 11
169.8415279485
 21
270.8791831535
 31
0.0
  0
LINE
  5
B4
330
52
100
AcDbEntity
  8
DV1_Default
  6
HIDDEN2
 62
     7
 48
25.4
100
AcDbLine
 10
169.8415279485
 20
270.8791831535
 30
0.0
 11
149.4415279485
 21
270.8791831535
 31
0.0
  0
LINE
  5
B5
330
52
100
AcDbEntity
  8
DV1_Default
  6
HIDDEN2
 62
     7
 48
25.4
100
AcDbLine
 10
149.4415279485
 20
272.0791831535
 30
0.0
 11
169.8415279485
 21
272.0791831535
 31
0.0
  0
LINE
  5
B6
330
52
100
AcDbEntity
  8
DV1_Default
  6
Continuous
 62
     7
 48
25.4
100
AcDbLine
 10
149.4415279485
 20
269.3791831535
 30
0.0
 11
150.3415279485
 21
268.4791831535
 31
0.0
  0
LINE
  5
B7
330
52
100
AcDbEntity
  8
DV1_Default
  6
Continuous
 62
     7
 48
25.4
100
AcDbLine
 10
222.2215279485
 20
258.3070392116
 30
0.0
 11
218.3227720338
 21
258.3070392116
 31
0.0
  0
LINE
  5
B8
330
52
100
AcDbEntity
  8
DV1_Default
  6
Continuous
 62
     7
 48
25.4
100
AcDbLine
 10
222.2215279485
 20
258.0209193664
 30
0.0
 11
218.3227720338
 21
258.0209193664
 31
0.0
  0
LINE
  5
B9
330
52
100
AcDbEntity
  8
DV1_Default
  6
Continuous
 62
     7
 48
25.4
100
AcDbLine
 10
222.2215279485
 20
255.6209193664
 30
0.0
 11
218.3227720338
 21
255.6209193664
 31
0.0
  0
LINE
  5
BA
330
52
100
AcDbEntity
  8
DV1_Default
  6
CENTER2
 62
     7
 48
25.4
100
AcDbLine
 10
224.9215279485
 20
256.7791831535
 30
0.0
 11
214.8592148579
 21
256.7791831535
 31
0.0
  0
LINE
  5
BB
330
52
100
AcDbEntity
  8
DV1_Default
  6
Continuous
 62
     7
 48
25.4
100
AcDbLine
 10
224.3215279485
 20
256.7791831535
 30
0.0
 11
224.3215279485
 21
253.7791831535
 31
0.0
  0
LINE
  5
BC
330
52
100
AcDbEntity
  8
DV1_Default
  6
Continuous
 62
     7
 48
25.4
100
AcDbLine
 10
224.3215279485
 20
253.7791831535
 30
0.0
 11
222.2215279485
 21
253.7791831535
 31
0.0
  0
LINE
  5
BD
330
52
100
AcDbEntity
  8
DV1_Default
  6
Continuous
 62
     7
 48
25.4
100
AcDbLine
 10
222.2215279485
 20
253.7791831535
 30
0.0
 11
222.2215279485
 21
259.7791831535
 31
0.0
  0
LINE
  5
BE
330
52
100
AcDbEntity
  8
DV1_Default
  6
Continuous
 62
     7
 48
25.4
100
AcDbLine
 10
222.2215279485
 20
259.7791831535
 30
0.0
 11
224.3215279485
 21
259.7791831535
 31
0.0
  0
LINE
  5
BF
330
52
100
AcDbEntity
  8
DV1_Default
  6
Continuous
 62
     7
 48
25.4
100
AcDbLine
 10
216.2215279485
 20
255.3070392116
 30
0.0
 11
216.2215279485
 21
258.3070392116
 31
0.0
  0
LINE
  5
C0
330
52
100
AcDbEntity
  8
DV1_Default
  6
Continuous
 62
     7
 48
25.4
100
AcDbLine
 10
216.2215279485
 20
258.3070392116
 30
0.0
 11
218.3227720338
 21
258.3070392116
 31
0.0
  0
LINE
  5
C1
330
52
100
AcDbEntity
  8
DV1_Default
  6
Continuous
 62
     7
 48
25.4
100
AcDbLine
 10
218.3227720338
 20
258.0209193664
 30
0.0
 11
216.2215279485
 21
258.0209193664
 31
0.0
  0
LINE
  5
C2
330
52
100
AcDbEntity
  8
DV1_Default
  6
Continuous
 62
     7
 48
25.4
100
AcDbLine
 10
218.3227720338
 20
255.6209193664
 30
0.0
 11
216.2215279485
 21
255.6209193664
 31
0.0
  0
LINE
  5
C3
330
52
100
AcDbEntity
  8
DV1_Default
  6
Continuous
 62
     7
 48
25.4
100
AcDbLine
 10
216.2215279485
 20
255.3070392116
 30
0.0
 11
222.2215279485
 21
255.3070392116
 31
0.0
  0
LINE
  5
C4
330
52
100
AcDbEntity
  8
DV1_Default
  6
Continuous
 62
     7
 48
25.4
100
AcDbLine
 10
222.2215279485
 20
259.7791831535
 30
0.0
 11
222.2215279485
 21
259.4791831535
 31
0.0
  0
LINE
  5
C5
330
52
100
AcDbEntity
  8
DV1_Default
  6
Continuous
 62
     7
 48
25.4
100
AcDbLine
 10
222.2215279485
 20
259.4791831535
 30
0.0
 11
223.1215279485
 21
259.4791831535
 31
0.0
  0
LINE
  5
C6
330
52
100
AcDbEntity
  8
DV1_Default
  6
Continuous
 62
     7
 48
25.4
100
AcDbLine
 10
224.0215279485
 20
258.5791831535
 30
0.0
 11
224.0215279485
 21
254.9791831535
 31
0.0
  0
LINE
  5
C7
330
52
100
AcDbEntity
  8
DV1_Default
  6
Continuous
 62
     7
 48
25.4
100
AcDbLine
 10
223.1215279485
 20
254.0791831535
 30
0.0
 11
222.2215279485
 21
254.0791831535
 31
0.0
  0
ARC
  5
C8
330
52
100
AcDbEntity
  8
DV1_Default
  6
Continuous
 62
     7
 48
25.4
100
AcDbCircle
 10
223.1215279485
 20
258.5791831535
 30
0.0
 40
0.9
100
AcDbArc
 50
0.0
 51
90.0
  0
ARC
  5
C9
330
52
100
AcDbEntity
  8
DV1_Default
  6
Continuous
 62
     7
 48
25.4
100
AcDbCircle
 10
223.1215279485
 20
254.9791831535
 30
0.0
 40
0.9
100
AcDbArc
 50
270.0
 51
360.0
  0
LINE
  5
CA
330
52
100
AcDbEntity
  8
DV1_Default
  6
Continuous
 62
     7
 48
25.4
100
AcDbLine
 10
222.2215279485
 20
255.3070392116
 30
0.0
 11
221.6215279485
 21
255.3070392116
 31
0.0
  0
LINE
  5
CB
330
52
100
AcDbEntity
  8
DV1_Default
  6
Continuous
 62
     7
 48
25.4
100
AcDbLine
 10
221.6215279485
 20
255.0070392116
 30
0.0
 11
222.2215279485
 21
255.0070392116
 31
0.0
  0
LINE
  5
CC
330
52
100
AcDbEntity
  8
DV1_Default
  6
Continuous
 62
     7
 48
25.4
100
AcDbLine
 10
221.6215279485
 20
255.0070392116
 30
0.0
 11
221.6215279485
 21
252.5791831535
 31
0.0
  0
LINE
  5
CD
330
52
100
AcDbEntity
  8
DV1_Default
  6
Continuous
 62
     7
 48
25.4
100
AcDbLine
 10
221.6215279485
 20
252.5791831535
 30
0.0
 11
224.3215279485
 21
252.5791831535
 31
0.0
  0
LINE
  5
CE
330
52
100
AcDbEntity
  8
DV1_Default
  6
Continuous
 62
     7
 48
25.4
100
AcDbLine
 10
221.6215279485
 20
258.6070392116
 30
0.0
 11
222.2215279485
 21
258.6070392116
 31
0.0
  0
LINE
  5
CF
330
52
100
AcDbEntity
  8
DV1_Default
  6
Continuous
 62
     7
 48
25.4
100
AcDbLine
 10
196.1585535464
 20
257.3791831535
 30
0.0
 11
196.4585535464
 21
257.6791831535
 31
0.0
  0
LINE
  5
D0
330
52
100
AcDbEntity
  8
DV1_Default
  6
Continuous
 62
     7
 48
25.4
100
AcDbLine
 10
197.0585535464
 20
257.3791831535
 30
0.0
 11
196.1585535464
 21
257.3791831535
 31
0.0
  0
LINE
  5
D1
330
52
100
AcDbEntity
  8
DV1_Default
  6
Continuous
 62
     7
 48
25.4
100
AcDbLine
 10
197.0585535464
 20
257.3791831535
 30
0.0
 11
197.0585535464
 21
259.7791831535
 31
0.0
  0
LINE
  5
D2
330
52
100
AcDbEntity
  8
DV1_Default
  6
Continuous
 62
     7
 48
25.4
100
AcDbLine
 10
211.041025607
 20
259.7791831535
 30
0.0
 11
211.041025607
 21
273.2791831535
 31
0.0
  0
LINE
  5
D3
330
52
100
AcDbEntity
  8
DV1_Default
  6
Continuous
 62
     7
 48
25.4
100
AcDbLine
 10
221.6215279485
 20
258.6070392116
 30
0.0
 11
221.6215279485
 21
273.2791831535
 31
0.0
  0
LINE
  5
D4
330
52
100
AcDbEntity
  8
DV1_Default
  6
Continuous
 62
     7
 48
25.4
100
AcDbLine
 10
203.0585535464
 20
273.2791831535
 30
0.0
 11
203.0585535464
 21
263.6791831535
 31
0.0
  0
LINE
  5
D5
330
52
100
AcDbEntity
  8
DV1_Default
  6
Continuous
 62
     7
 48
25.4
100
AcDbLine
 10
203.0585535464
 20
263.6791831535
 30
0.0
 11
205.4585535464
 21
263.6791831535
 31
0.0
  0
LINE
  5
D6
330
52
100
AcDbEntity
  8
DV1_Default
  6
Continuous
 62
     7
 48
25.4
100
AcDbLine
 10
203.0585535464
 20
263.6791831535
 30
0.0
 11
205.4585535464
 21
263.6791831535
 31
0.0
  0
LINE
  5
D7
330
52
100
AcDbEntity
  8
DV1_Default
  6
Continuous
 62
     7
 48
25.4
100
AcDbLine
 10
205.4585535464
 20
263.6791831535
 30
0.0
 11
205.4585535464
 21
264.5791831535
 31
0.0
  0
LINE
  5
D8
330
52
100
AcDbEntity
  8
DV1_Default
  6
Continuous
 62
     7
 48
25.4
100
AcDbLine
 10
205.4585535464
 20
264.5791831535
 30
0.0
 11
211.041025607
 21
264.5791831535
 31
0.0
  0
LINE
  5
D9
330
52
100
AcDbEntity
  8
DV1_Default
  6
Continuous
 62
     7
 48
25.4
100
AcDbLine
 10
203.4828176151
 20
264.1549190848
 30
0.0
 11
203.0585535464
 21
264.5791831535
 31
0.0
  0
LINE
  5
DA
330
52
100
AcDbEntity
  8
DV1_Default
  6
Continuous
 62
     7
 48
25.4
100
AcDbLine
 10
203.0585535464
 20
264.5791831535
 30
0.0
 11
205.4585535464
 21
264.5791831535
 31
0.0
  0
LINE
  5
DB
330
52
100
AcDbEntity
  8
DV1_Default
  6
Continuous
 62
     7
 48
25.4
100
AcDbLine
 10
203.4828176151
 20
264.1549190848
 30
0.0
 11
205.0342894777
 21
264.1549190848
 31
0.0
  0
LINE
  5
DC
330
52
100
AcDbEntity
  8
DV1_Default
  6
Continuous
 62
     7
 48
25.4
100
AcDbLine
 10
205.0342894777
 20
264.1549190848
 30
0.0
 11
211.041025607
 21
264.1549190848
 31
0.0
  0
LINE
  5
DD
330
52
100
AcDbEntity
  8
DV1_Default
  6
Continuous
 62
     7
 48
25.4
100
AcDbLine
 10
203.0585535464
 20
272.0791831535
 30
0.0
 11
211.041025607
 21
272.0791831535
 31
0.0
  0
LINE
  5
DE
330
52
100
AcDbEntity
  8
DV1_Default
  6
Continuous
 62
     7
 48
25.4
100
AcDbLine
 10
223.1215279485
 20
274.4791831535
 30
0.0
 11
224.3215279485
 21
273.2791831535
 31
0.0
  0
LINE
  5
DF
330
52
100
AcDbEntity
  8
DV1_Default
  6
Continuous
 62
     7
 48
25.4
100
AcDbLine
 10
224.3215279485
 20
273.2791831535
 30
0.0
 11
224.3215279485
 21
293.3791831535
 31
0.0
  0
LINE
  5
E0
330
52
100
AcDbEntity
  8
DV1_Default
  6
Continuous
 62
     7
 48
25.4
100
AcDbLine
 10
223.1215279485
 20
274.4791831535
 30
0.0
 11
223.1215279485
 21
293.3791831535
 31
0.0
  0
LINE
  5
E1
330
52
100
AcDbEntity
  8
DV1_Default
  6
Continuous
 62
     7
 48
25.4
100
AcDbLine
 10
201.4727400832
 20
259.7791831535
 30
0.0
 11
201.4727400832
 21
259.1791831535
 31
0.0
  0
LINE
  5
E2
330
52
100
AcDbEntity
  8
DV1_Default
  6
Continuous
 62
     7
 48
25.4
100
AcDbLine
 10
201.4727400832
 20
259.1791831535
 30
0.0
 11
221.6215279485
 21
259.1791831535
 31
0.0
  0
LINE
  5
E3
330
52
100
AcDbEntity
  8
DV1_Default
  6
Continuous
 62
     7
 48
25.4
100
AcDbLine
 10
196.4585535464
 20
259.7791831535
 30
0.0
 11
211.041025607
 21
259.7791831535
 31
0.0
  0
LINE
  5
E4
330
52
100
AcDbEntity
  8
DV1_Default
  6
Continuous
 62
     7
 48
25.4
100
AcDbLine
 10
196.4585535464
 20
266.0791831535
 30
0.0
 11
203.0585535464
 21
266.0791831535
 31
0.0
  0
LINE
  5
E5
330
52
100
AcDbEntity
  8
DV1_Default
  6
Continuous
 62
     7
 48
25.4
100
AcDbLine
 10
141.5215279485
 20
359.3791831535
 30
0.0
 11
141.5215279485
 21
383.3791831535
 31
0.0
  0
LINE
  5
E6
330
52
100
AcDbEntity
  8
DV1_Default
  6
Continuous
 62
     7
 48
25.4
100
AcDbLine
 10
141.5215279485
 20
383.3791831535
 30
0.0
 11
142.7215279485
 21
384.5791831535
 31
0.0
  0
LINE
  5
E7
330
52
100
AcDbEntity
  8
DV1_Default
  6
Continuous
 62
     7
 48
25.4
100
AcDbLine
 10
224.3215279485
 20
383.3791831535
 30
0.0
 11
223.1215279485
 21
384.5791831535
 31
0.0
  0
LINE
  5
E8
330
52
100
AcDbEntity
  8
DV1_Default
  6
Continuous
 62
     7
 48
25.4
100
AcDbLine
 10
224.3215279485
 20
313.4791831535
 30
0.0
 11
224.3215279485
 21
383.3791831535
 31
0.0
  0
LINE
  5
E9
330
52
100
AcDbEntity
  8
DV1_Default
  6
Continuous
 62
     7
 48
25.4
100
AcDbLine
 10
149.4415279485
 20
317.3791831535
 30
0.0
 11
149.4415279485
 21
293.3791831535
 31
0.0
  0
LINE
  5
EA
330
52
100
AcDbEntity
  8
DV1_Default
  6
Continuous
 62
     7
 48
25.4
100
AcDbLine
 10
149.4415279485
 20
293.3791831535
 30
0.0
 11
149.4415279485
 21
308.3791831535
 31
0.0
  0
LINE
  5
EB
330
52
100
AcDbEntity
  8
DV1_Default
  6
Continuous
 62
     7
 48
25.4
100
AcDbLine
 10
149.4415279485
 20
308.3791831535
 30
0.0
 11
169.8415279485
 21
308.3791831535
 31
0.0
  0
LINE
  5
EC
330
52
100
AcDbEntity
  8
DV1_Default
  6
Continuous
 62
     7
 48
25.4
100
AcDbLine
 10
172.2415279485
 20
293.3791831535
 30
0.0
 11
172.2415279485
 21
316.1791831535
 31
0.0
  0
LINE
  5
ED
330
52
100
AcDbEntity
  8
DV1_Default
  6
Continuous
 62
     7
 48
25.4
100
AcDbLine
 10
172.2415279485
 20
316.1791831535
 30
0.0
 11
169.8415279485
 21
316.1791831535
 31
0.0
  0
LINE
  5
EE
330
52
100
AcDbEntity
  8
DV1_Default
  6
Continuous
 62
     7
 48
25.4
100
AcDbLine
 10
169.8415279485
 20
316.1791831535
 30
0.0
 11
169.8415279485
 21
293.3791831535
 31
0.0
  0
LINE
  5
EF
330
52
100
AcDbEntity
  8
DV1_Default
  6
Continuous
 62
     7
 48
25.4
100
AcDbLine
 10
169.8415279485
 20
293.3791831535
 30
0.0
 11
169.8415279485
 21
315.8791831535
 31
0.0
  0
LINE
  5
F0
330
52
100
AcDbEntity
  8
DV1_Default
  6
HIDDEN2
 62
     7
 48
25.4
100
AcDbLine
 10
169.8415279485
 20
315.8791831535
 30
0.0
 11
149.4415279485
 21
315.8791831535
 31
0.0
  0
LINE
  5
F1
330
52
100
AcDbEntity
  8
DV1_Default
  6
HIDDEN2
 62
     7
 48
25.4
100
AcDbLine
 10
149.4415279485
 20
314.6791831535
 30
0.0
 11
169.8415279485
 21
314.6791831535
 31
0.0
  0
LINE
  5
F2
330
52
100
AcDbEntity
  8
DV1_Default
  6
Continuous
 62
     7
 48
25.4
100
AcDbLine
 10
149.4415279485
 20
317.3791831535
 30
0.0
 11
150.3415279485
 21
318.2791831535
 31
0.0
  0
LINE
  5
F3
330
52
100
AcDbEntity
  8
DV1_Default
  6
Continuous
 62
     7
 48
25.4
100
AcDbLine
 10
223.1215279485
 20
312.2791831535
 30
0.0
 11
224.3215279485
 21
313.4791831535
 31
0.0
  0
LINE
  5
F4
330
52
100
AcDbEntity
  8
DV1_Default
  6
Continuous
 62
     7
 48
25.4
100
AcDbLine
 10
224.3215279485
 20
313.4791831535
 30
0.0
 11
224.3215279485
 21
293.3791831535
 31
0.0
  0
LINE
  5
F5
330
52
100
AcDbEntity
  8
DV1_Default
  6
Continuous
 62
     7
 48
25.4
100
AcDbLine
 10
223.1215279485
 20
312.2791831535
 30
0.0
 11
223.1215279485
 21
293.3791831535
 31
0.0
  0
LINE
  5
F6
330
52
100
AcDbEntity
  8
DV1_Default
  6
Continuous
 62
     7
 48
25.4
100
AcDbLine
 10
221.6215279485
 20
313.4791831535
 30
0.0
 11
221.6215279485
 21
338.0791831535
 31
0.0
  0
LINE
  5
F7
330
52
100
AcDbEntity
  8
DV1_Default
  6
Continuous
 62
     7
 48
25.4
100
AcDbLine
 10
221.6215279485
 20
338.0791831535
 30
0.0
 11
224.3215279485
 21
338.0791831535
 31
0.0
  0
LINE
  5
F8
330
52
100
AcDbEntity
  8
DV1_Default
  6
Continuous
 62
     7
 48
25.4
100
AcDbLine
 10
134.6215279485
 20
227.3791831535
 30
0.0
 11
143.6215279485
 21
227.3791831535
 31
0.0
  0
LINE
  5
F9
330
52
100
AcDbEntity
  8
DV1_Default
  6
Continuous
 62
     7
 48
25.4
100
AcDbLine
 10
133.7215279485
 20
228.2791831535
 30
0.0
 11
134.6215279485
 21
227.3791831535
 31
0.0
  0
LINE
  5
FA
330
52
100
AcDbEntity
  8
DV1_Default
  6
Continuous
 62
     7
 48
25.4
100
AcDbLine
 10
143.6215279485
 20
227.3791831535
 30
0.0
 11
144.5215279485
 21
228.2791831535
 31
0.0
  0
LINE
  5
FB
330
52
100
AcDbEntity
  8
DV1_Default
  6
Continuous
 62
     7
 48
25.4
100
AcDbLine
 10
134.6215279485
 20
359.3791831535
 30
0.0
 11
143.6215279485
 21
359.3791831535
 31
0.0
  0
LINE
  5
FC
330
52
100
AcDbEntity
  8
DV1_Default
  6
Continuous
 62
     7
 48
25.4
100
AcDbLine
 10
133.7215279485
 20
358.4791831535
 30
0.0
 11
134.6215279485
 21
359.3791831535
 31
0.0
  0
LINE
  5
FD
330
52
100
AcDbEntity
  8
DV1_Default
  6
Continuous
 62
     7
 48
25.4
100
AcDbLine
 10
143.6215279485
 20
359.3791831535
 30
0.0
 11
144.5215279485
 21
358.4791831535
 31
0.0
  0
SPLINE
  5
FE
330
52
100
AcDbEntity
  8
DV1_Default
  6
Continuous
 62
     7
 48
25.4
100
AcDbSpline
210
0.0
220
0.0
230
1.0
 70
     8
 71
     3
 72
    11
 73
     7
 74
     0
 42
0.0000000001
 43
0.0000000001
 40
0.0
 40
0.0
 40
0.0
 40
0.0
 40
0.1773211878329611
 40
0.5258320973404314
 40
0.8995655471594598
 40
1.0
 40
1.0
 40
1.0
 40
1.0
 10
141.5215272135638
 20
367.3578405446122
 30
0.0
 10
146.6735672920838
 20
365.1944774789834
 30
0.0
 10
162.5344280772232
 20
359.3970480494135
 30
0.0
 10
146.8068334175472
 20
321.2200061150943
 30
0.0
 10
181.62309362212
 20
321.9843530434226
 30
0.0
 10
191.9324130242979
 20
315.0469708709719
 30
0.0
 10
194.6831471876407
 20
313.4791831534988
 30
0.0
  0
LINE
  5
FF
330
52
100
AcDbEntity
  8
DV1_Default
  6
Continuous
 62
     7
 48
25.4
100
AcDbLine
 10
157.4392371178
 20
329.3791831535
 30
0.0
 11
157.4392371178
 21
318.2791831535
 31
0.0
  0
LINE
  5
100
330
52
100
AcDbEntity
  8
DV1_Default
  6
Continuous
 62
     7
 48
25.4
100
AcDbLine
 10
145.1215279485
 20
329.3791831535
 30
0.0
 11
157.4392371178
 21
329.3791831535
 31
0.0
  0
ARC
  5
101
330
52
100
AcDbEntity
  8
DV1_Default
  6
Continuous
 62
     7
 48
25.4
100
AcDbCircle
 10
145.1215279485
 20
329.9791831535
 30
0.0
 40
0.6
100
AcDbArc
 50
180.0
 51
270.0
  0
LINE
  5
102
330
52
100
AcDbEntity
  8
DV1_Default
  6
Continuous
 62
     7
 48
25.4
100
AcDbLine
 10
153.5215279485
 20
340.7791831535
 30
0.0
 11
153.5215279485
 21
329.3791831535
 31
0.0
  0
LINE
  5
103
330
52
100
AcDbEntity
  8
DV1_Default
  6
Continuous
 62
     7
 48
25.4
100
AcDbLine
 10
153.5215279485
 20
329.9791831535
 30
0.0
 11
147.2215279485
 21
329.9791831535
 31
0.0
  0
LINE
  5
104
330
52
100
AcDbEntity
  8
DV1_Default
  6
Continuous
 62
     7
 48
25.4
100
AcDbLine
 10
146.3215279485
 20
330.8791831535
 30
0.0
 11
146.3215279485
 21
339.2791831535
 31
0.0
  0
LINE
  5
105
330
52
100
AcDbEntity
  8
DV1_Default
  6
Continuous
 62
     7
 48
25.4
100
AcDbLine
 10
147.2215279485
 20
340.1791831535
 30
0.0
 11
153.5215279485
 21
340.1791831535
 31
0.0
  0
LINE
  5
106
330
52
100
AcDbEntity
  8
DV1_Default
  6
Continuous
 62
     7
 48
25.4
100
AcDbLine
 10
153.5215279485
 20
338.6791831535
 30
0.0
 11
155.9031207352
 21
338.6791831535
 31
0.0
  0
LINE
  5
107
330
52
100
AcDbEntity
  8
DV1_Default
  6
Continuous
 62
     7
 48
25.4
100
AcDbLine
 10
153.5215279485
 20
331.4791831535
 30
0.0
 11
156.5466753061
 21
331.4791831535
 31
0.0
  0
LINE
  5
108
330
52
100
AcDbEntity
  8
DV1_Default
  6
Continuous
 62
     7
 48
25.4
100
AcDbLine
 10
153.5215279485
 20
331.7791831535
 30
0.0
 11
156.4625980009
 21
331.7791831535
 31
0.0
  0
LINE
  5
109
330
52
100
AcDbEntity
  8
DV1_Default
  6
Continuous
 62
     7
 48
25.4
100
AcDbLine
 10
153.5215279485
 20
338.3791831535
 30
0.0
 11
155.8943423641
 21
338.3791831535
 31
0.0
  0
LINE
  5
10A
330
52
100
AcDbEntity
  8
DV1_Default
  6
Continuous
 62
     7
 48
25.4
100
AcDbLine
 10
147.2215279485
 20
329.9791831535
 30
0.0
 11
146.3215279485
 21
330.8791831535
 31
0.0
  0
LINE
  5
10B
330
52
100
AcDbEntity
  8
DV1_Default
  6
Continuous
 62
     7
 48
25.4
100
AcDbLine
 10
146.3215279485
 20
339.2791831535
 30
0.0
 11
147.2215279485
 21
340.1791831535
 31
0.0
  0
LINE
  5
10C
330
52
100
AcDbEntity
  8
DV1_Default
  6
Continuous
 62
     7
 48
25.4
100
AcDbLine
 10
147.2215279485
 20
340.1791831535
 30
0.0
 11
147.2215279485
 21
329.9791831535
 31
0.0
  0
LINE
  5
10D
330
52
100
AcDbEntity
  8
DV1_Default
  6
CENTER2
 62
     7
 48
25.4
100
AcDbLine
 10
159.4464075463
 20
335.0791831535
 30
0.0
 11
142.0966689222
 21
335.0791831535
 31
0.0
  0
LINE
  5
10E
330
52
100
AcDbEntity
  8
DV1_Default
  6
Continuous
 62
     7
 48
25.4
100
AcDbLine
 10
153.5215279485
 20
340.7791831535
 30
0.0
 11
144.5215279485
 21
340.7791831535
 31
0.0
  0
LINE
  5
10F
330
52
100
AcDbEntity
  8
DV1_Default
  6
Continuous
 62
     7
 48
25.4
100
AcDbLine
 10
144.5215279485
 20
342.7962600255
 30
0.0
 11
156.1421569796
 21
342.7962600255
 31
0.0
  0
LINE
  5
110
330
52
100
AcDbEntity
  8
DV1_Default
  6
CENTER2
 62
     7
 48
25.4
100
AcDbLine
 10
219.1135374595
 20
364.1769303283
 30
0.0
 11
258.9599455653
 21
364.1769303283
 31
0.0
  0
LINE
  5
111
330
52
100
AcDbEntity
  8
DV1_Default
  6
CENTER2
 62
     7
 48
25.4
100
AcDbLine
 10
220.7586593624
 20
346.2129278631
 30
0.0
 11
258.6857585815
 21
346.2129278631
 31
0.0
  0
ARC
  5
112
330
52
100
AcDbEntity
  8
DV1_Default
  6
Continuous
 62
     7
 48
25.4
100
AcDbCircle
 10
160.2415279485
 20
257.9791831535
 30
0.0
 40
0.6
100
AcDbArc
 50
180.0
 51
270.0
  0
LINE
  5
113
330
52
100
AcDbEntity
  8
DV1_Default
  6
Continuous
 62
     7
 48
25.4
100
AcDbLine
 10
175.8875362267
 20
257.3791831535
 30
0.0
 11
144.5215279485
 21
257.3791831535
 31
0.0
  0
LINE
  5
114
330
52
100
AcDbEntity
  8
DV1_Default
  6
Continuous
 62
     7
 48
25.4
100
AcDbLine
 10
144.5215279485
 20
293.3791831535
 30
0.0
 11
144.5215279485
 21
347.7903097672
 31
0.0
  0
LINE
  5
115
330
52
100
AcDbEntity
  8
DV1_Default
  6
Continuous
 62
     7
 48
25.4
100
AcDbLine
 10
160.2415279485
 20
265.6291831535
 30
0.0
 11
165.6415279485
 21
265.6291831535
 31
0.0
  0
LINE
  5
116
330
52
100
AcDbEntity
  8
DV1_Default
  6
Continuous
 62
     7
 48
25.4
100
AcDbLine
 10
166.2415279485
 20
265.0291831535
 30
0.0
 11
166.2415279485
 21
261.4291831535
 31
0.0
  0
LINE
  5
117
330
52
100
AcDbEntity
  8
DV1_Default
  6
Continuous
 62
     7
 48
25.4
100
AcDbLine
 10
165.6415279485
 20
260.8291831535
 30
0.0
 11
160.2415279485
 21
260.8291831535
 31
0.0
  0
LINE
  5
118
330
52
100
AcDbEntity
  8
DV1_Default
  6
Continuous
 62
     7
 48
25.4
100
AcDbLine
 10
166.2415279485
 20
265.0291831535
 30
0.0
 11
165.6415279485
 21
265.6291831535
 31
0.0
  0
LINE
  5
119
330
52
100
AcDbEntity
  8
DV1_Default
  6
Continuous
 62
     7
 48
25.4
100
AcDbLine
 10
165.6415279485
 20
260.8291831535
 30
0.0
 11
166.2415279485
 21
261.4291831535
 31
0.0
  0
LINE
  5
11A
330
52
100
AcDbEntity
  8
DV1_Default
  6
Continuous
 62
     7
 48
25.4
100
AcDbLine
 10
165.6415279485
 20
265.6291831535
 30
0.0
 11
165.6415279485
 21
260.8291831535
 31
0.0
  0
LINE
  5
11B
330
52
100
AcDbEntity
  8
DV1_Default
  6
Continuous
 62
     7
 48
25.4
100
AcDbLine
 10
159.6415279485
 20
266.2291831535
 30
0.0
 11
160.2415279485
 21
265.6291831535
 31
0.0
  0
LINE
  5
11C
330
52
100
AcDbEntity
  8
DV1_Default
  6
Continuous
 62
     7
 48
25.4
100
AcDbLine
 10
159.6415279485
 20
260.2291831535
 30
0.0
 11
160.2415279485
 21
260.8291831535
 31
0.0
  0
LINE
  5
11D
330
52
100
AcDbEntity
  8
DV1_Default
  6
Continuous
 62
     7
 48
25.4
100
AcDbLine
 10
159.6415279485
 20
257.9791831535
 30
0.0
 11
159.6415279485
 21
268.4791831535
 31
0.0
  0
LINE
  5
11E
330
52
100
AcDbEntity
  8
DV1_Default
  6
Continuous
 62
     7
 48
25.4
100
AcDbLine
 10
167.9215279485
 20
253.1791831535
 30
0.0
 11
144.5215279485
 21
253.1791831535
 31
0.0
  0
LINE
  5
11F
330
52
100
AcDbEntity
  8
DV1_Default
  6
Continuous
 62
     7
 48
25.4
100
AcDbLine
 10
167.9215279485
 20
253.1791831535
 30
0.0
 11
167.9215279485
 21
257.3791831535
 31
0.0
  0
LINE
  5
120
330
52
100
AcDbEntity
  8
DV1_Default
  6
Continuous
 62
     7
 48
25.4
100
AcDbLine
 10
160.2415279485
 20
257.3791831535
 30
0.0
 11
167.9215279485
 21
257.3791831535
 31
0.0
  0
LINE
  5
121
330
52
100
AcDbEntity
  8
DV1_Default
  6
Continuous
 62
     7
 48
25.4
100
AcDbLine
 10
162.8815279485
 20
254.3791831535
 30
0.0
 11
165.2815279485
 21
254.3791831535
 31
0.0
  0
LINE
  5
122
330
52
100
AcDbEntity
  8
DV1_Default
  6
Continuous
 62
     7
 48
25.4
100
AcDbLine
 10
165.8815279485
 20
254.9791831535
 30
0.0
 11
165.8815279485
 21
262.1791831535
 31
0.0
  0
LINE
  5
123
330
52
100
AcDbEntity
  8
DV1_Default
  6
Continuous
 62
     7
 48
25.4
100
AcDbLine
 10
165.2815279485
 20
262.7791831535
 30
0.0
 11
162.8815279485
 21
262.7791831535
 31
0.0
  0
LINE
  5
124
330
52
100
AcDbEntity
  8
DV1_Default
  6
Continuous
 62
     7
 48
25.4
100
AcDbLine
 10
162.2815279485
 20
262.1791831535
 30
0.0
 11
162.2815279485
 21
254.9791831535
 31
0.0
  0
LINE
  5
125
330
52
100
AcDbEntity
  8
DV1_Default
  6
CENTER2
 62
     7
 48
25.4
100
AcDbLine
 10
157.5415279485
 20
263.2291831535
 30
0.0
 11
180.2600540001
 21
263.2291831535
 31
0.0
  0
LINE
  5
126
330
52
100
AcDbEntity
  8
DV1_Default
  6
Continuous
 62
     7
 48
25.4
100
AcDbLine
 10
162.2815279485
 20
262.1791831535
 30
0.0
 11
162.8815279485
 21
262.7791831535
 31
0.0
  0
LINE
  5
127
330
52
100
AcDbEntity
  8
DV1_Default
  6
Continuous
 62
     7
 48
25.4
100
AcDbLine
 10
165.8815279485
 20
262.1791831535
 30
0.0
 11
165.2815279485
 21
262.7791831535
 31
0.0
  0
LINE
  5
128
330
52
100
AcDbEntity
  8
DV1_Default
  6
Continuous
 62
     7
 48
25.4
100
AcDbLine
 10
162.2815279485
 20
262.1791831535
 30
0.0
 11
165.8815279485
 21
262.1791831535
 31
0.0
  0
LINE
  5
129
330
52
100
AcDbEntity
  8
DV1_Default
  6
Continuous
 62
     7
 48
25.4
100
AcDbLine
 10
162.2815279485
 20
254.9791831535
 30
0.0
 11
162.8815279485
 21
254.3791831535
 31
0.0
  0
LINE
  5
12A
330
52
100
AcDbEntity
  8
DV1_Default
  6
Continuous
 62
     7
 48
25.4
100
AcDbLine
 10
165.2815279485
 20
254.3791831535
 30
0.0
 11
165.8815279485
 21
254.9791831535
 31
0.0
  0
LINE
  5
12B
330
52
100
AcDbEntity
  8
DV1_Default
  6
Continuous
 62
     7
 48
25.4
100
AcDbLine
 10
162.2815279485
 20
254.9791831535
 30
0.0
 11
165.8815279485
 21
254.9791831535
 31
0.0
  0
LINE
  5
12C
330
52
100
AcDbEntity
  8
DV1_Default
  6
CENTER2
 62
     7
 48
25.4
100
AcDbLine
 10
164.0815279485
 20
252.2791831535
 30
0.0
 11
164.0815279485
 21
264.2791831535
 31
0.0
  0
LINE
  5
12D
330
52
100
AcDbEntity
  8
DV1_Default
  6
Continuous
 62
     7
 48
25.4
100
AcDbLine
 10
165.2815279485
 20
263.2184718614
 30
0.0
 11
165.2815279485
 21
262.0184718614
 31
0.0
  0
LINE
  5
12E
330
52
100
AcDbEntity
  8
DV1_Default
  6
Continuous
 62
     7
 48
25.4
100
AcDbLine
 10
165.8815279485
 20
261.4184718614
 30
0.0
 11
173.6815279485
 21
261.4184718614
 31
0.0
  0
LINE
  5
12F
330
52
100
AcDbEntity
  8
DV1_Default
  6
Continuous
 62
     7
 48
25.4
100
AcDbLine
 10
174.2815279485
 20
262.0184724894
 30
0.0
 11
174.2815279485
 21
264.4184724894
 31
0.0
  0
LINE
  5
130
330
52
100
AcDbEntity
  8
DV1_Default
  6
Continuous
 62
     7
 48
25.4
100
AcDbLine
 10
173.6815279485
 20
265.0184718614
 30
0.0
 11
165.8815279485
 21
265.0184718614
 31
0.0
  0
LINE
  5
131
330
52
100
AcDbEntity
  8
DV1_Default
  6
Continuous
 62
     7
 48
25.4
100
AcDbLine
 10
165.2815279485
 20
264.4184718614
 30
0.0
 11
165.2815279485
 21
263.2184718614
 31
0.0
  0
LINE
  5
132
330
52
100
AcDbEntity
  8
DV1_Default
  6
Continuous
 62
     7
 48
25.4
100
AcDbLine
 10
165.8815279485
 20
261.4184718614
 30
0.0
 11
165.2815279485
 21
262.0184718614
 31
0.0
  0
LINE
  5
133
330
52
100
AcDbEntity
  8
DV1_Default
  6
Continuous
 62
     7
 48
25.4
100
AcDbLine
 10
165.8815279485
 20
265.0184718614
 30
0.0
 11
165.2815279485
 21
264.4184718614
 31
0.0
  0
LINE
  5
134
330
52
100
AcDbEntity
  8
DV1_Default
  6
Continuous
 62
     7
 48
25.4
100
AcDbLine
 10
173.6815279485
 20
265.0184718614
 30
0.0
 11
174.2815279485
 21
264.4184718614
 31
0.0
  0
LINE
  5
135
330
52
100
AcDbEntity
  8
DV1_Default
  6
Continuous
 62
     7
 48
25.4
100
AcDbLine
 10
173.6815279485
 20
261.4184718614
 30
0.0
 11
174.2815279485
 21
262.0184718614
 31
0.0
  0
LINE
  5
136
330
52
100
AcDbEntity
  8
DV1_Default
  6
Continuous
 62
     7
 48
25.4
100
AcDbLine
 10
173.6815279485
 20
265.0184718614
 30
0.0
 11
173.6815279485
 21
261.4184718614
 31
0.0
  0
LINE
  5
137
330
52
100
AcDbEntity
  8
DV1_Default
  6
Continuous
 62
     7
 48
25.4
100
AcDbLine
 10
173.6815279485
 20
263.2184718614
 30
0.0
 11
174.2815279485
 21
263.8184718614
 31
0.0
  0
LINE
  5
138
330
52
100
AcDbEntity
  8
DV1_Default
  6
Continuous
 62
     7
 48
25.4
100
AcDbLine
 10
173.6815279485
 20
263.2184718614
 30
0.0
 11
174.2815279485
 21
262.6184718614
 31
0.0
  0
LINE
  5
139
330
52
100
AcDbEntity
  8
DV1_Default
  6
Continuous
 62
     7
 48
25.4
100
AcDbLine
 10
175.0845320876
 20
262.0267723193
 30
0.0
 11
175.0845320876
 21
264.4267723193
 31
0.0
  0
ELLIPSE
  5
13A
330
52
100
AcDbEntity
  8
DV1_Default
  6
Continuous
 62
     7
 48
25.4
100
AcDbEllipse
 10
175.0845320876
 20
263.2267723193
 30
0.0
 11
0.8029411537374146
 21
-0.006729810953605422
 31
0.0
210
0.0
220
0.0
230
1.0
 40
1.0
 41
0.0
 42
6.283185307179586
  0
LINE
  5
13B
330
52
100
AcDbEntity
  8
DV1_Default
  6
Continuous
 62
     7
 48
25.4
100
AcDbLine
 10
175.0900861934
 20
264.4184718614
 30
0.0
 11
165.2815279485
 21
264.4184718614
 31
0.0
  0
LINE
  5
13C
330
52
100
AcDbEntity
  8
DV1_Default
  6
Continuous
 62
     7
 48
25.4
100
AcDbLine
 10
165.2815279485
 20
262.0184718614
 30
0.0
 11
175.0789779818
 21
262.0184718614
 31
0.0
  0
LINE
  5
13D
330
52
100
AcDbEntity
  8
DV1_Default
  6
Continuous
 62
     7
 48
25.4
100
AcDbLine
 10
173.6815279485
 20
265.0184718614
 30
0.0
 11
175.8875362267
 21
265.0184718614
 31
0.0
  0
LINE
  5
13E
330
52
100
AcDbEntity
  8
DV1_Default
  6
Continuous
 62
     7
 48
25.4
100
AcDbLine
 10
173.6815279485
 20
261.4184718614
 30
0.0
 11
175.8875362267
 21
261.4184718614
 31
0.0
  0
LINE
  5
13F
330
52
100
AcDbEntity
  8
DV1_Default
  6
Continuous
 62
     7
 48
25.4
100
AcDbLine
 10
175.0789779818
 20
262.0267955948
 30
0.0
 11
175.85183244
 21
262.0267955948
 31
0.0
  0
LINE
  5
140
330
52
100
AcDbEntity
  8
DV1_Default
  6
Continuous
 62
     7
 48
25.4
100
AcDbLine
 10
175.0845320876
 20
264.4267723193
 30
0.0
 11
175.8875362267
 21
264.4267723193
 31
0.0
  0
LINE
  5
141
330
52
100
AcDbEntity
  8
DV1_Default
  6
Continuous
 62
     7
 48
25.4
100
AcDbLine
 10
175.8875362267
 20
260.8669230559
 30
0.0
 11
175.8875362267
 21
267.5791831535
 31
0.0
  0
LINE
  5
142
330
52
100
AcDbEntity
  8
DV1_Default
  6
Continuous
 62
     7
 48
25.4
100
AcDbLine
 10
176.4875362267
 20
268.1791831535
 30
0.0
 11
178.8875362267
 21
268.1791831535
 31
0.0
  0
LINE
  5
143
330
52
100
AcDbEntity
  8
DV1_Default
  6
Continuous
 62
     7
 48
25.4
100
AcDbLine
 10
179.4875362267
 20
267.5791831535
 30
0.0
 11
179.4875362267
 21
260.8669230559
 31
0.0
  0
LINE
  5
144
330
52
100
AcDbEntity
  8
DV1_Default
  6
Continuous
 62
     7
 48
25.4
100
AcDbLine
 10
175.8875362267
 20
267.5791831535
 30
0.0
 11
176.4875362267
 21
268.1791831535
 31
0.0
  0
LINE
  5
145
330
52
100
AcDbEntity
  8
DV1_Default
  6
Continuous
 62
     7
 48
25.4
100
AcDbLine
 10
179.4875362267
 20
267.5791831535
 30
0.0
 11
178.8875362267
 21
268.1791831535
 31
0.0
  0
LINE
  5
146
330
52
100
AcDbEntity
  8
DV1_Default
  6
Continuous
 62
     7
 48
25.4
100
AcDbLine
 10
176.4875362267
 20
268.1791831535
 30
0.0
 11
176.4875362267
 21
257.9791831535
 31
0.0
  0
LINE
  5
147
330
52
100
AcDbEntity
  8
DV1_Default
  6
Continuous
 62
     7
 48
25.4
100
AcDbLine
 10
178.8875362267
 20
268.1791831535
 30
0.0
 11
178.8875362267
 21
257.9791831535
 31
0.0
  0
LINE
  5
148
330
52
100
AcDbEntity
  8
DV1_Default
  6
Continuous
 62
     7
 48
25.4
100
AcDbLine
 10
176.4875362267
 20
257.9791831535
 30
0.0
 11
175.8875362267
 21
257.3791831535
 31
0.0
  0
LINE
  5
149
330
52
100
AcDbEntity
  8
DV1_Default
  6
Continuous
 62
     7
 48
25.4
100
AcDbLine
 10
179.4875362267
 20
257.3791831535
 30
0.0
 11
196.1585535464
 21
257.3791831535
 31
0.0
  0
LINE
  5
14A
330
52
100
AcDbEntity
  8
DV1_Default
  6
Continuous
 62
     7
 48
25.4
100
AcDbLine
 10
178.8875362267
 20
257.9791831535
 30
0.0
 11
179.4875362267
 21
257.3791831535
 31
0.0
  0
LINE
  5
14B
330
52
100
AcDbEntity
  8
DV1_Default
  6
Continuous
 62
     7
 48
25.4
100
AcDbLine
 10
175.8875362267
 20
257.3791831535
 30
0.0
 11
179.4875362267
 21
257.3791831535
 31
0.0
  0
LINE
  5
14C
330
52
100
AcDbEntity
  8
DV1_Default
  6
Continuous
 62
     7
 48
25.4
100
AcDbLine
 10
176.4875362267
 20
257.9791831535
 30
0.0
 11
178.8875362267
 21
257.9791831535
 31
0.0
  0
LINE
  5
14D
330
52
100
AcDbEntity
  8
DV1_Default
  6
Continuous
 62
     7
 48
25.4
100
AcDbLine
 10
175.85183244
 20
262.0267955948
 30
0.0
 11
175.8875362267
 21
262.0267955948
 31
0.0
  0
LINE
  5
14E
330
52
100
AcDbEntity
  8
DV1_Default
  6
Continuous
 62
     7
 48
25.4
100
AcDbLine
 10
176.4875362267
 20
260.2669230559
 30
0.0
 11
178.8875362267
 21
260.2669230559
 31
0.0
  0
LINE
  5
14F
330
52
100
AcDbEntity
  8
DV1_Default
  6
Continuous
 62
     7
 48
25.4
100
AcDbLine
 10
175.8875362267
 20
260.8669230559
 30
0.0
 11
176.4875362267
 21
260.2669230559
 31
0.0
  0
LINE
  5
150
330
52
100
AcDbEntity
  8
DV1_Default
  6
Continuous
 62
     7
 48
25.4
100
AcDbLine
 10
179.4875362267
 20
260.8669230559
 30
0.0
 11
178.8875362267
 21
260.2669230559
 31
0.0
  0
LINE
  5
151
330
52
100
AcDbEntity
  8
DV1_Default
  6
Continuous
 62
     7
 48
25.4
100
AcDbLine
 10
175.8875362267
 20
260.8669230559
 30
0.0
 11
175.8875362267
 21
257.3791831535
 31
0.0
  0
LINE
  5
152
330
52
100
AcDbEntity
  8
DV1_Default
  6
Continuous
 62
     7
 48
25.4
100
AcDbLine
 10
179.4875362267
 20
260.8669230559
 30
0.0
 11
179.4875362267
 21
257.3791831535
 31
0.0
  0
LINE
  5
153
330
52
100
AcDbEntity
  8
DV1_Default
  6
Continuous
 62
     7
 48
25.4
100
AcDbLine
 10
175.8875362267
 20
260.8669230559
 30
0.0
 11
179.4875362267
 21
260.8669230559
 31
0.0
  0
LINE
  5
154
330
52
100
AcDbEntity
  8
DV1_Default
  6
Continuous
 62
     7
 48
25.4
100
AcDbLine
 10
176.4875362267
 20
268.1791831535
 30
0.0
 11
177.6875362267
 21
269.3791831535
 31
0.0
  0
LINE
  5
155
330
52
100
AcDbEntity
  8
DV1_Default
  6
Continuous
 62
     7
 48
25.4
100
AcDbLine
 10
178.8875362267
 20
268.1791831535
 30
0.0
 11
177.6875362267
 21
269.3791831535
 31
0.0
  0
ARC
  5
156
330
52
100
AcDbEntity
  8
DV1_Default
  6
Continuous
 62
     7
 48
25.4
100
AcDbCircle
 10
177.6852411218
 20
267.6684744698
 30
0.0
 40
1.211520436288729
100
AcDbArc
 50
24.9320317387
 51
155.066855311
  0
LINE
  5
157
330
52
100
AcDbEntity
  8
DV1_Default
  6
Continuous
 62
     7
 48
25.4
100
AcDbLine
 10
244.7215279467
 20
353.4129278631
 30
0.0
 11
235.7215279467
 21
353.4129278631
 31
0.0
  0
LINE
  5
158
330
52
100
AcDbEntity
  8
DV1_Default
  6
Continuous
 62
     7
 48
25.4
100
AcDbLine
 10
244.7215279467
 20
339.0129278631
 30
0.0
 11
235.7215279467
 21
339.0129278631
 31
0.0
  0
LINE
  5
159
330
52
100
AcDbEntity
  8
DV1_Default
  6
Continuous
 62
     7
 48
25.4
100
AcDbLine
 10
244.7215279467
 20
371.3791831535
 30
0.0
 11
235.7215279467
 21
371.3791831535
 31
0.0
  0
LINE
  5
15A
330
52
100
AcDbEntity
  8
DV1_Default
  6
Continuous
 62
     7
 48
25.4
100
AcDbLine
 10
244.7215279467
 20
356.9791831535
 30
0.0
 11
235.7215279467
 21
356.9791831535
 31
0.0
  0
LINE
  5
15B
330
52
100
AcDbEntity
  8
DV1_Default
  6
Continuous
 62
     7
 48
25.4
100
AcDbLine
 10
133.7215279485
 20
246.7591831535
 30
0.0
 11
133.7215279485
 21
293.3791831535
 31
0.0
  0
LINE
  5
15C
330
52
100
AcDbEntity
  8
DV1_Default
  6
CENTER2
 62
     7
 48
25.4
100
AcDbLine
 10
177.6875362267
 20
255.2791831535
 30
0.0
 11
177.6875362267
 21
271.4791831535
 31
0.0
  0
LINE
  5
15D
330
52
100
AcDbEntity
  8
DV1_Default
  6
Continuous
 62
     7
 48
25.4
100
AcDbLine
 10
118.7215279485
 20
246.7591831535
 30
0.0
 11
208.7255866487
 21
246.7591831535
 31
0.0
  0
LINE
  5
15E
330
52
100
AcDbEntity
  8
DV1_Default
  6
Continuous
 62
     7
 48
25.4
100
AcDbLine
 10
118.7215279485
 20
237.1591831535
 30
0.0
 11
208.7255866487
 21
237.1591831535
 31
0.0
  0
LINE
  5
15F
330
52
100
AcDbEntity
  8
DV1_Default
  6
Continuous
 62
     7
 48
25.4
100
AcDbLine
 10
144.5215279485
 20
247.3591831535
 30
0.0
 11
144.5215279485
 21
293.3791831535
 31
0.0
  0
LINE
  5
160
330
52
100
AcDbEntity
  8
DV1_Default
  6
Continuous
 62
     7
 48
25.4
100
AcDbLine
 10
144.5215279485
 20
228.2791831535
 30
0.0
 11
144.5215279485
 21
236.5591831535
 31
0.0
  0
LINE
  5
161
330
52
100
AcDbEntity
  8
DV1_Default
  6
Continuous
 62
     7
 48
25.4
100
AcDbLine
 10
140.7934255699
 20
246.1591831535
 30
0.0
 11
152.7934255699
 21
246.1591831535
 31
0.0
  0
LINE
  5
162
330
52
100
AcDbEntity
  8
DV1_Default
  6
Continuous
 62
     7
 48
25.4
100
AcDbLine
 10
140.7934255699
 20
237.7591831535
 30
0.0
 11
152.7934255699
 21
237.7591831535
 31
0.0
  0
LINE
  5
163
330
52
100
AcDbEntity
  8
DV1_Default
  6
Continuous
 62
     7
 48
25.4
100
AcDbLine
 10
138.5215279485
 20
352.6044751071
 30
0.0
 11
150.5884161437
 21
352.6044751071
 31
0.0
  0
LINE
  5
164
330
52
100
AcDbEntity
  8
DV1_Default
  6
Continuous
 62
     7
 48
25.4
100
AcDbLine
 10
138.5215279485
 20
348.258122189
 30
0.0
 11
150.5884161437
 21
348.258122189
 31
0.0
  0
LINE
  5
165
330
52
100
AcDbEntity
  8
DV1_Default
  6
Continuous
 62
     7
 48
25.4
100
AcDbLine
 10
138.5215279485
 20
353.1004085094
 30
0.0
 11
144.5215279485
 21
353.1004085094
 31
0.0
  0
LINE
  5
166
330
52
100
AcDbEntity
  8
DV1_Default
  6
Continuous
 62
     7
 48
25.4
100
AcDbLine
 10
138.5215279485
 20
347.7903097672
 30
0.0
 11
144.5215279485
 21
347.7903097672
 31
0.0
  0
LINE
  5
167
330
52
100
AcDbEntity
  8
DV1_Default
  6
Continuous
 62
     7
 48
25.4
100
AcDbLine
 10
138.5215279485
 20
354.0299611862
 30
0.0
 11
134.3215279485
 21
354.0299611862
 31
0.0
  0
LINE
  5
168
330
52
100
AcDbEntity
  8
DV1_Default
  6
Continuous
 62
     7
 48
25.4
100
AcDbLine
 10
134.0215279485
 20
353.7299611862
 30
0.0
 11
134.0215279485
 21
347.1299611862
 31
0.0
  0
LINE
  5
169
330
52
100
AcDbEntity
  8
DV1_Default
  6
Continuous
 62
     7
 48
25.4
100
AcDbLine
 10
134.3215279485
 20
346.8299611862
 30
0.0
 11
138.5215279485
 21
346.8299611862
 31
0.0
  0
LINE
  5
16A
330
52
100
AcDbEntity
  8
DV1_Default
  6
Continuous
 62
     7
 48
25.4
100
AcDbLine
 10
134.0215279485
 20
353.7299611862
 30
0.0
 11
134.3215279485
 21
354.0299611862
 31
0.0
  0
LINE
  5
16B
330
52
100
AcDbEntity
  8
DV1_Default
  6
Continuous
 62
     7
 48
25.4
100
AcDbLine
 10
134.3215279485
 20
346.8299611862
 30
0.0
 11
134.0215279485
 21
347.1299611862
 31
0.0
  0
LINE
  5
16C
330
52
100
AcDbEntity
  8
DV1_Default
  6
Continuous
 62
     7
 48
25.4
100
AcDbLine
 10
134.3215279485
 20
354.0299611862
 30
0.0
 11
134.3215279485
 21
346.8299611862
 31
0.0
  0
LINE
  5
16D
330
52
100
AcDbEntity
  8
DV1_Default
  6
Continuous
 62
     7
 48
25.4
100
AcDbLine
 10
146.3884161437
 20
352.6044751071
 30
0.0
 11
148.1224161437
 21
352.6044751071
 31
0.0
  0
LINE
  5
16E
330
52
100
AcDbEntity
  8
DV1_Default
  6
Continuous
 62
     7
 48
25.4
100
AcDbLine
 10
146.3884161437
 20
348.258122189
 30
0.0
 11
148.1224161437
 21
348.258122189
 31
0.0
  0
LINE
  5
16F
330
52
100
AcDbEntity
  8
DV1_Default
  6
Continuous
 62
     7
 48
25.4
100
AcDbLine
 10
133.7215279485
 20
293.3791831535
 30
0.0
 11
133.7215279485
 21
358.4791831535
 31
0.0
  0
LINE
  5
170
330
52
100
AcDbEntity
  8
DV1_Default
  6
Continuous
 62
     7
 48
25.4
100
AcDbLine
 10
152.3224161437
 20
348.0299611862
 30
0.0
 11
138.5215279485
 21
348.0299611862
 31
0.0
  0
LINE
  5
171
330
52
100
AcDbEntity
  8
DV1_Default
  6
Continuous
 62
     7
 48
25.4
100
AcDbLine
 10
152.3224161437
 20
352.8286350749
 30
0.0
 11
138.5215279485
 21
352.8299611862
 31
0.0
  0
LINE
  5
172
330
52
100
AcDbEntity
  8
DV1_Default
  6
Continuous
 62
     7
 48
25.4
100
AcDbLine
 10
140.3215279485
 20
347.7903097672
 30
0.0
 11
144.5215279485
 21
347.7903097672
 31
0.0
  0
LINE
  5
173
330
52
100
AcDbEntity
  8
DV1_Default
  6
Continuous
 62
     7
 48
25.4
100
AcDbLine
 10
140.3215279485
 20
353.1004085094
 30
0.0
 11
144.5215279485
 21
353.1004085094
 31
0.0
  0
LINE
  5
174
330
52
100
AcDbEntity
  8
DV1_Default
  6
Continuous
 62
     7
 48
25.4
100
AcDbLine
 10
144.5215279485
 20
353.1004085094
 30
0.0
 11
144.5215279485
 21
358.4791831535
 31
0.0
  0
LINE
  5
175
330
52
100
AcDbEntity
  8
DV1_Default
  6
Continuous
 62
     7
 48
25.4
100
AcDbLine
 10
133.7215279485
 20
346.4791831535
 30
0.0
 11
138.5215279485
 21
346.4791831535
 31
0.0
  0
LINE
  5
176
330
52
100
AcDbEntity
  8
DV1_Default
  6
Continuous
 62
     7
 48
25.4
100
AcDbLine
 10
133.7215279485
 20
354.2791831535
 30
0.0
 11
138.5215279485
 21
354.2791831535
 31
0.0
  0
LINE
  5
177
330
52
100
AcDbEntity
  8
DV1_Default
  6
Continuous
 62
     7
 48
25.4
100
AcDbLine
 10
138.5215279485
 20
354.2791831535
 30
0.0
 11
138.5215279485
 21
346.4791831535
 31
0.0
  0
LINE
  5
178
330
52
100
AcDbEntity
  8
DV1_Default
  6
CENTER2
 62
     7
 48
25.4
100
AcDbLine
 10
154.9183917639
 20
350.3791831535
 30
0.0
 11
130.7075366336
 21
350.3791831535
 31
0.0
  0
LINE
  5
179
330
52
100
AcDbEntity
  8
DV1_Default
  6
Continuous
 62
     7
 48
25.4
100
AcDbLine
 10
227.1715279467
 20
372.0606510671
 30
0.0
 11
225.5215279467
 21
372.0606510671
 31
0.0
  0
LINE
  5
17A
330
52
100
AcDbEntity
  8
DV1_Default
  6
Continuous
 62
     7
 48
25.4
100
AcDbLine
 10
227.1715279467
 20
338.6045983865
 30
0.0
 11
225.8215279467
 21
338.6045983865
 31
0.0
  0
LINE
  5
17B
330
52
100
AcDbEntity
  8
DV1_Default
  6
Continuous
 62
     7
 48
25.4
100
AcDbLine
 10
224.3215279485
 20
338.077975335
 30
0.0
 11
225.5215279467
 21
338.0791831535
 31
0.0
  0
LINE
  5
17C
330
52
100
AcDbEntity
  8
DV1_Default
  6
Continuous
 62
     7
 48
25.4
100
AcDbLine
 10
225.5215279467
 20
338.0791831535
 30
0.0
 11
225.8215279467
 21
338.6045983865
 31
0.0
  0
LINE
  5
17D
330
52
100
AcDbEntity
  8
DV1_Default
  6
Continuous
 62
     7
 48
25.4
100
AcDbLine
 10
142.7215279485
 20
384.5791831535
 30
0.0
 11
223.1215279485
 21
384.5791831535
 31
0.0
  0
LINE
  5
17E
330
52
100
AcDbEntity
  8
DV1_Default
  6
Continuous
 62
     7
 48
25.4
100
AcDbLine
 10
152.3224161437
 20
348.0299611862
 30
0.0
 11
152.3224161437
 21
352.8286350749
 31
0.0
  0
LINE
  5
17F
330
52
100
AcDbEntity
  8
DV1_Default
  6
Continuous
 62
     7
 48
25.4
100
AcDbLine
 10
150.5884161437
 20
352.6044751071
 30
0.0
 11
152.3224161437
 21
352.6044751071
 31
0.0
  0
LINE
  5
180
330
52
100
AcDbEntity
  8
DV1_Default
  6
Continuous
 62
     7
 48
25.4
100
AcDbLine
 10
150.5884161437
 20
348.258122189
 30
0.0
 11
152.3224161437
 21
348.258122189
 31
0.0
  0
LINE
  5
181
330
52
100
AcDbEntity
  8
DV1_Default
  6
Continuous
 62
     7
 48
25.4
100
AcDbLine
 10
150.3415279485
 20
318.2791831535
 30
0.0
 11
185.5619785838
 21
318.2791831535
 31
0.0
  0
LINE
  5
182
330
52
100
AcDbEntity
  8
DV1_Default
  6
Continuous
 62
     7
 48
25.4
100
AcDbLine
 10
150.3415279485
 20
268.4791831535
 30
0.0
 11
196.4585535464
 21
268.4791831535
 31
0.0
  0
LINE
  5
183
330
52
100
AcDbEntity
  8
DV1_Default
  6
Continuous
 62
     7
 48
25.4
100
AcDbLine
 10
221.6215279485
 20
313.4791831535
 30
0.0
 11
172.2415279485
 21
313.4791831535
 31
0.0
  0
LINE
  5
184
330
52
100
AcDbEntity
  8
DV1_Default
  6
Continuous
 62
     7
 48
25.4
100
AcDbLine
 10
223.1215279485
 20
312.2791831535
 30
0.0
 11
184.7367746835
 21
312.2791831535
 31
0.0
  0
LINE
  5
185
330
52
100
AcDbEntity
  8
DV1_Default
  6
Continuous
 62
     7
 48
25.4
100
AcDbLine
 10
223.1215279485
 20
274.4791831535
 30
0.0
 11
184.7367746835
 21
274.4791831535
 31
0.0
  0
LINE
  5
186
330
52
100
AcDbEntity
  8
DV1_Default
  6
Continuous
 62
     7
 48
25.4
100
AcDbLine
 10
221.6215279485
 20
273.2791831535
 30
0.0
 11
172.2415279485
 21
273.2791831535
 31
0.0
  0
LINE
  5
187
330
52
100
AcDbEntity
  8
DV1_Default
  6
Continuous
 62
     7
 48
25.4
100
AcDbLine
 10
148.7215279485
 20
236.8591831535
 30
0.0
 11
144.8215279485
 21
236.8591831535
 31
0.0
  0
LINE
  5
188
330
52
100
AcDbEntity
  8
DV1_Default
  6
Continuous
 62
     7
 48
25.4
100
AcDbLine
 10
148.7215279485
 20
247.0591831535
 30
0.0
 11
144.8215279485
 21
247.0591831535
 31
0.0
  0
ARC
  5
189
330
52
100
AcDbEntity
  8
DV1_Default
  6
Continuous
 62
     7
 48
25.4
100
AcDbCircle
 10
144.8215279485
 20
247.3591831535
 30
0.0
 40
0.3
100
AcDbArc
 50
180.0
 51
270.0
  0
LINE
  5
18A
330
52
100
AcDbEntity
  8
DV1_Default
  6
Continuous
 62
     7
 48
25.4
100
AcDbLine
 10
144.5215279485
 20
247.3591831535
 30
0.0
 11
144.5215279485
 21
246.7591831535
 31
0.0
  0
ARC
  5
18B
330
52
100
AcDbEntity
  8
DV1_Default
  6
Continuous
 62
     7
 48
25.4
100
AcDbCircle
 10
144.8215279485
 20
236.5591831535
 30
0.0
 40
0.3
100
AcDbArc
 50
90.0
 51
180.0
  0
LINE
  5
18C
330
52
100
AcDbEntity
  8
DV1_Default
  6
Continuous
 62
     7
 48
25.4
100
AcDbLine
 10
144.5215279485
 20
236.5591831535
 30
0.0
 11
144.5215279485
 21
237.1591831535
 31
0.0
  0
LINE
  5
18D
330
52
100
AcDbEntity
  8
DV1_Default
  6
Continuous
 62
     7
 48
25.4
100
AcDbLine
 10
142.7215279485
 20
202.1791831535
 30
0.0
 11
223.1215279485
 21
202.1791831535
 31
0.0
  0
ARC
  5
18E
330
52
100
AcDbEntity
  8
DV1_Default
  6
Continuous
 62
     7
 48
25.4
100
AcDbCircle
 10
184.7367746835
 20
312.5791831535
 30
0.0
 40
0.3
100
AcDbArc
 50
180.0
 51
270.0
  0
ARC
  5
18F
330
52
100
AcDbEntity
  8
DV1_Default
  6
Continuous
 62
     7
 48
25.4
100
AcDbCircle
 10
184.7367746835
 20
274.1791831535
 30
0.0
 40
0.3
100
AcDbArc
 50
90.0
 51
180.0
  0
LINE
  5
190
330
52
100
AcDbEntity
  8
DV1_Default
  6
Continuous
 62
     7
 48
25.4
100
AcDbLine
 10
184.4367746835
 20
273.2791831535
 30
0.0
 11
184.4367746835
 21
313.4791831535
 31
0.0
  0
LINE
  5
191
330
52
100
AcDbEntity
  8
DV1_Default
  6
Continuous
 62
     7
 48
25.4
100
AcDbLine
 10
133.7215279485
 20
228.2791831535
 30
0.0
 11
133.7215279485
 21
237.1591831535
 31
0.0
  0
LINE
  5
192
330
52
100
AcDbEntity
  8
DV1_Default
  6
Continuous
 62
     7
 48
25.4
100
AcDbLine
 10
133.7215279485
 20
335.2948831535
 30
0.0
 11
141.5215279485
 21
334.3371635785
 31
0.0
  0
LINE
  5
193
330
52
100
AcDbEntity
  8
DV1_Default
  6
Continuous
 62
     7
 48
25.4
100
AcDbLine
 10
141.5215279485
 20
334.3371635785
 30
0.0
 11
144.5215279485
 21
334.3371635785
 31
0.0
  0
LINE
  5
194
330
52
100
AcDbEntity
  8
DV1_Default
  6
Continuous
 62
     7
 48
25.4
100
AcDbLine
 10
133.7215279485
 20
251.4634831535
 30
0.0
 11
141.5215279485
 21
252.4212027285
 31
0.0
  0
LINE
  5
195
330
52
100
AcDbEntity
  8
DV1_Default
  6
Continuous
 62
     7
 48
25.4
100
AcDbLine
 10
141.5215279485
 20
252.4212027285
 30
0.0
 11
144.5215279485
 21
252.4212027285
 31
0.0
  0
LINE
  5
196
330
52
100
AcDbEntity
  8
DV1_Default
  6
Continuous
 62
     7
 48
25.4
100
AcDbLine
 10
141.5215279485
 20
252.4212027285
 30
0.0
 11
141.5215279485
 21
334.3371635785
 31
0.0
  0
ENDBLK
  5
198
330
52
100
AcDbEntity
  8
0
100
AcDbBlockEnd
  0
BLOCK
  5
243
330
199
100
AcDbEntity
  8
0
100
AcDbBlockBegin
  2
SE1
 70
     0
 71
     0
 10
0.0
 20
0.0
 30
0.0
  3
SE1
  1

  0
LINE
  5
19C
330
199
100
AcDbEntity
  8
DV2_Default
  6
CENTER2
 62
     7
 48
25.4
100
AcDbLine
 10
339.2972768221
 20
293.2572628622
 30
0.0
 11
543.4903392393
 21
293.2572628622
 31
0.0
  0
LINE
  5
19D
330
199
100
AcDbEntity
  8
DV2_Default
  6
CENTER2
 62
     7
 48
25.4
100
AcDbLine
 10
438.8009052713
 20
392.8663181701
 30
0.0
 11
438.8009052713
 21
192.0279373965
 31
0.0
  0
CIRCLE
  5
19E
330
199
100
AcDbEntity
  8
DV2_Default
  6
Continuous
 62
     7
 48
25.4
100
AcDbCircle
 10
438.8009052713
 20
293.2572628622
 30
0.0
 40
15.0
  0
LINE
  5
19F
330
199
100
AcDbEntity
  8
DV2_Default
  6
Continuous
 62
     7
 48
25.4
100
AcDbLine
 10
422.6009052713
 20
383.0069146721
 30
0.0
 11
422.6009052713
 21
324.4572628622
 31
0.0
  0
LINE
  5
1A0
330
199
100
AcDbEntity
  8
DV2_Default
  6
Continuous
 62
     7
 48
25.4
100
AcDbLine
 10
455.0009052713
 20
324.4572628622
 30
0.0
 11
455.0009052713
 21
383.0069146721
 31
0.0
  0
LINE
  5
1A1
330
199
100
AcDbEntity
  8
DV2_Default
  6
Continuous
 62
     7
 48
25.4
100
AcDbLine
 10
423.8009052713
 20
376.6572628622
 30
0.0
 11
423.8009052713
 21
310.0572628622
 31
0.0
  0
LINE
  5
1A2
330
199
100
AcDbEntity
  8
DV2_Default
  6
Continuous
 62
     7
 48
25.4
100
AcDbLine
 10
453.8009052713
 20
376.6572628622
 30
0.0
 11
453.8009052713
 21
310.0572628622
 31
0.0
  0
LINE
  5
1A3
330
199
100
AcDbEntity
  8
DV2_Default
  6
Continuous
 62
     7
 48
25.4
100
AcDbLine
 10
453.8009052713
 20
310.0572628622
 30
0.0
 11
423.8009052713
 21
310.0572628622
 31
0.0
  0
LINE
  5
1A4
330
199
100
AcDbEntity
  8
DV2_Default
  6
Continuous
 62
     7
 48
25.4
100
AcDbLine
 10
423.8009052713
 20
376.6572628622
 30
0.0
 11
453.8009052713
 21
376.6572628622
 31
0.0
  0
CIRCLE
  5
1A5
330
199
100
AcDbEntity
  8
DV2_Default
  6
Continuous
 62
     7
 48
25.4
100
AcDbCircle
 10
438.8011651372
 20
364.0572628622
 30
0.0
 40
7.499999999999999
  0
LINE
  5
1A6
330
199
100
AcDbEntity
  8
DV2_Default
  6
Continuous
 62
     7
 48
25.4
100
AcDbLine
 10
438.8011651372
 20
368.8572628622
 30
0.0
 11
434.644243199
 21
366.4572628622
 31
0.0
  0
LINE
  5
1A7
330
199
100
AcDbEntity
  8
DV2_Default
  6
Continuous
 62
     7
 48
25.4
100
AcDbLine
 10
434.644243199
 20
366.4572628622
 30
0.0
 11
434.644243199
 21
361.6572628622
 31
0.0
  0
LINE
  5
1A8
330
199
100
AcDbEntity
  8
DV2_Default
  6
Continuous
 62
     7
 48
25.4
100
AcDbLine
 10
434.644243199
 20
361.6572628622
 30
0.0
 11
438.8011651372
 21
359.2572628622
 31
0.0
  0
LINE
  5
1A9
330
199
100
AcDbEntity
  8
DV2_Default
  6
Continuous
 62
     7
 48
25.4
100
AcDbLine
 10
438.8011651372
 20
359.2572628622
 30
0.0
 11
442.9580870753
 21
361.6572628622
 31
0.0
  0
LINE
  5
1AA
330
199
100
AcDbEntity
  8
DV2_Default
  6
Continuous
 62
     7
 48
25.4
100
AcDbLine
 10
442.9580870753
 20
361.6572628622
 30
0.0
 11
442.9580870753
 21
366.4572628622
 31
0.0
  0
LINE
  5
1AB
330
199
100
AcDbEntity
  8
DV2_Default
  6
Continuous
 62
     7
 48
25.4
100
AcDbLine
 10
442.9580870753
 20
366.4572628622
 30
0.0
 11
438.8011651372
 21
368.8572628622
 31
0.0
  0
CIRCLE
  5
1AC
330
199
100
AcDbEntity
  8
DV2_Default
  6
Continuous
 62
     7
 48
25.4
100
AcDbCircle
 10
438.8011651372
 20
346.0572628622
 30
0.0
 40
7.499999999999999
  0
LINE
  5
1AD
330
199
100
AcDbEntity
  8
DV2_Default
  6
Continuous
 62
     7
 48
25.4
100
AcDbLine
 10
438.8011651372
 20
341.2572628622
 30
0.0
 11
434.644243199
 21
343.6572628622
 31
0.0
  0
LINE
  5
1AE
330
199
100
AcDbEntity
  8
DV2_Default
  6
Continuous
 62
     7
 48
25.4
100
AcDbLine
 10
434.644243199
 20
343.6572628622
 30
0.0
 11
434.644243199
 21
348.4572628622
 31
0.0
  0
LINE
  5
1AF
330
199
100
AcDbEntity
  8
DV2_Default
  6
Continuous
 62
     7
 48
25.4
100
AcDbLine
 10
434.644243199
 20
348.4572628622
 30
0.0
 11
438.8011651372
 21
350.8572628622
 31
0.0
  0
LINE
  5
1B0
330
199
100
AcDbEntity
  8
DV2_Default
  6
Continuous
 62
     7
 48
25.4
100
AcDbLine
 10
438.8011651372
 20
350.8572628622
 30
0.0
 11
442.9580870753
 21
348.4572628622
 31
0.0
  0
LINE
  5
1B1
330
199
100
AcDbEntity
  8
DV2_Default
  6
Continuous
 62
     7
 48
25.4
100
AcDbLine
 10
442.9580870753
 20
348.4572628622
 30
0.0
 11
442.9580870753
 21
343.6572628622
 31
0.0
  0
LINE
  5
1B2
330
199
100
AcDbEntity
  8
DV2_Default
  6
Continuous
 62
     7
 48
25.4
100
AcDbLine
 10
442.9580870753
 20
343.6572628622
 30
0.0
 11
438.8011651372
 21
341.2572628622
 31
0.0
  0
LINE
  5
1B3
330
199
100
AcDbEntity
  8
DV2_Default
  6
Continuous
 62
     7
 48
25.4
100
AcDbLine
 10
438.2020519074
 20
257.3964933468
 30
0.0
 11
437.6020519074
 21
256.3572628622
 31
0.0
  0
LINE
  5
1B4
330
199
100
AcDbEntity
  8
DV2_Default
  6
Continuous
 62
     7
 48
25.4
100
AcDbLine
 10
437.6020519074
 20
256.3572628622
 30
0.0
 11
438.2020519074
 21
255.3180323777
 31
0.0
  0
LINE
  5
1B5
330
199
100
AcDbEntity
  8
DV2_Default
  6
Continuous
 62
     7
 48
25.4
100
AcDbLine
 10
438.2020519074
 20
255.3180323777
 30
0.0
 11
439.4020519074
 21
255.3180323777
 31
0.0
  0
LINE
  5
1B6
330
199
100
AcDbEntity
  8
DV2_Default
  6
Continuous
 62
     7
 48
25.4
100
AcDbLine
 10
439.4020519074
 20
255.3180323777
 30
0.0
 11
440.0020519074
 21
256.3572628622
 31
0.0
  0
LINE
  5
1B7
330
199
100
AcDbEntity
  8
DV2_Default
  6
Continuous
 62
     7
 48
25.4
100
AcDbLine
 10
440.0020519074
 20
256.3572628622
 30
0.0
 11
439.4020519074
 21
257.3964933468
 31
0.0
  0
LINE
  5
1B8
330
199
100
AcDbEntity
  8
DV2_Default
  6
Continuous
 62
     7
 48
25.4
100
AcDbLine
 10
438.2020519074
 20
257.3964933468
 30
0.0
 11
439.4020519074
 21
257.3964933468
 31
0.0
  0
CIRCLE
  5
1B9
330
199
100
AcDbEntity
  8
DV2_Default
  6
Continuous
 62
     7
 48
25.4
100
AcDbCircle
 10
438.8009052713
 20
256.3572628622
 30
0.0
 40
3.0
  0
LINE
  5
1BA
330
199
100
AcDbEntity
  8
DV2_Default
  6
Continuous
 62
     7
 48
25.4
100
AcDbLine
 10
422.6009052713
 20
324.4572628622
 30
0.0
 11
423.8009052713
 21
324.4572628622
 31
0.0
  0
LINE
  5
1BB
330
199
100
AcDbEntity
  8
DV2_Default
  6
Continuous
 62
     7
 48
25.4
100
AcDbLine
 10
455.0009052713
 20
324.4572628622
 30
0.0
 11
453.8009052713
 21
324.4572628622
 31
0.0
  0
CIRCLE
  5
1BC
330
199
100
AcDbEntity
  8
DV2_Default
  6
Continuous
 62
     7
 48
25.4
100
AcDbCircle
 10
438.8009052713
 20
241.8372628622
 30
0.0
 40
7.5
  0
CIRCLE
  5
1BD
330
199
100
AcDbEntity
  8
DV2_Default
  6
Continuous
 62
     7
 48
25.4
100
AcDbCircle
 10
438.8009052713
 20
241.8372628622
 30
0.0
 40
5.100000000000001
  0
LINE
  5
1BE
330
199
100
AcDbEntity
  8
DV2_Default
  6
Continuous
 62
     7
 48
25.4
100
AcDbLine
 10
438.8009052713
 20
387.4572628622
 30
0.0
 11
422.6009052713
 21
387.4572628622
 31
0.0
  0
LINE
  5
1BF
330
199
100
AcDbEntity
  8
DV2_Default
  6
Continuous
 62
     7
 48
25.4
100
AcDbLine
 10
422.6009052713
 20
387.4572628622
 30
0.0
 11
422.6009052713
 21
383.0069146721
 31
0.0
  0
LINE
  5
1C0
330
199
100
AcDbEntity
  8
DV2_Default
  6
Continuous
 62
     7
 48
25.4
100
AcDbLine
 10
422.6009052713
 20
387.4572628622
 30
0.0
 11
413.9075728347
 21
385.1278914563
 31
0.0
  0
LINE
  5
1C1
330
199
100
AcDbEntity
  8
DV2_Default
  6
Continuous
 62
     7
 48
25.4
100
AcDbLine
 10
413.9075728347
 20
385.1278914563
 30
0.0
 11
413.9075728347
 21
380.994153622
 31
0.0
  0
LINE
  5
1C2
330
199
100
AcDbEntity
  8
DV2_Default
  6
Continuous
 62
     7
 48
25.4
100
AcDbLine
 10
438.8009052713
 20
387.4572628622
 30
0.0
 11
455.0009052713
 21
387.4572628622
 31
0.0
  0
LINE
  5
1C3
330
199
100
AcDbEntity
  8
DV2_Default
  6
Continuous
 62
     7
 48
25.4
100
AcDbLine
 10
455.0009052713
 20
387.4572628622
 30
0.0
 11
455.0009052713
 21
383.0069146721
 31
0.0
  0
LINE
  5
1C4
330
199
100
AcDbEntity
  8
DV2_Default
  6
Continuous
 62
     7
 48
25.4
100
AcDbLine
 10
455.0009052713
 20
387.4572628622
 30
0.0
 11
463.6942377079
 21
385.1278914563
 31
0.0
  0
LINE
  5
1C5
330
199
100
AcDbEntity
  8
DV2_Default
  6
Continuous
 62
     7
 48
25.4
100
AcDbLine
 10
463.6942377079
 20
385.1278914563
 30
0.0
 11
463.6942377079
 21
380.994153622
 31
0.0
  0
LINE
  5
1C6
330
199
100
AcDbEntity
  8
DV2_Default
  6
Continuous
 62
     7
 48
25.4
100
AcDbLine
 10
432.5009052713
 20
376.6572628622
 30
0.0
 11
432.5009052713
 21
387.4572628622
 31
0.0
  0
LINE
  5
1C7
330
199
100
AcDbEntity
  8
DV2_Default
  6
Continuous
 62
     7
 48
25.4
100
AcDbLine
 10
445.1009052713
 20
376.6572628622
 30
0.0
 11
445.1009052713
 21
387.4572628622
 31
0.0
  0
ARC
  5
1C8
330
199
100
AcDbEntity
  8
DV2_Default
  6
Continuous
 62
     7
 48
25.4
100
AcDbCircle
 10
438.8009052713
 20
293.2572628622
 30
0.0
 40
91.19999999999999
100
AcDbArc
 50
220.2318362662
 51
319.7681637338
  0
ARC
  5
1C9
330
199
100
AcDbEntity
  8
DV2_Default
  6
Continuous
 62
     7
 48
25.4
100
AcDbCircle
 10
438.8009052713
 20
293.2572628622
 30
0.0
 40
18.6
100
AcDbArc
 50
355.4146209152
 51
64.5853790848
  0
LINE
  5
1CA
330
199
100
AcDbEntity
  8
DV2_Default
  6
CENTER2
 62
     7
 48
25.4
100
AcDbLine
 10
438.8009052713
 20
259.3572628622
 30
0.0
 11
438.8009052713
 21
252.4572628622
 31
0.0
  0
LINE
  5
1CB
330
199
100
AcDbEntity
  8
DV2_Default
  6
CENTER2
 62
     7
 48
25.4
100
AcDbLine
 10
430.4873212608
 20
364.0572628622
 30
0.0
 11
447.1150090135
 21
364.0572628622
 31
0.0
  0
LINE
  5
1CC
330
199
100
AcDbEntity
  8
DV2_Default
  6
CENTER2
 62
     7
 48
25.4
100
AcDbLine
 10
430.4873212608
 20
346.0572628622
 30
0.0
 11
447.1150090135
 21
346.0572628622
 31
0.0
  0
LINE
  5
1CD
330
199
100
AcDbEntity
  8
DV2_Default
  6
Continuous
 62
     7
 48
25.4
100
AcDbLine
 10
369.1754268231
 20
234.352825416
 30
0.0
 11
419.8809126733
 21
263.6276513209
 31
0.0
  0
LINE
  5
1CE
330
199
100
AcDbEntity
  8
DV2_Default
  6
Continuous
 62
     7
 48
25.4
100
AcDbLine
 10
403.6809126733
 20
291.6868744035
 30
0.0
 11
352.9754268231
 21
262.4120484986
 31
0.0
  0
LINE
  5
1CF
330
199
100
AcDbEntity
  8
DV2_Default
  6
Continuous
 62
     7
 48
25.4
100
AcDbLine
 10
374.0743865957
 20
238.5668818054
 30
0.0
 11
431.7516784878
 21
271.8668818054
 31
0.0
  0
LINE
  5
1D0
330
199
100
AcDbEntity
  8
DV2_Default
  6
Continuous
 62
     7
 48
25.4
100
AcDbLine
 10
359.0743865957
 20
264.547643919
 30
0.0
 11
416.7516784878
 21
297.847643919
 31
0.0
  0
LINE
  5
1D1
330
199
100
AcDbEntity
  8
DV2_Default
  6
Continuous
 62
     7
 48
25.4
100
AcDbLine
 10
416.7516784878
 20
297.847643919
 30
0.0
 11
431.7516784878
 21
271.8668818054
 31
0.0
  0
LINE
  5
1D2
330
199
100
AcDbEntity
  8
DV2_Default
  6
Continuous
 62
     7
 48
25.4
100
AcDbLine
 10
374.0743865957
 20
238.5668818054
 30
0.0
 11
359.0743865957
 21
264.547643919
 31
0.0
  0
CIRCLE
  5
1D3
330
199
100
AcDbEntity
  8
DV2_Default
  6
Continuous
 62
     7
 48
25.4
100
AcDbCircle
 10
377.4861767505
 20
257.8574879126
 30
0.0
 40
7.499999999999999
  0
LINE
  5
1D4
330
199
100
AcDbEntity
  8
DV2_Default
  6
Continuous
 62
     7
 48
25.4
100
AcDbLine
 10
373.3292548123
 20
255.4574879126
 30
0.0
 11
377.4861767505
 21
253.0574879126
 31
0.0
  0
LINE
  5
1D5
330
199
100
AcDbEntity
  8
DV2_Default
  6
Continuous
 62
     7
 48
25.4
100
AcDbLine
 10
377.4861767505
 20
253.0574879126
 30
0.0
 11
381.6430986886
 21
255.4574879126
 31
0.0
  0
LINE
  5
1D6
330
199
100
AcDbEntity
  8
DV2_Default
  6
Continuous
 62
     7
 48
25.4
100
AcDbLine
 10
381.6430986886
 20
255.4574879126
 30
0.0
 11
381.6430986886
 21
260.2574879126
 31
0.0
  0
LINE
  5
1D7
330
199
100
AcDbEntity
  8
DV2_Default
  6
Continuous
 62
     7
 48
25.4
100
AcDbLine
 10
381.6430986886
 20
260.2574879126
 30
0.0
 11
377.4861767505
 21
262.6574879126
 31
0.0
  0
LINE
  5
1D8
330
199
100
AcDbEntity
  8
DV2_Default
  6
Continuous
 62
     7
 48
25.4
100
AcDbLine
 10
377.4861767505
 20
262.6574879126
 30
0.0
 11
373.3292548123
 21
260.2574879126
 31
0.0
  0
LINE
  5
1D9
330
199
100
AcDbEntity
  8
DV2_Default
  6
Continuous
 62
     7
 48
25.4
100
AcDbLine
 10
373.3292548123
 20
260.2574879126
 30
0.0
 11
373.3292548123
 21
255.4574879126
 31
0.0
  0
CIRCLE
  5
1DA
330
199
100
AcDbEntity
  8
DV2_Default
  6
Continuous
 62
     7
 48
25.4
100
AcDbCircle
 10
393.0746340186
 20
266.8574879126
 30
0.0
 40
7.499999999999999
  0
LINE
  5
1DB
330
199
100
AcDbEntity
  8
DV2_Default
  6
Continuous
 62
     7
 48
25.4
100
AcDbLine
 10
397.2315559568
 20
269.2574879126
 30
0.0
 11
397.2315559568
 21
264.4574879126
 31
0.0
  0
LINE
  5
1DC
330
199
100
AcDbEntity
  8
DV2_Default
  6
Continuous
 62
     7
 48
25.4
100
AcDbLine
 10
397.2315559568
 20
264.4574879126
 30
0.0
 11
393.0746340186
 21
262.0574879126
 31
0.0
  0
LINE
  5
1DD
330
199
100
AcDbEntity
  8
DV2_Default
  6
Continuous
 62
     7
 48
25.4
100
AcDbLine
 10
393.0746340186
 20
262.0574879126
 30
0.0
 11
388.9177120804
 21
264.4574879126
 31
0.0
  0
LINE
  5
1DE
330
199
100
AcDbEntity
  8
DV2_Default
  6
Continuous
 62
     7
 48
25.4
100
AcDbLine
 10
388.9177120804
 20
264.4574879126
 30
0.0
 11
388.9177120804
 21
269.2574879126
 31
0.0
  0
LINE
  5
1DF
330
199
100
AcDbEntity
  8
DV2_Default
  6
Continuous
 62
     7
 48
25.4
100
AcDbLine
 10
388.9177120804
 20
269.2574879126
 30
0.0
 11
393.0746340186
 21
271.6574879126
 31
0.0
  0
LINE
  5
1E0
330
199
100
AcDbEntity
  8
DV2_Default
  6
Continuous
 62
     7
 48
25.4
100
AcDbLine
 10
393.0746340186
 20
271.6574879126
 30
0.0
 11
397.2315559568
 21
269.2574879126
 31
0.0
  0
LINE
  5
1E1
330
199
100
AcDbEntity
  8
DV2_Default
  6
Continuous
 62
     7
 48
25.4
100
AcDbLine
 10
419.8809126733
 20
263.6276513209
 30
0.0
 11
419.2809126733
 21
264.6668818054
 31
0.0
  0
LINE
  5
1E2
330
199
100
AcDbEntity
  8
DV2_Default
  6
Continuous
 62
     7
 48
25.4
100
AcDbLine
 10
403.6809126733
 20
291.6868744035
 30
0.0
 11
404.2809126733
 21
290.647643919
 31
0.0
  0
LINE
  5
1E3
330
199
100
AcDbEntity
  8
DV2_Default
  6
Continuous
 62
     7
 48
25.4
100
AcDbLine
 10
357.2213122348
 20
246.1572628622
 30
0.0
 11
365.3213122348
 21
232.1276513209
 31
0.0
  0
LINE
  5
1E4
330
199
100
AcDbEntity
  8
DV2_Default
  6
Continuous
 62
     7
 48
25.4
100
AcDbLine
 10
365.3213122348
 20
232.1276513209
 30
0.0
 11
369.1754268231
 21
234.352825416
 31
0.0
  0
LINE
  5
1E5
330
199
100
AcDbEntity
  8
DV2_Default
  6
Continuous
 62
     7
 48
25.4
100
AcDbLine
 10
365.3213122348
 20
232.1276513209
 30
0.0
 11
371.6852732655
 21
225.7636902902
 31
0.0
  0
LINE
  5
1E6
330
199
100
AcDbEntity
  8
DV2_Default
  6
Continuous
 62
     7
 48
25.4
100
AcDbLine
 10
371.6852732655
 20
225.7636902902
 30
0.0
 11
375.2651952426
 21
227.8305592074
 31
0.0
  0
LINE
  5
1E7
330
199
100
AcDbEntity
  8
DV2_Default
  6
Continuous
 62
     7
 48
25.4
100
AcDbLine
 10
357.2213122348
 20
246.1572628622
 30
0.0
 11
349.1213122348
 21
260.1868744035
 31
0.0
  0
LINE
  5
1E8
330
199
100
AcDbEntity
  8
DV2_Default
  6
Continuous
 62
     7
 48
25.4
100
AcDbLine
 10
349.1213122348
 20
260.1868744035
 30
0.0
 11
352.9754268231
 21
262.4120484986
 31
0.0
  0
LINE
  5
1E9
330
199
100
AcDbEntity
  8
DV2_Default
  6
Continuous
 62
     7
 48
25.4
100
AcDbLine
 10
349.1213122348
 20
260.1868744035
 30
0.0
 11
346.7919408289
 21
268.8802068401
 31
0.0
  0
LINE
  5
1EA
330
199
100
AcDbEntity
  8
DV2_Default
  6
Continuous
 62
     7
 48
25.4
100
AcDbLine
 10
346.7919408289
 20
268.8802068401
 30
0.0
 11
350.371862806
 21
270.9470757573
 31
0.0
  0
LINE
  5
1EB
330
199
100
AcDbEntity
  8
DV2_Default
  6
Continuous
 62
     7
 48
25.4
100
AcDbLine
 10
369.7243865957
 20
246.1013028184
 30
0.0
 11
360.3713122348
 21
240.7013028184
 31
0.0
  0
LINE
  5
1EC
330
199
100
AcDbEntity
  8
DV2_Default
  6
Continuous
 62
     7
 48
25.4
100
AcDbLine
 10
363.4243865957
 20
257.0132229061
 30
0.0
 11
354.0713122348
 21
251.6132229061
 31
0.0
  0
LINE
  5
1ED
330
199
100
AcDbEntity
  8
DV2_Default
  6
CENTER2
 62
     7
 48
25.4
100
AcDbLine
 10
381.6430986886
 20
250.6574879126
 30
0.0
 11
373.3292548123
 21
265.0574879126
 31
0.0
  0
LINE
  5
1EE
330
199
100
AcDbEntity
  8
DV2_Default
  6
CENTER2
 62
     7
 48
25.4
100
AcDbLine
 10
397.2315559568
 20
259.6574879126
 30
0.0
 11
388.9177120804
 21
274.0574879126
 31
0.0
  0
LINE
  5
1EF
330
199
100
AcDbEntity
  8
DV2_Default
  6
Continuous
 62
     7
 48
25.4
100
AcDbLine
 10
524.6263837195
 20
262.4120484986
 30
0.0
 11
473.9208978694
 21
291.6868744035
 31
0.0
  0
LINE
  5
1F0
330
199
100
AcDbEntity
  8
DV2_Default
  6
Continuous
 62
     7
 48
25.4
100
AcDbLine
 10
457.7208978694
 20
263.6276513209
 30
0.0
 11
508.4263837195
 21
234.352825416
 31
0.0
  0
LINE
  5
1F1
330
199
100
AcDbEntity
  8
DV2_Default
  6
Continuous
 62
     7
 48
25.4
100
AcDbLine
 10
518.527423947
 20
264.547643919
 30
0.0
 11
460.8501320549
 21
297.847643919
 31
0.0
  0
LINE
  5
1F2
330
199
100
AcDbEntity
  8
DV2_Default
  6
Continuous
 62
     7
 48
25.4
100
AcDbLine
 10
503.527423947
 20
238.5668818054
 30
0.0
 11
445.8501320549
 21
271.8668818054
 31
0.0
  0
LINE
  5
1F3
330
199
100
AcDbEntity
  8
DV2_Default
  6
Continuous
 62
     7
 48
25.4
100
AcDbLine
 10
445.8501320549
 20
271.8668818054
 30
0.0
 11
460.8501320549
 21
297.847643919
 31
0.0
  0
LINE
  5
1F4
330
199
100
AcDbEntity
  8
DV2_Default
  6
Continuous
 62
     7
 48
25.4
100
AcDbLine
 10
518.527423947
 20
264.547643919
 30
0.0
 11
503.527423947
 21
238.5668818054
 31
0.0
  0
CIRCLE
  5
1F5
330
199
100
AcDbEntity
  8
DV2_Default
  6
Continuous
 62
     7
 48
25.4
100
AcDbCircle
 10
500.1153739264
 20
257.8570378118
 30
0.0
 40
7.499999999999999
  0
LINE
  5
1F6
330
199
100
AcDbEntity
  8
DV2_Default
  6
Continuous
 62
     7
 48
25.4
100
AcDbLine
 10
504.2722958645
 20
255.4570378118
 30
0.0
 11
504.2722958645
 21
260.2570378118
 31
0.0
  0
LINE
  5
1F7
330
199
100
AcDbEntity
  8
DV2_Default
  6
Continuous
 62
     7
 48
25.4
100
AcDbLine
 10
504.2722958645
 20
260.2570378118
 30
0.0
 11
500.1153739264
 21
262.6570378118
 31
0.0
  0
LINE
  5
1F8
330
199
100
AcDbEntity
  8
DV2_Default
  6
Continuous
 62
     7
 48
25.4
100
AcDbLine
 10
500.1153739264
 20
262.6570378118
 30
0.0
 11
495.9584519882
 21
260.2570378118
 31
0.0
  0
LINE
  5
1F9
330
199
100
AcDbEntity
  8
DV2_Default
  6
Continuous
 62
     7
 48
25.4
100
AcDbLine
 10
495.9584519882
 20
260.2570378118
 30
0.0
 11
495.9584519882
 21
255.4570378118
 31
0.0
  0
LINE
  5
1FA
330
199
100
AcDbEntity
  8
DV2_Default
  6
Continuous
 62
     7
 48
25.4
100
AcDbLine
 10
495.9584519882
 20
255.4570378118
 30
0.0
 11
500.1153739264
 21
253.0570378118
 31
0.0
  0
LINE
  5
1FB
330
199
100
AcDbEntity
  8
DV2_Default
  6
Continuous
 62
     7
 48
25.4
100
AcDbLine
 10
500.1153739264
 20
253.0570378118
 30
0.0
 11
504.2722958645
 21
255.4570378118
 31
0.0
  0
CIRCLE
  5
1FC
330
199
100
AcDbEntity
  8
DV2_Default
  6
Continuous
 62
     7
 48
25.4
100
AcDbCircle
 10
484.5269166582
 20
266.8570378118
 30
0.0
 40
7.499999999999999
  0
LINE
  5
1FD
330
199
100
AcDbEntity
  8
DV2_Default
  6
Continuous
 62
     7
 48
25.4
100
AcDbLine
 10
480.3699947201
 20
269.2570378118
 30
0.0
 11
484.5269166582
 21
271.6570378118
 31
0.0
  0
LINE
  5
1FE
330
199
100
AcDbEntity
  8
DV2_Default
  6
Continuous
 62
     7
 48
25.4
100
AcDbLine
 10
484.5269166582
 20
271.6570378118
 30
0.0
 11
488.6838385964
 21
269.2570378118
 31
0.0
  0
LINE
  5
1FF
330
199
100
AcDbEntity
  8
DV2_Default
  6
Continuous
 62
     7
 48
25.4
100
AcDbLine
 10
488.6838385964
 20
269.2570378118
 30
0.0
 11
488.6838385964
 21
264.4570378118
 31
0.0
  0
LINE
  5
200
330
199
100
AcDbEntity
  8
DV2_Default
  6
Continuous
 62
     7
 48
25.4
100
AcDbLine
 10
488.6838385964
 20
264.4570378118
 30
0.0
 11
484.5269166582
 21
262.0570378118
 31
0.0
  0
LINE
  5
201
330
199
100
AcDbEntity
  8
DV2_Default
  6
Continuous
 62
     7
 48
25.4
100
AcDbLine
 10
484.5269166582
 20
262.0570378118
 30
0.0
 11
480.3699947201
 21
264.4570378118
 31
0.0
  0
LINE
  5
202
330
199
100
AcDbEntity
  8
DV2_Default
  6
Continuous
 62
     7
 48
25.4
100
AcDbLine
 10
480.3699947201
 20
264.4570378118
 30
0.0
 11
480.3699947201
 21
269.2570378118
 31
0.0
  0
LINE
  5
203
330
199
100
AcDbEntity
  8
DV2_Default
  6
Continuous
 62
     7
 48
25.4
100
AcDbLine
 10
473.9208978694
 20
291.6868744035
 30
0.0
 11
473.3208978694
 21
290.647643919
 31
0.0
  0
LINE
  5
204
330
199
100
AcDbEntity
  8
DV2_Default
  6
Continuous
 62
     7
 48
25.4
100
AcDbLine
 10
457.7208978694
 20
263.6276513209
 30
0.0
 11
458.3208978694
 21
264.6668818054
 31
0.0
  0
LINE
  5
205
330
199
100
AcDbEntity
  8
DV2_Default
  6
Continuous
 62
     7
 48
25.4
100
AcDbLine
 10
520.3804983078
 20
246.1572628622
 30
0.0
 11
528.4804983078
 21
260.1868744035
 31
0.0
  0
LINE
  5
206
330
199
100
AcDbEntity
  8
DV2_Default
  6
Continuous
 62
     7
 48
25.4
100
AcDbLine
 10
528.4804983078
 20
260.1868744035
 30
0.0
 11
524.6263837195
 21
262.4120484986
 31
0.0
  0
LINE
  5
207
330
199
100
AcDbEntity
  8
DV2_Default
  6
Continuous
 62
     7
 48
25.4
100
AcDbLine
 10
528.4804983078
 20
260.1868744035
 30
0.0
 11
530.8098697137
 21
268.8802068401
 31
0.0
  0
LINE
  5
208
330
199
100
AcDbEntity
  8
DV2_Default
  6
Continuous
 62
     7
 48
25.4
100
AcDbLine
 10
530.8098697137
 20
268.8802068401
 30
0.0
 11
527.2299477367
 21
270.9470757573
 31
0.0
  0
LINE
  5
209
330
199
100
AcDbEntity
  8
DV2_Default
  6
Continuous
 62
     7
 48
25.4
100
AcDbLine
 10
520.3804983078
 20
246.1572628622
 30
0.0
 11
512.2804983078
 21
232.1276513209
 31
0.0
  0
LINE
  5
20A
330
199
100
AcDbEntity
  8
DV2_Default
  6
Continuous
 62
     7
 48
25.4
100
AcDbLine
 10
512.2804983078
 20
232.1276513209
 30
0.0
 11
508.4263837195
 21
234.352825416
 31
0.0
  0
LINE
  5
20B
330
199
100
AcDbEntity
  8
DV2_Default
  6
Continuous
 62
     7
 48
25.4
100
AcDbLine
 10
512.2804983078
 20
232.1276513209
 30
0.0
 11
505.9165372771
 21
225.7636902902
 31
0.0
  0
LINE
  5
20C
330
199
100
AcDbEntity
  8
DV2_Default
  6
Continuous
 62
     7
 48
25.4
100
AcDbLine
 10
505.9165372771
 20
225.7636902902
 30
0.0
 11
502.3366153001
 21
227.8305592074
 31
0.0
  0
LINE
  5
20D
330
199
100
AcDbEntity
  8
DV2_Default
  6
Continuous
 62
     7
 48
25.4
100
AcDbLine
 10
514.177423947
 20
257.0132229061
 30
0.0
 11
523.5304983078
 21
251.6132229061
 31
0.0
  0
LINE
  5
20E
330
199
100
AcDbEntity
  8
DV2_Default
  6
Continuous
 62
     7
 48
25.4
100
AcDbLine
 10
507.877423947
 20
246.1013028184
 30
0.0
 11
517.2304983078
 21
240.7013028184
 31
0.0
  0
LINE
  5
20F
330
199
100
AcDbEntity
  8
DV2_Default
  6
CENTER2
 62
     7
 48
25.4
100
AcDbLine
 10
504.2722958645
 20
265.0570378118
 30
0.0
 11
495.9584519882
 21
250.6570378118
 31
0.0
  0
LINE
  5
210
330
199
100
AcDbEntity
  8
DV2_Default
  6
CENTER2
 62
     7
 48
25.4
100
AcDbLine
 10
488.6838385964
 20
274.0570378118
 30
0.0
 11
480.3699947201
 21
259.6570378118
 31
0.0
  0
LINE
  5
211
330
199
100
AcDbEntity
  8
DV2_Default
  6
Continuous
 62
     7
 48
25.4
100
AcDbLine
 10
470.1566693529
 20
310.6690253937
 30
0.0
 11
471.3566693529
 21
310.6690253937
 31
0.0
  0
LINE
  5
212
330
199
100
AcDbEntity
  8
DV2_Default
  6
Continuous
 62
     7
 48
25.4
100
AcDbLine
 10
471.3566693529
 20
310.6690253937
 30
0.0
 11
471.9566693529
 21
311.7082558782
 31
0.0
  0
LINE
  5
213
330
199
100
AcDbEntity
  8
DV2_Default
  6
Continuous
 62
     7
 48
25.4
100
AcDbLine
 10
471.9566693529
 20
311.7082558782
 30
0.0
 11
471.3566693529
 21
312.7474863628
 31
0.0
  0
LINE
  5
214
330
199
100
AcDbEntity
  8
DV2_Default
  6
Continuous
 62
     7
 48
25.4
100
AcDbLine
 10
471.3566693529
 20
312.7474863628
 30
0.0
 11
470.1566693529
 21
312.7474863628
 31
0.0
  0
LINE
  5
215
330
199
100
AcDbEntity
  8
DV2_Default
  6
Continuous
 62
     7
 48
25.4
100
AcDbLine
 10
470.1566693529
 20
312.7474863628
 30
0.0
 11
469.5566693529
 21
311.7082558782
 31
0.0
  0
LINE
  5
216
330
199
100
AcDbEntity
  8
DV2_Default
  6
Continuous
 62
     7
 48
25.4
100
AcDbLine
 10
470.1566693529
 20
310.6690253937
 30
0.0
 11
469.5566693529
 21
311.7082558782
 31
0.0
  0
CIRCLE
  5
217
330
199
100
AcDbEntity
  8
DV2_Default
  6
Continuous
 62
     7
 48
25.4
100
AcDbCircle
 10
470.757242671
 20
311.7072628622
 30
0.0
 40
3.0
  0
CIRCLE
  5
218
330
199
100
AcDbEntity
  8
DV2_Default
  6
Continuous
 62
     7
 48
25.4
100
AcDbCircle
 10
483.3319315339
 20
318.9672628622
 30
0.0
 40
7.5
  0
CIRCLE
  5
219
330
199
100
AcDbEntity
  8
DV2_Default
  6
Continuous
 62
     7
 48
25.4
100
AcDbCircle
 10
483.3319315339
 20
318.9672628622
 30
0.0
 40
5.100000000000001
  0
LINE
  5
21A
330
199
100
AcDbEntity
  8
DV2_Default
  6
CENTER2
 62
     7
 48
25.4
100
AcDbLine
 10
476.8367410055
 20
315.2172628622
 30
0.0
 11
489.8271220623
 21
322.7172628622
 31
0.0
  0
LINE
  5
21B
330
199
100
AcDbEntity
  8
DV2_Default
  6
CENTER2
 62
     7
 48
25.4
100
AcDbLine
 10
468.1591664596
 20
310.2072628622
 30
0.0
 11
474.1347417457
 21
313.6572628622
 31
0.0
  0
LINE
  5
21C
330
199
100
AcDbEntity
  8
DV2_Default
  6
Continuous
 62
     7
 48
25.4
100
AcDbLine
 10
408.0439945536
 20
311.7062698462
 30
0.0
 11
407.4439945536
 21
312.7455003308
 31
0.0
  0
LINE
  5
21D
330
199
100
AcDbEntity
  8
DV2_Default
  6
Continuous
 62
     7
 48
25.4
100
AcDbLine
 10
407.4439945536
 20
312.7455003308
 30
0.0
 11
406.2439945536
 21
312.7455003308
 31
0.0
  0
LINE
  5
21E
330
199
100
AcDbEntity
  8
DV2_Default
  6
Continuous
 62
     7
 48
25.4
100
AcDbLine
 10
406.2439945536
 20
312.7455003308
 30
0.0
 11
405.6439945536
 21
311.7062698462
 31
0.0
  0
LINE
  5
21F
330
199
100
AcDbEntity
  8
DV2_Default
  6
Continuous
 62
     7
 48
25.4
100
AcDbLine
 10
405.6439945536
 20
311.7062698462
 30
0.0
 11
406.2439945536
 21
310.6670393617
 31
0.0
  0
LINE
  5
220
330
199
100
AcDbEntity
  8
DV2_Default
  6
Continuous
 62
     7
 48
25.4
100
AcDbLine
 10
406.2439945536
 20
310.6670393617
 30
0.0
 11
407.4439945536
 21
310.6670393617
 31
0.0
  0
LINE
  5
221
330
199
100
AcDbEntity
  8
DV2_Default
  6
Continuous
 62
     7
 48
25.4
100
AcDbLine
 10
408.0439945536
 20
311.7062698462
 30
0.0
 11
407.4439945536
 21
310.6670393617
 31
0.0
  0
CIRCLE
  5
222
330
199
100
AcDbEntity
  8
DV2_Default
  6
Continuous
 62
     7
 48
25.4
100
AcDbCircle
 10
406.8445678717
 20
311.7072628622
 30
0.0
 40
3.0
  0
CIRCLE
  5
223
330
199
100
AcDbEntity
  8
DV2_Default
  6
Continuous
 62
     7
 48
25.4
100
AcDbCircle
 10
394.2698790087
 20
318.9672628622
 30
0.0
 40
7.5
  0
CIRCLE
  5
224
330
199
100
AcDbEntity
  8
DV2_Default
  6
Continuous
 62
     7
 48
25.4
100
AcDbCircle
 10
394.2698790087
 20
318.9672628622
 30
0.0
 40
5.100000000000001
  0
LINE
  5
225
330
199
100
AcDbEntity
  8
DV2_Default
  6
CENTER2
 62
     7
 48
25.4
100
AcDbLine
 10
400.7650695371
 20
315.2172628622
 30
0.0
 11
387.7746884804
 21
322.7172628622
 31
0.0
  0
LINE
  5
226
330
199
100
AcDbEntity
  8
DV2_Default
  6
CENTER2
 62
     7
 48
25.4
100
AcDbLine
 10
409.442644083
 20
310.2072628622
 30
0.0
 11
403.4670687969
 21
313.6572628622
 31
0.0
  0
ARC
  5
227
330
199
100
AcDbEntity
  8
DV2_Default
  6
CENTER2
 62
     7
 48
25.4
100
AcDbCircle
 10
438.8009052713
 20
293.2572628622
 30
0.0
 40
51.41999999999999
100
AcDbArc
 50
21.6355468977
 51
38.3644531023
  0
ARC
  5
228
330
199
100
AcDbEntity
  8
DV2_Default
  6
CENTER2
 62
     7
 48
25.4
100
AcDbCircle
 10
438.8009052713
 20
293.2572628622
 30
0.0
 40
51.41999999999999
100
AcDbArc
 50
141.6355468977
 51
158.3644531023
  0
ARC
  5
229
330
199
100
AcDbEntity
  8
DV2_Default
  6
CENTER2
 62
     7
 48
25.4
100
AcDbCircle
 10
438.8009052713
 20
293.2572628622
 30
0.0
 40
51.41999999999999
100
AcDbArc
 50
261.6355468977
 51
278.3644531023
  0
ARC
  5
22A
330
199
100
AcDbEntity
  8
DV2_Default
  6
CENTER2
 62
     7
 48
25.4
100
AcDbCircle
 10
438.8009052713
 20
293.2572628622
 30
0.0
 40
36.9
100
AcDbArc
 50
145.3405226791
 51
154.6594773209
  0
ARC
  5
22B
330
199
100
AcDbEntity
  8
DV2_Default
  6
CENTER2
 62
     7
 48
25.4
100
AcDbCircle
 10
438.8009052713
 20
293.2572628622
 30
0.0
 40
36.9
100
AcDbArc
 50
25.3405226791
 51
34.6594773209
  0
ARC
  5
22C
330
199
100
AcDbEntity
  8
DV2_Default
  6
CENTER2
 62
     7
 48
25.4
100
AcDbCircle
 10
438.8009052713
 20
293.2572628622
 30
0.0
 40
36.9
100
AcDbArc
 50
265.3405226791
 51
274.6594773209
  0
ARC
  5
22D
330
199
100
AcDbEntity
  8
DV2_Default
  6
Continuous
 62
     7
 48
25.4
100
AcDbCircle
 10
438.8009052713
 20
293.2572628622
 30
0.0
 40
40.8
100
AcDbArc
 50
353.3944396226
 51
66.6055603774
  0
ARC
  5
22E
330
199
100
AcDbEntity
  8
DV2_Default
  6
Continuous
 62
     7
 48
25.4
100
AcDbCircle
 10
438.8009052713
 20
293.2572628622
 30
0.0
 40
40.8
100
AcDbArc
 50
113.3944396226
 51
186.6055603774
  0
ARC
  5
22F
330
199
100
AcDbEntity
  8
DV2_Default
  6
Continuous
 62
     7
 48
25.4
100
AcDbCircle
 10
438.8009052713
 20
293.2572628622
 30
0.0
 40
40.8
100
AcDbArc
 50
233.3944396226
 51
306.6055603774
  0
ARC
  5
230
330
199
100
AcDbEntity
  8
DV2_Default
  6
Continuous
 62
     7
 48
25.4
100
AcDbCircle
 10
438.8009052713
 20
293.2572628622
 30
0.0
 40
18.6
100
AcDbArc
 50
115.4146209152
 51
184.5853790848
  0
ARC
  5
231
330
199
100
AcDbEntity
  8
DV2_Default
  6
Continuous
 62
     7
 48
25.4
100
AcDbCircle
 10
438.8009052713
 20
293.2572628622
 30
0.0
 40
18.6
100
AcDbArc
 50
235.4146209152
 51
304.5853790848
  0
ARC
  5
232
330
199
100
AcDbEntity
  8
DV2_Default
  6
Continuous
 62
     7
 48
25.4
100
AcDbCircle
 10
438.8009052713
 20
293.2572628622
 30
0.0
 40
91.19999999999999
100
AcDbArc
 50
100.2318362662
 51
199.7681637338
  0
ARC
  5
233
330
199
100
AcDbEntity
  8
DV2_Default
  6
Continuous
 62
     7
 48
25.4
100
AcDbCircle
 10
438.8009052713
 20
293.2572628622
 30
0.0
 40
91.19999999999999
100
AcDbArc
 50
340.2318362662
 51
79.7681637338
  0
LINE
  5
234
330
199
100
AcDbEntity
  8
DV2_Default
  6
CENTER2
 62
     7
 48
25.4
100
AcDbLine
 10
438.8009052713
 20
293.2572628622
 30
0.0
 11
353.0643902967
 21
243.7572628622
 31
0.0
  0
LINE
  5
235
330
199
100
AcDbEntity
  8
DV2_Default
  6
CENTER2
 62
     7
 48
25.4
100
AcDbLine
 10
438.8009052713
 20
293.2572628622
 30
0.0
 11
524.537420246
 21
243.7572628622
 31
0.0
  0
LINE
  5
236
330
199
100
AcDbEntity
  8
DV2_Default
  6
CENTER2
 62
     7
 48
25.4
100
AcDbLine
 10
438.8009052713
 20
239.8572628622
 30
0.0
 11
438.8009052713
 21
232.6572628622
 31
0.0
  0
CIRCLE
  5
237
330
199
100
AcDbEntity
  8
DV2_Default
  6
HIDDEN2
 62
     7
 48
25.4
100
AcDbCircle
 10
493.8586773698
 20
308.0099484331
 30
0.0
 40
2.4
  0
CIRCLE
  5
238
330
199
100
AcDbEntity
  8
DV2_Default
  6
HIDDEN2
 62
     7
 48
25.4
100
AcDbCircle
 10
493.8586773698
 20
308.0099484331
 30
0.0
 40
2.1
  0
LINE
  5
239
330
199
100
AcDbEntity
  8
DV2_Default
  6
CENTER2
 62
     7
 48
25.4
100
AcDbLine
 10
491.5404553867
 20
307.3887827248
 30
0.0
 11
496.1768993529
 21
308.6311141413
 31
0.0
  0
CIRCLE
  5
23A
330
199
100
AcDbEntity
  8
DV2_Default
  6
HIDDEN2
 62
     7
 48
25.4
100
AcDbCircle
 10
398.4958187437
 20
333.5623493898
 30
0.0
 40
2.4
  0
CIRCLE
  5
23B
330
199
100
AcDbEntity
  8
DV2_Default
  6
HIDDEN2
 62
     7
 48
25.4
100
AcDbCircle
 10
398.4958187437
 20
333.5623493898
 30
0.0
 40
2.1
  0
LINE
  5
23C
330
199
100
AcDbEntity
  8
DV2_Default
  6
CENTER2
 62
     7
 48
25.4
100
AcDbLine
 10
400.1928750185
 20
331.865293115
 30
0.0
 11
396.7987624689
 21
335.2594056647
 31
0.0
  0
ARC
  5
23D
330
199
100
AcDbEntity
  8
DV2_Default
  6
CENTER2
 62
     7
 48
25.4
100
AcDbCircle
 10
438.8009052713
 20
293.2572628622
 30
0.0
 40
56.99999999999999
100
AcDbArc
 50
12.5873678849
 51
17.4126321151
  0
ARC
  5
23E
330
199
100
AcDbEntity
  8
DV2_Default
  6
CENTER2
 62
     7
 48
25.4
100
AcDbCircle
 10
438.8009052713
 20
293.2572628622
 30
0.0
 40
56.99999999999999
100
AcDbArc
 50
132.5873678849
 51
137.4126321151
  0
CIRCLE
  5
23F
330
199
100
AcDbEntity
  8
DV2_Default
  6
HIDDEN2
 62
     7
 48
25.4
100
AcDbCircle
 10
425.0899571947
 20
237.9308685929
 30
0.0
 40
2.4
  0
CIRCLE
  5
240
330
199
100
AcDbEntity
  8
DV2_Default
  6
HIDDEN2
 62
     7
 48
25.4
100
AcDbCircle
 10
425.0899571947
 20
237.9308685929
 30
0.0
 40
2.1
  0
LINE
  5
241
330
199
100
AcDbEntity
  8
DV2_Default
  6
CENTER2
 62
     7
 48
25.4
100
AcDbLine
 10
425.6672602716
 20
240.2604009832
 30
0.0
 11
424.5126541178
 21
235.6013362027
 31
0.0
  0
ARC
  5
242
330
199
100
AcDbEntity
  8
DV2_Default
  6
CENTER2
 62
     7
 48
25.4
100
AcDbCircle
 10
438.8009052713
 20
293.2572628622
 30
0.0
 40
56.99999999999999
100
AcDbArc
 50
253.6687800447
 51
258.4940442748
  0
ENDBLK
  5
244
330
199
100
AcDbEntity
  8
0
100
AcDbBlockEnd
  0
BLOCK
  5
2D1
330
245
100
AcDbEntity
  8
0
100
AcDbBlockBegin
  2
SE2
 70
     0
 71
     0
 10
0.0
 20
0.0
 30
0.0
  3
SE2
  1

  0
TEXT
  5
247
330
245
100
AcDbEntity
  8
DV3_Default
  6
Continuous
 62
     7
 48
25.4
100
AcDbText
 10
345.1389862575
 20
21.2902907256
 30
0.0
 40
3.6
  1
Speed in min-
  7
SEACAD_arial_ttf
 11
345.1389862575
 21
24.8902907256
 31
0.0
100
AcDbText
 73
     3
  0
TEXT
  5
249
330
245
100
AcDbEntity
  8
DV3_Default
  6
Continuous
 62
     7
 48
25.4
100
AcDbText
 10
376.365073214
 20
21.2902907256
 30
0.0
 40
2.7516666667
  1
¹
  7
SEACAD_arial_ttf
 11
376.365073214
 21
24.0419573923
 31
0.0
100
AcDbText
 73
     3
  0
TEXT
  5
24A
330
245
100
AcDbEntity
  8
DV3_Default
  6
Continuous
 62
     7
 48
25.4
100
AcDbText
 10
252.7255409173
 20
86.0984419397
 30
0.0
 40
3.6
  1
Total Gripping 
  7
SEACAD_arial_ttf
 11
252.7255409173
 21
89.6984419397
 31
0.0
100
AcDbText
 73
     3
  0
TEXT
  5
24B
330
245
100
AcDbEntity
  8
DV3_Default
  6
Continuous
 62
     7
 48
25.4
100
AcDbText
 10
252.7255409173
 20
80.463659331
 30
0.0
 40
3.6
  1
Force in kN
  7
SEACAD_arial_ttf
 11
252.7255409173
 21
84.063659331
 31
0.0
100
AcDbText
 73
     3
  0
TEXT
  5
24C
330
245
100
AcDbEntity
  8
DV3_Default
  6
Continuous
 62
     7
 48
25.4
100
AcDbText
 10
304.6890631305
 20
146.2458894206
 30
0.0
 40
3.6
  1
Gripping Characteristic Graph For BL-212A8
  7
SEACAD_arial_ttf
 11
304.6890631305
 21
149.8458894206
 31
0.0
100
AcDbText
 73
     3
  0
TEXT
  5
24D
330
245
100
AcDbEntity
  8
DV3_Default
  6
Continuous
 62
     7
 48
25.4
100
AcDbText
 10
47.214606778
 20
126.5378004454
 30
0.0
 40
3.0
  1
SPINDLE NOSE SIZE
  7
SEACAD_arial_ttf
 11
47.214606778
 21
129.5378004454
 31
0.0
100
AcDbText
 73
     3
  0
TEXT
  5
24E
330
245
100
AcDbEntity
  8
DV3_Default
  6
Continuous
 62
     7
 48
25.4
100
AcDbText
 10
136.5456864507
 20
126.4387420968
 30
0.0
 40
3.0
  1
A2-8
  7
SEACAD_arial_ttf
 11
136.5456864507
 21
129.4387420968
 31
0.0
100
AcDbText
 73
     3
  0
TEXT
  5
24F
330
245
100
AcDbEntity
  8
DV3_Default
  6
Continuous
 62
     7
 48
25.4
100
AcDbText
 10
47.3684985708
 20
61.8015825901
 30
0.0
 40
3.0
  1
TOTAL GRIPPING FORCE AT MAX. SPEED
  7
SEACAD_arial_ttf
 11
47.3684985708
 21
64.8015825901
 31
0.0
100
AcDbText
 73
     3
  0
TEXT
  5
250
330
245
100
AcDbEntity
  8
DV3_Default
  6
Continuous
 62
     7
 48
25.4
100
AcDbText
 10
136.4104809472
 20
18.5100636045
 30
0.0
 40
3.0
  1
SB12N1
  7
SEACAD_arial_ttf
 11
136.4104809472
 21
21.5100636045
 31
0.0
100
AcDbText
 73
     3
  0
LINE
  5
251
330
245
100
AcDbEntity
  8
DV3_Default
  6
Continuous
 62
     7
 48
25.4
100
AcDbLine
 10
44.8634870052
 20
23.6443872938
 30
0.0
 11
188.8634870052
 21
23.6443872938
 31
0.0
  0
LINE
  5
252
330
245
100
AcDbEntity
  8
DV3_Default
  6
Continuous
 62
     7
 48
25.4
100
AcDbLine
 10
188.8634870052
 20
131.6443872938
 30
0.0
 11
44.8634870052
 21
131.6443872938
 31
0.0
  0
LINE
  5
253
330
245
100
AcDbEntity
  8
DV3_Default
  6
Continuous
 62
     7
 48
25.4
100
AcDbLine
 10
44.8634870052
 20
124.4443872938
 30
0.0
 11
188.8634870052
 21
124.4443872938
 31
0.0
  0
LINE
  5
254
330
245
100
AcDbEntity
  8
DV3_Default
  6
Continuous
 62
     7
 48
25.4
100
AcDbLine
 10
188.8634870052
 20
117.2443872938
 30
0.0
 11
44.8634870052
 21
117.2443872938
 31
0.0
  0
LINE
  5
255
330
245
100
AcDbEntity
  8
DV3_Default
  6
Continuous
 62
     7
 48
25.4
100
AcDbLine
 10
44.8634870052
 20
110.0443872938
 30
0.0
 11
188.8634870052
 21
110.0443872938
 31
0.0
  0
LINE
  5
256
330
245
100
AcDbEntity
  8
DV3_Default
  6
Continuous
 62
     7
 48
25.4
100
AcDbLine
 10
188.8634870052
 20
102.8443872938
 30
0.0
 11
44.8634870052
 21
102.8443872938
 31
0.0
  0
LINE
  5
257
330
245
100
AcDbEntity
  8
DV3_Default
  6
Continuous
 62
     7
 48
25.4
100
AcDbLine
 10
44.8634870052
 20
95.6443872938
 30
0.0
 11
188.8634870052
 21
95.6443872938
 31
0.0
  0
LINE
  5
258
330
245
100
AcDbEntity
  8
DV3_Default
  6
Continuous
 62
     7
 48
25.4
100
AcDbLine
 10
188.8634870052
 20
88.4443872938
 30
0.0
 11
44.8634870052
 21
88.4443872938
 31
0.0
  0
LINE
  5
259
330
245
100
AcDbEntity
  8
DV3_Default
  6
Continuous
 62
     7
 48
25.4
100
AcDbLine
 10
44.8634870052
 20
81.2443872938
 30
0.0
 11
188.8634870052
 21
81.2443872938
 31
0.0
  0
LINE
  5
25A
330
245
100
AcDbEntity
  8
DV3_Default
  6
Continuous
 62
     7
 48
25.4
100
AcDbLine
 10
188.8634870052
 20
74.0443872938
 30
0.0
 11
44.8634870052
 21
74.0443872938
 31
0.0
  0
LINE
  5
25B
330
245
100
AcDbEntity
  8
DV3_Default
  6
Continuous
 62
     7
 48
25.4
100
AcDbLine
 10
44.8634870052
 20
66.8443872938
 30
0.0
 11
188.8634870052
 21
66.8443872938
 31
0.0
  0
LINE
  5
25C
330
245
100
AcDbEntity
  8
DV3_Default
  6
Continuous
 62
     7
 48
25.4
100
AcDbLine
 10
188.8634870052
 20
59.6443872938
 30
0.0
 11
44.8634870052
 21
59.6443872938
 31
0.0
  0
LINE
  5
25D
330
245
100
AcDbEntity
  8
DV3_Default
  6
Continuous
 62
     7
 48
25.4
100
AcDbLine
 10
44.8634870052
 20
52.4443872938
 30
0.0
 11
188.8634870052
 21
52.4443872938
 31
0.0
  0
LINE
  5
25E
330
245
100
AcDbEntity
  8
DV3_Default
  6
Continuous
 62
     7
 48
25.4
100
AcDbLine
 10
188.8634870052
 20
45.2443872938
 30
0.0
 11
44.8634870052
 21
45.2443872938
 31
0.0
  0
LINE
  5
25F
330
245
100
AcDbEntity
  8
DV3_Default
  6
Continuous
 62
     7
 48
25.4
100
AcDbLine
 10
44.8634870052
 20
38.0443872938
 30
0.0
 11
188.8634870052
 21
38.0443872938
 31
0.0
  0
LINE
  5
260
330
245
100
AcDbEntity
  8
DV3_Default
  6
Continuous
 62
     7
 48
25.4
100
AcDbLine
 10
188.8634870052
 20
30.8443872938
 30
0.0
 11
44.8634870052
 21
30.8443872938
 31
0.0
  0
TEXT
  5
261
330
245
100
AcDbEntity
  8
DV3_Default
  6
Continuous
 62
     7
 48
25.4
100
AcDbText
 10
97.3234708002
 20
146.3492909051
 30
0.0
 40
3.6
  1
Specifications
  7
SEACAD_arial_ttf
 11
97.3234708002
 21
149.9492909051
 31
0.0
100
AcDbText
 73
     3
  0
TEXT
  5
262
330
245
100
AcDbEntity
  8
DV3_Default
  6
Continuous
 62
     7
 48
25.4
100
AcDbText
 10
47.3433173967
 20
119.3530805574
 30
0.0
 40
3.0
  1
THROUGH HOLE
  7
SEACAD_arial_ttf
 11
47.3433173967
 21
122.3530805574
 31
0.0
100
AcDbText
 73
     3
  0
TEXT
  5
263
330
245
100
AcDbEntity
  8
DV3_Default
  6
Continuous
 62
     7
 48
25.4
100
AcDbText
 10
136.4057987403
 20
119.4696246382
 30
0.0
 40
3.0
  1
63mm
  7
SEACAD_arial_ttf
 11
136.4057987403
 21
122.4696246382
 31
0.0
100
AcDbText
 73
     3
  0
TEXT
  5
264
330
245
100
AcDbEntity
  8
DV3_Default
  6
Continuous
 62
     7
 48
25.4
100
AcDbText
 10
47.1563401395
 20
112.1334828038
 30
0.0
 40
3.0
  1
MAX. GRIPPING RANGE
  7
SEACAD_arial_ttf
 11
47.1563401395
 21
115.1334828038
 31
0.0
100
AcDbText
 73
     3
  0
TEXT
  5
265
330
245
100
AcDbEntity
  8
DV3_Default
  6
Continuous
 62
     7
 48
25.4
100
AcDbText
 10
47.151379442
 20
104.7686183568
 30
0.0
 40
3.0
  1
MIN. GRIPPING RANGE
  7
SEACAD_arial_ttf
 11
47.151379442
 21
107.7686183568
 31
0.0
100
AcDbText
 73
     3
  0
TEXT
  5
266
330
245
100
AcDbEntity
  8
DV3_Default
  6
Continuous
 62
     7
 48
25.4
100
AcDbText
 10
47.2895581144
 20
97.5857704696
 30
0.0
 40
3.0
  1
JAW STROKE
  7
SEACAD_arial_ttf
 11
47.2895581144
 21
100.5857704696
 31
0.0
100
AcDbText
 73
     3
  0
TEXT
  5
267
330
245
100
AcDbEntity
  8
DV3_Default
  6
Continuous
 62
     7
 48
25.4
100
AcDbText
 10
47.145970783
 20
90.7171089534
 30
0.0
 40
3.0
  1
PLUNGER STROKE
  7
SEACAD_arial_ttf
 11
47.145970783
 21
93.7171089534
 31
0.0
100
AcDbText
 73
     3
  0
TEXT
  5
268
330
245
100
AcDbEntity
  8
DV3_Default
  6
Continuous
 62
     7
 48
25.4
100
AcDbText
 10
47.1489923864
 20
83.3349753584
 30
0.0
 40
3.0
  1
MAX. DRAW BAR PULL FORCE
  7
SEACAD_arial_ttf
 11
47.1489923864
 21
86.3349753584
 31
0.0
100
AcDbText
 73
     3
  0
TEXT
  5
269
330
245
100
AcDbEntity
  8
DV3_Default
  6
Continuous
 62
     7
 48
25.4
100
AcDbText
 10
47.1643224403
 20
76.1260282944
 30
0.0
 40
3.0
  1
MAX. GRIPPING FORCE
  7
SEACAD_arial_ttf
 11
47.1643224403
 21
79.1260282944
 31
0.0
100
AcDbText
 73
     3
  0
TEXT
  5
26A
330
245
100
AcDbEntity
  8
DV3_Default
  6
Continuous
 62
     7
 48
25.4
100
AcDbText
 10
47.1563401395
 20
69.0649592608
 30
0.0
 40
3.0
  1
MAX. SPEED
  7
SEACAD_arial_ttf
 11
47.1563401395
 21
72.0649592608
 31
0.0
100
AcDbText
 73
     3
  0
TEXT
  5
26B
330
245
100
AcDbEntity
  8
DV3_Default
  6
Continuous
 62
     7
 48
25.4
100
AcDbText
 10
47.1431623598
 20
54.6230611785
 30
0.0
 40
3.0
  1
NET WEIGHT WITH SOFT TOP JAWS
  7
SEACAD_arial_ttf
 11
47.1431623598
 21
57.6230611785
 31
0.0
100
AcDbText
 73
     3
  0
TEXT
  5
26C
330
245
100
AcDbEntity
  8
DV3_Default
  6
Continuous
 62
     7
 48
25.4
100
AcDbText
 10
47.1969216421
 20
47.3760846525
 30
0.0
 40
3.0
  1
MOMENT OF INERTIA
  7
SEACAD_arial_ttf
 11
47.1969216421
 21
50.3760846525
 31
0.0
100
AcDbText
 73
     3
  0
TEXT
  5
26D
330
245
100
AcDbEntity
  8
DV3_Default
  6
Continuous
 62
     7
 48
25.4
100
AcDbText
 10
47.1684138086
 20
40.3560666843
 30
0.0
 40
3.0
  1
MATCHING CYLINDER
  7
SEACAD_arial_ttf
 11
47.1684138086
 21
43.3560666843
 31
0.0
100
AcDbText
 73
     3
  0
TEXT
  5
26E
330
245
100
AcDbEntity
  8
DV3_Default
  6
Continuous
 62
     7
 48
25.4
100
AcDbText
 10
47.2182949028
 20
32.8873270794
 30
0.0
 40
3.0
  1
MAX. PRESSURE
  7
SEACAD_arial_ttf
 11
47.2182949028
 21
35.8873270794
 31
0.0
100
AcDbText
 73
     3
  0
TEXT
  5
26F
330
245
100
AcDbEntity
  8
DV3_Default
  6
Continuous
 62
     7
 48
25.4
100
AcDbText
 10
47.1917261633
 20
25.8722698086
 30
0.0
 40
3.0
  1
MATCHING HARD TOP JAW
  7
SEACAD_arial_ttf
 11
47.1917261633
 21
28.8722698086
 31
0.0
100
AcDbText
 73
     3
  0
TEXT
  5
270
330
245
100
AcDbEntity
  8
DV3_Default
  6
Continuous
 62
     7
 48
25.4
100
AcDbText
 10
47.2435463516
 20
18.7151429328
 30
0.0
 40
3.0
  1
MATCHING SOFT TOP JAW
  7
SEACAD_arial_ttf
 11
47.2435463516
 21
21.7151429328
 31
0.0
100
AcDbText
 73
     3
  0
LINE
  5
271
330
245
100
AcDbEntity
  8
DV3_Default
  6
Continuous
 62
     7
 48
25.4
100
AcDbLine
 10
44.8634870052
 20
16.4443872938
 30
0.0
 11
188.8634870052
 21
16.4443872938
 31
0.0
  0
LINE
  5
272
330
245
100
AcDbEntity
  8
DV3_Default
  6
Continuous
 62
     7
 48
25.4
100
AcDbLine
 10
134.7537839053
 20
131.6443872938
 30
0.0
 11
134.7537839053
 21
16.4443872938
 31
0.0
  0
LINE
  5
273
330
245
100
AcDbEntity
  8
DV3_Default
  6
Continuous
 62
     7
 48
25.4
100
AcDbLine
 10
44.8634870052
 20
131.6443872938
 30
0.0
 11
44.8634870052
 21
16.4443872938
 31
0.0
  0
LINE
  5
274
330
245
100
AcDbEntity
  8
DV3_Default
  6
Continuous
 62
     7
 48
25.4
100
AcDbLine
 10
188.8634870052
 20
131.6443872938
 30
0.0
 11
188.8634870052
 21
16.4443872938
 31
0.0
  0
TEXT
  5
275
330
245
100
AcDbEntity
  8
DV3_Default
  6
Continuous
 62
     7
 48
25.4
100
AcDbText
 10
136.4164434883
 20
111.9740114351
 30
0.0
 40
3.0
  1
304mm
  7
SEACAD_arial_ttf
 11
136.4164434883
 21
114.9740114351
 31
0.0
100
AcDbText
 73
     3
  0
TEXT
  5
276
330
245
100
AcDbEntity
  8
DV3_Default
  6
Continuous
 62
     7
 48
25.4
100
AcDbText
 10
136.5366297457
 20
104.8844359848
 30
0.0
 40
3.0
  1
43mm
  7
SEACAD_arial_ttf
 11
136.5366297457
 21
107.8844359848
 31
0.0
100
AcDbText
 73
     3
  0
TEXT
  5
277
330
245
100
AcDbEntity
  8
DV3_Default
  6
Continuous
 62
     7
 48
25.4
100
AcDbText
 10
136.4080975036
 20
97.6832626863
 30
0.0
 40
3.0
  1
35mm
  7
SEACAD_arial_ttf
 11
136.4080975036
 21
100.6832626863
 31
0.0
100
AcDbText
 73
     3
  0
TEXT
  5
278
330
245
100
AcDbEntity
  8
DV3_Default
  6
Continuous
 62
     7
 48
25.4
100
AcDbText
 10
136.4816241253
 20
90.478864359
 30
0.0
 40
3.0
  1
25mm
  7
SEACAD_arial_ttf
 11
136.4816241253
 21
93.478864359
 31
0.0
100
AcDbText
 73
     3
  0
TEXT
  5
279
330
245
100
AcDbEntity
  8
DV3_Default
  6
Continuous
 62
     7
 48
25.4
100
AcDbText
 10
136.4514134668
 20
83.3710881236
 30
0.0
 40
3.0
  1
69.3kN
  7
SEACAD_arial_ttf
 11
136.4514134668
 21
86.3710881236
 31
0.0
100
AcDbText
 73
     3
  0
TEXT
  5
27A
330
245
100
AcDbEntity
  8
DV3_Default
  6
Continuous
 62
     7
 48
25.4
100
AcDbText
 10
136.4378512693
 20
75.9301446467
 30
0.0
 40
3.0
  1
80.4kN
  7
SEACAD_arial_ttf
 11
136.4378512693
 21
78.9301446467
 31
0.0
100
AcDbText
 73
     3
  0
TEXT
  5
27B
330
245
100
AcDbEntity
  8
DV3_Default
  6
Continuous
 62
     7
 48
25.4
100
AcDbText
 10
136.4269097478
 20
68.8192359834
 30
0.0
 40
3.0
  1
2200min-
  7
SEACAD_arial_ttf
 11
136.4269097478
 21
71.8192359834
 31
0.0
100
AcDbText
 73
     3
  0
TEXT
  5
27C
330
245
100
AcDbEntity
  8
DV3_Default
  6
Continuous
 62
     7
 48
25.4
100
AcDbText
 10
154.0356054
 20
68.8192359834
 30
0.0
 40
2.7516666667
  1
¹
  7
SEACAD_arial_ttf
 11
154.0356054
 21
71.5709026501
 31
0.0
100
AcDbText
 73
     3
  0
TEXT
  5
27D
330
245
100
AcDbEntity
  8
DV3_Default
  6
Continuous
 62
     7
 48
25.4
100
AcDbText
 10
136.5162165819
 20
61.8367704567
 30
0.0
 40
3.0
  1
26.8kN
  7
SEACAD_arial_ttf
 11
136.5162165819
 21
64.8367704567
 31
0.0
100
AcDbText
 73
     3
  0
TEXT
  5
27E
330
245
100
AcDbEntity
  8
DV3_Default
  6
Continuous
 62
     7
 48
25.4
100
AcDbText
 10
136.4149812681
 20
54.6032116858
 30
0.0
 40
3.0
  1
81.2kg
  7
SEACAD_arial_ttf
 11
136.4149812681
 21
57.6032116858
 31
0.0
100
AcDbText
 73
     3
  0
TEXT
  5
27F
330
245
100
AcDbEntity
  8
DV3_Default
  6
Continuous
 62
     7
 48
25.4
100
AcDbText
 10
136.3965991203
 20
47.3702738587
 30
0.0
 40
3.0
  1
0.943kg.m
  7
SEACAD_arial_ttf
 11
136.3965991203
 21
50.3702738587
 31
0.0
100
AcDbText
 73
     3
  0
TEXT
  5
280
330
245
100
AcDbEntity
  8
DV3_Default
  6
Continuous
 62
     7
 48
25.4
100
AcDbText
 10
156.2226860768
 20
47.3702738587
 30
0.0
 40
2.7516666667
  1
²
  7
SEACAD_arial_ttf
 11
156.2226860768
 21
50.1219405254
 31
0.0
100
AcDbText
 73
     3
  0
TEXT
  5
281
330
245
100
AcDbEntity
  8
DV3_Default
  6
Continuous
 62
     7
 48
25.4
100
AcDbText
 10
136.4335339078
 20
40.1167320631
 30
0.0
 40
3.0
  1
S2091
  7
SEACAD_arial_ttf
 11
136.4335339078
 21
43.1167320631
 31
0.0
100
AcDbText
 73
     3
  0
TEXT
  5
282
330
245
100
AcDbEntity
  8
DV3_Default
  6
Continuous
 62
     7
 48
25.4
100
AcDbText
 10
136.4122720139
 20
32.8477801647
 30
0.0
 40
3.0
  1
3.22MPa
  7
SEACAD_arial_ttf
 11
136.4122720139
 21
35.8477801647
 31
0.0
100
AcDbText
 73
     3
  0
TEXT
  5
283
330
245
100
AcDbEntity
  8
DV3_Default
  6
Continuous
 62
     7
 48
25.4
100
AcDbText
 10
136.2560633365
 20
25.7884530098
 30
0.0
 40
3.0
  1
HB12N1
  7
SEACAD_arial_ttf
 11
136.2560633365
 21
28.7884530098
 31
0.0
100
AcDbText
 73
     3
  0
LINE
  5
284
330
245
100
AcDbEntity
  8
DV3_Default
  6
CENTER2
 62
     7
 48
25.4
100
AcDbLine
 10
207.2611990986
 20
132.202318433
 30
0.0
 11
235.9431600406
 21
132.202318433
 31
0.0
  0
LINE
  5
285
330
245
100
AcDbEntity
  8
DV3_Default
  6
Continuous
 62
     7
 48
25.4
100
AcDbLine
 10
227.6859667643
 20
132.202318433
 30
0.0
 11
227.6859667643
 21
125.902318433
 31
0.0
  0
LINE
  5
286
330
245
100
AcDbEntity
  8
DV3_Default
  6
Continuous
 62
     7
 48
25.4
100
AcDbLine
 10
227.6859667643
 20
125.902318433
 30
0.0
 11
217.9359667643
 21
125.902318433
 31
0.0
  0
LINE
  5
287
330
245
100
AcDbEntity
  8
DV3_Default
  6
Continuous
 62
     7
 48
25.4
100
AcDbLine
 10
217.9359667643
 20
125.902318433
 30
0.0
 11
217.9359667643
 21
123.352318433
 31
0.0
  0
LINE
  5
288
330
245
100
AcDbEntity
  8
DV3_Default
  6
Continuous
 62
     7
 48
25.4
100
AcDbLine
 10
224.5359667643
 20
116.602318433
 30
0.0
 11
213.1359667643
 21
116.602318433
 31
0.0
  0
LINE
  5
289
330
245
100
AcDbEntity
  8
DV3_Default
  6
Continuous
 62
     7
 48
25.4
100
AcDbLine
 10
226.3359667643
 20
118.402318433
 30
0.0
 11
226.3359667643
 21
125.902318433
 31
0.0
  0
LINE
  5
28A
330
245
100
AcDbEntity
  8
DV3_Default
  6
Continuous
 62
     7
 48
25.4
100
AcDbLine
 10
227.6859667643
 20
132.202318433
 30
0.0
 11
227.6859667643
 21
138.502318433
 31
0.0
  0
LINE
  5
28B
330
245
100
AcDbEntity
  8
DV3_Default
  6
Continuous
 62
     7
 48
25.4
100
AcDbLine
 10
227.6859667643
 20
138.502318433
 30
0.0
 11
217.9359667643
 21
138.502318433
 31
0.0
  0
LINE
  5
28C
330
245
100
AcDbEntity
  8
DV3_Default
  6
Continuous
 62
     7
 48
25.4
100
AcDbLine
 10
217.9359667643
 20
138.502318433
 30
0.0
 11
217.9359667643
 21
141.052318433
 31
0.0
  0
LINE
  5
28D
330
245
100
AcDbEntity
  8
DV3_Default
  6
Continuous
 62
     7
 48
25.4
100
AcDbLine
 10
224.5359667643
 20
147.802318433
 30
0.0
 11
213.1359667643
 21
147.802318433
 31
0.0
  0
LINE
  5
28E
330
245
100
AcDbEntity
  8
DV3_Default
  6
Continuous
 62
     7
 48
25.4
100
AcDbLine
 10
226.3359667643
 20
146.002318433
 30
0.0
 11
226.3359667643
 21
138.502318433
 31
0.0
  0
LINE
  5
28F
330
245
100
AcDbEntity
  8
DV3_Default
  6
Continuous
 62
     7
 48
25.4
100
AcDbLine
 10
217.5117026956
 20
141.4765825018
 30
0.0
 11
212.4117026956
 21
141.4765825018
 31
0.0
  0
LINE
  5
290
330
245
100
AcDbEntity
  8
DV3_Default
  6
Continuous
 62
     7
 48
25.4
100
AcDbLine
 10
210.6117026956
 20
139.6765825018
 30
0.0
 11
210.6117026956
 21
124.7280543643
 31
0.0
  0
LINE
  5
291
330
245
100
AcDbEntity
  8
DV3_Default
  6
Continuous
 62
     7
 48
25.4
100
AcDbLine
 10
212.4117026956
 20
122.9280543643
 30
0.0
 11
217.5117026956
 21
122.9280543643
 31
0.0
  0
LINE
  5
292
330
245
100
AcDbEntity
  8
DV3_Default
  6
Continuous
 62
     7
 48
25.4
100
AcDbLine
 10
217.9359667643
 20
141.052318433
 30
0.0
 11
212.8359667643
 21
141.052318433
 31
0.0
  0
LINE
  5
293
330
245
100
AcDbEntity
  8
DV3_Default
  6
Continuous
 62
     7
 48
25.4
100
AcDbLine
 10
211.0359667643
 20
139.252318433
 30
0.0
 11
211.0359667643
 21
125.152318433
 31
0.0
  0
LINE
  5
294
330
245
100
AcDbEntity
  8
DV3_Default
  6
Continuous
 62
     7
 48
25.4
100
AcDbLine
 10
212.8359667643
 20
123.352318433
 30
0.0
 11
217.9359667643
 21
123.352318433
 31
0.0
  0
LINE
  5
295
330
245
100
AcDbEntity
  8
DV3_Default
  6
Continuous
 62
     7
 48
25.4
100
AcDbLine
 10
217.5117026956
 20
122.9280543643
 30
0.0
 11
217.9359667643
 21
123.352318433
 31
0.0
  0
LINE
  5
296
330
245
100
AcDbEntity
  8
DV3_Default
  6
Continuous
 62
     7
 48
25.4
100
AcDbLine
 10
217.5117026956
 20
141.4765825018
 30
0.0
 11
217.9359667643
 21
141.052318433
 31
0.0
  0
LINE
  5
297
330
245
100
AcDbEntity
  8
DV3_Default
  6
Continuous
 62
     7
 48
25.4
100
AcDbLine
 10
212.8359667643
 20
123.352318433
 30
0.0
 11
211.0359667643
 21
125.152318433
 31
0.0
  0
LINE
  5
298
330
245
100
AcDbEntity
  8
DV3_Default
  6
Continuous
 62
     7
 48
25.4
100
AcDbLine
 10
212.4117026956
 20
122.9280543643
 30
0.0
 11
210.6117026956
 21
124.7280543643
 31
0.0
  0
LINE
  5
299
330
245
100
AcDbEntity
  8
DV3_Default
  6
Continuous
 62
     7
 48
25.4
100
AcDbLine
 10
212.8359667643
 20
141.052318433
 30
0.0
 11
211.0359667643
 21
139.252318433
 31
0.0
  0
LINE
  5
29A
330
245
100
AcDbEntity
  8
DV3_Default
  6
Continuous
 62
     7
 48
25.4
100
AcDbLine
 10
212.4117026956
 20
141.4765825018
 30
0.0
 11
210.6117026956
 21
139.6765825018
 31
0.0
  0
LINE
  5
29B
330
245
100
AcDbEntity
  8
DV3_Default
  6
Continuous
 62
     7
 48
25.4
100
AcDbLine
 10
226.3359667643
 20
146.002318433
 30
0.0
 11
224.5359667643
 21
147.802318433
 31
0.0
  0
LINE
  5
29C
330
245
100
AcDbEntity
  8
DV3_Default
  6
Continuous
 62
     7
 48
25.4
100
AcDbLine
 10
224.5359667643
 20
147.802318433
 30
0.0
 11
224.5359667643
 21
158.602318433
 31
0.0
  0
LINE
  5
29D
330
245
100
AcDbEntity
  8
DV3_Default
  6
Continuous
 62
     7
 48
25.4
100
AcDbLine
 10
226.3359667643
 20
118.402318433
 30
0.0
 11
224.5359667643
 21
116.602318433
 31
0.0
  0
LINE
  5
29E
330
245
100
AcDbEntity
  8
DV3_Default
  6
Continuous
 62
     7
 48
25.4
100
AcDbLine
 10
224.5359667643
 20
116.602318433
 30
0.0
 11
224.5359667643
 21
105.802318433
 31
0.0
  0
LINE
  5
29F
330
245
100
AcDbEntity
  8
DV3_Default
  6
Continuous
 62
     7
 48
25.4
100
AcDbLine
 10
414.9835252819
 20
131.5665223056
 30
0.0
 11
294.9835252819
 21
131.5665223056
 31
0.0
  0
LINE
  5
2A0
330
245
100
AcDbEntity
  8
DV3_Default
  6
Continuous
 62
     7
 48
25.4
100
AcDbLine
 10
414.9835252819
 20
131.5665223056
 30
0.0
 11
414.9835252819
 21
39.7665223056
 31
0.0
  0
LINE
  5
2A1
330
245
100
AcDbEntity
  8
DV3_Default
  6
Continuous
 62
     7
 48
25.4
100
AcDbLine
 10
414.9835252819
 20
39.7665223056
 30
0.0
 11
294.9835252819
 21
39.7665223056
 31
0.0
  0
LINE
  5
2A2
330
245
100
AcDbEntity
  8
DV3_Default
  6
Continuous
 62
     7
 48
25.4
100
AcDbLine
 10
294.9835252819
 20
39.7665223056
 30
0.0
 11
294.9835252819
 21
131.5665223056
 31
0.0
  0
TEXT
  5
2A3
330
245
100
AcDbEntity
  8
DV3_Default
  6
Continuous
 62
     7
 48
25.4
100
AcDbText
 10
293.5777900245
 20
34.9488377986
 30
0.0
 40
3.0
  1
0
  7
SEACAD_arial_ttf
 11
293.5777900245
 21
37.9488377986
 31
0.0
100
AcDbText
 73
     3
  0
TEXT
  5
2A4
330
245
100
AcDbEntity
  8
DV3_Default
  6
Continuous
 62
     7
 48
25.4
100
AcDbText
 10
330.5218561971
 20
35.0884555173
 30
0.0
 40
3.0
  1
1000
  7
SEACAD_arial_ttf
 11
330.5218561971
 21
38.0884555173
 31
0.0
100
AcDbText
 73
     3
  0
TEXT
  5
2A5
330
245
100
AcDbEntity
  8
DV3_Default
  6
Continuous
 62
     7
 48
25.4
100
AcDbText
 10
350.7978575258
 20
34.9603703897
 30
0.0
 40
3.0
  1
1500
  7
SEACAD_arial_ttf
 11
350.7978575258
 21
37.9603703897
 31
0.0
100
AcDbText
 73
     3
  0
TEXT
  5
2A6
330
245
100
AcDbEntity
  8
DV3_Default
  6
Continuous
 62
     7
 48
25.4
100
AcDbText
 10
390.3419654181
 20
34.9866975061
 30
0.0
 40
3.0
  1
2500
  7
SEACAD_arial_ttf
 11
390.3419654181
 21
37.9866975061
 31
0.0
100
AcDbText
 73
     3
  0
TEXT
  5
2A7
330
245
100
AcDbEntity
  8
DV3_Default
  6
Continuous
 62
     7
 48
25.4
100
AcDbText
 10
288.7847055401
 20
58.9140426843
 30
0.0
 40
3.0
  1
20
  7
SEACAD_arial_ttf
 11
288.7847055401
 21
61.9140426843
 31
0.0
100
AcDbText
 73
     3
  0
TEXT
  5
2A8
330
245
100
AcDbEntity
  8
DV3_Default
  6
Continuous
 62
     7
 48
25.4
100
AcDbText
 10
288.7243030648
 20
48.8495310011
 30
0.0
 40
3.0
  1
10
  7
SEACAD_arial_ttf
 11
288.7243030648
 21
51.8495310011
 31
0.0
100
AcDbText
 73
     3
  0
TEXT
  5
2A9
330
245
100
AcDbEntity
  8
DV3_Default
  6
Continuous
 62
     7
 48
25.4
100
AcDbText
 10
288.8554016563
 20
69.039731109
 30
0.0
 40
3.0
  1
30
  7
SEACAD_arial_ttf
 11
288.8554016563
 21
72.039731109
 31
0.0
100
AcDbText
 73
     3
  0
TEXT
  5
2AA
330
245
100
AcDbEntity
  8
DV3_Default
  6
Continuous
 62
     7
 48
25.4
100
AcDbText
 10
288.8135608541
 20
89.2796284981
 30
0.0
 40
3.0
  1
50
  7
SEACAD_arial_ttf
 11
288.8135608541
 21
92.2796284981
 31
0.0
100
AcDbText
 73
     3
  0
TEXT
  5
2AB
330
245
100
AcDbEntity
  8
DV3_Default
  6
Continuous
 62
     7
 48
25.4
100
AcDbText
 10
288.8182373509
 20
79.2773652827
 30
0.0
 40
3.0
  1
40
  7
SEACAD_arial_ttf
 11
288.8182373509
 21
82.2773652827
 31
0.0
100
AcDbText
 73
     3
  0
TEXT
  5
2AC
330
245
100
AcDbEntity
  8
DV3_Default
  6
Continuous
 62
     7
 48
25.4
100
AcDbText
 10
288.7897569773
 20
99.5862182668
 30
0.0
 40
3.0
  1
60
  7
SEACAD_arial_ttf
 11
288.7897569773
 21
102.5862182668
 31
0.0
100
AcDbText
 73
     3
  0
TEXT
  5
2AD
330
245
100
AcDbEntity
  8
DV3_Default
  6
Continuous
 62
     7
 48
25.4
100
AcDbText
 10
336.2042581413
 20
122.5609237018
 30
0.0
 40
3.6
  1
Input Force
  7
SEACAD_arial_ttf
 11
336.2042581413
 21
126.1609237018
 31
0.0
100
AcDbText
 73
     3
  0
TEXT
  5
2AE
330
245
100
AcDbEntity
  8
DV3_Default
  6
Continuous
 62
     7
 48
25.4
100
AcDbText
 10
335.8827072018
 20
111.6580149809
 30
0.0
 40
3.0
  1
69.3kN
  7
SEACAD_arial_ttf
 11
335.8827072018
 21
114.6580149809
 31
0.0
100
AcDbText
 73
     3
  0
TEXT
  5
2AF
330
245
100
AcDbEntity
  8
DV3_Default
  6
Continuous
 62
     7
 48
25.4
100
AcDbText
 10
335.9786100946
 20
99.5582787266
 30
0.0
 40
3.0
  1
60kN
  7
SEACAD_arial_ttf
 11
335.9786100946
 21
102.5582787266
 31
0.0
100
AcDbText
 73
     3
  0
TEXT
  5
2B0
330
245
100
AcDbEntity
  8
DV3_Default
  6
Continuous
 62
     7
 48
25.4
100
AcDbText
 10
335.9075869379
 20
82.0631016858
 30
0.0
 40
3.0
  1
45kN
  7
SEACAD_arial_ttf
 11
335.9075869379
 21
85.0631016858
 31
0.0
100
AcDbText
 73
     3
  0
TEXT
  5
2B1
330
245
100
AcDbEntity
  8
DV3_Default
  6
Continuous
 62
     7
 48
25.4
100
AcDbText
 10
335.8733449623
 20
71.016267106
 30
0.0
 40
3.0
  1
35kN
  7
SEACAD_arial_ttf
 11
335.8733449623
 21
74.016267106
 31
0.0
100
AcDbText
 73
     3
  0
TEXT
  5
2B2
330
245
100
AcDbEntity
  8
DV3_Default
  6
Continuous
 62
     7
 48
25.4
100
AcDbText
 10
335.7181272785
 20
51.6420482329
 30
0.0
 40
3.0
  1
20kN
  7
SEACAD_arial_ttf
 11
335.7181272785
 21
54.6420482329
 31
0.0
100
AcDbText
 73
     3
  0
LWPOLYLINE
  5
2B3
330
245
100
AcDbEntity
  8
DV3_Default
  6
Continuous
 62
     7
 48
25.4
100
AcDbPolyline
 90
        2
 70
     0
 43
0.0
 10
418.4918304378
 20
43.6409695489
 10
366.6613354444
 20
58.6241655636
  0
HATCH
  5
2B4
330
245
100
AcDbEntity
  8
DV3_Default
  6
Continuous
 62
     7
 48
25.4
100
AcDbHatch
 10
0.0
 20
0.0
 30
0.0
210
0.0
220
0.0
230
1.0
  2
SOLID
 70
     1
 71
     0
 91
        1
 92
        1
 93
        3
 72
     1
 10
370.2863554353247
 20
58.20080957024059
 11
366.6613354444203
 21
58.62416556359294
 72
     1
 10
366.6613354444204
 20
58.62416556359294
 11
369.9531037622967
 21
57.04801151877712
 72
     1
 10
369.9531037622967
 20
57.04801151877713
 11
370.2863554353247
 21
58.2008095702406
 97
        0
 75
     0
 76
     1
 98
        0
  0
LWPOLYLINE
  5
2B5
330
245
100
AcDbEntity
  8
DV3_Default
  6
Continuous
 62
     7
 48
25.4
370
    20
100
AcDbPolyline
 90
        4
 70
     1
 43
0.0
 10
370.2863554353
 20
58.2008095702
 10
366.6613354444
 20
58.6241655636
 10
369.9531037623
 20
57.0480115188
 10
370.2863554353
 20
58.2008095702
  0
LINE
  5
2B6
330
245
100
AcDbEntity
  8
DV3_Default
  6
Continuous
 62
     7
 48
25.4
100
AcDbLine
 10
418.4918304378
 20
43.6409695489
 30
0.0
 11
463.8831347857
 21
43.6409695489
 31
0.0
  0
TEXT
  5
2B7
330
245
100
AcDbEntity
  8
DV3_Default
  6
Continuous
 62
     7
 48
25.4
100
AcDbText
 10
418.4918304378
 20
44.5409695489
 30
0.0
 40
3.6
  1
Gripping Force Limit
  7
SEACAD_arial_ttf
 11
418.4918304378
 21
48.1409695489
 31
0.0
100
AcDbText
 73
     3
  0
LINE
  5
2B8
330
245
100
AcDbEntity
  8
DV3_Default
  6
Continuous
 62
     7
 48
25.4
100
AcDbLine
 10
314.9635252819
 20
39.7665223056
 30
0.0
 11
314.9635252819
 21
131.5665223056
 31
0.0
  0
LINE
  5
2B9
330
245
100
AcDbEntity
  8
DV3_Default
  6
Continuous
 62
     7
 48
25.4
100
AcDbLine
 10
334.9435252819
 20
131.5665223056
 30
0.0
 11
334.9435252819
 21
39.7665223056
 31
0.0
  0
LINE
  5
2BA
330
245
100
AcDbEntity
  8
DV3_Default
  6
Continuous
 62
     7
 48
25.4
100
AcDbLine
 10
354.9235252819
 20
39.7665223056
 30
0.0
 11
354.9235252819
 21
131.5665223056
 31
0.0
  0
LINE
  5
2BB
330
245
100
AcDbEntity
  8
DV3_Default
  6
Continuous
 62
     7
 48
25.4
100
AcDbLine
 10
374.9635252819
 20
131.5665223056
 30
0.0
 11
374.9635252819
 21
39.7665223056
 31
0.0
  0
LINE
  5
2BC
330
245
100
AcDbEntity
  8
DV3_Default
  6
Continuous
 62
     7
 48
25.4
100
AcDbLine
 10
394.9435252819
 20
39.7665223056
 30
0.0
 11
394.9435252819
 21
131.5665223056
 31
0.0
  0
TEXT
  5
2BD
330
245
100
AcDbEntity
  8
DV3_Default
  6
Continuous
 62
     7
 48
25.4
100
AcDbText
 10
311.4827336298
 20
35.083463735
 30
0.0
 40
3.0
  1
500
  7
SEACAD_arial_ttf
 11
311.4827336298
 21
38.083463735
 31
0.0
100
AcDbText
 73
     3
  0
TEXT
  5
2BE
330
245
100
AcDbEntity
  8
DV3_Default
  6
Continuous
 62
     7
 48
25.4
100
AcDbText
 10
370.5446861783
 20
35.0522008061
 30
0.0
 40
3.0
  1
2000
  7
SEACAD_arial_ttf
 11
370.5446861783
 21
38.0522008061
 31
0.0
100
AcDbText
 73
     3
  0
TEXT
  5
2BF
330
245
100
AcDbEntity
  8
DV3_Default
  6
Continuous
 62
     7
 48
25.4
100
AcDbText
 10
410.2055833987
 20
34.9866975061
 30
0.0
 40
3.0
  1
3000
  7
SEACAD_arial_ttf
 11
410.2055833987
 21
37.9866975061
 31
0.0
100
AcDbText
 73
     3
  0
TEXT
  5
2C0
330
245
100
AcDbEntity
  8
DV3_Default
  6
Continuous
 62
     7
 48
25.4
100
AcDbText
 10
288.8559477555
 20
109.8640064276
 30
0.0
 40
3.0
  1
70
  7
SEACAD_arial_ttf
 11
288.8559477555
 21
112.8640064276
 31
0.0
100
AcDbText
 73
     3
  0
LINE
  5
2C1
330
245
100
AcDbEntity
  8
DV3_Default
  6
Continuous
 62
     7
 48
25.4
100
AcDbLine
 10
294.9835252819
 20
49.9665223056
 30
0.0
 11
414.9835252819
 21
49.9665223056
 31
0.0
  0
LINE
  5
2C2
330
245
100
AcDbEntity
  8
DV3_Default
  6
Continuous
 62
     7
 48
25.4
100
AcDbLine
 10
414.9835252819
 20
60.1665223056
 30
0.0
 11
294.9835252819
 21
60.1665223056
 31
0.0
  0
LINE
  5
2C3
330
245
100
AcDbEntity
  8
DV3_Default
  6
Continuous
 62
     7
 48
25.4
100
AcDbLine
 10
294.9835252819
 20
70.3665223056
 30
0.0
 11
414.9835252819
 21
70.3665223056
 31
0.0
  0
LINE
  5
2C4
330
245
100
AcDbEntity
  8
DV3_Default
  6
Continuous
 62
     7
 48
25.4
100
AcDbLine
 10
414.9835252819
 20
80.5665223056
 30
0.0
 11
294.9835252819
 21
80.5665223056
 31
0.0
  0
LINE
  5
2C5
330
245
100
AcDbEntity
  8
DV3_Default
  6
Continuous
 62
     7
 48
25.4
100
AcDbLine
 10
294.9835252819
 20
90.7665223056
 30
0.0
 11
414.9835252819
 21
90.7665223056
 31
0.0
  0
LINE
  5
2C6
330
245
100
AcDbEntity
  8
DV3_Default
  6
Continuous
 62
     7
 48
25.4
100
AcDbLine
 10
414.9835252819
 20
100.9665223056
 30
0.0
 11
294.9835252819
 21
100.9665223056
 31
0.0
  0
LINE
  5
2C7
330
245
100
AcDbEntity
  8
DV3_Default
  6
Continuous
 62
     7
 48
25.4
100
AcDbLine
 10
294.9835252819
 20
111.1665223056
 30
0.0
 11
414.9835252819
 21
111.1665223056
 31
0.0
  0
LINE
  5
2C8
330
245
100
AcDbEntity
  8
DV3_Default
  6
Continuous
 62
     7
 48
25.4
100
AcDbLine
 10
414.9835252819
 20
121.3665223056
 30
0.0
 11
294.9835252819
 21
121.3665223056
 31
0.0
  0
TEXT
  5
2C9
330
245
100
AcDbEntity
  8
DV3_Default
  6
Continuous
 62
     7
 48
25.4
100
AcDbText
 10
288.7897569773
 20
119.8588139366
 30
0.0
 40
3.0
  1
80
  7
SEACAD_arial_ttf
 11
288.7897569773
 21
122.8588139366
 31
0.0
100
AcDbText
 73
     3
  0
TEXT
  5
2CA
330
245
100
AcDbEntity
  8
DV3_Default
  6
Continuous
 62
     7
 48
25.4
100
AcDbText
 10
288.8559477555
 20
129.9860030021
 30
0.0
 40
3.0
  1
90
  7
SEACAD_arial_ttf
 11
288.8559477555
 21
132.9860030021
 31
0.0
100
AcDbText
 73
     3
  0
ARC
  5
2CB
330
245
100
AcDbEntity
  8
DV3_Default
  6
Continuous
 62
     7
 48
25.4
100
AcDbCircle
 10
300.2490022678
 20
2.8323746032
 30
0.0
 40
59.74879691336762
100
AcDbArc
 50
47.0651968173
 51
95.0558588586
  0
ARC
  5
2CC
330
245
100
AcDbEntity
  8
DV3_Default
  6
Continuous
 62
     7
 48
25.4
100
AcDbCircle
 10
237.4731372903
 20
300.8822154519
 30
0.0
 40
274.5515494001107
100
AcDbArc
 50
292.1409410706
 51
301.437658246
  0
ARC
  5
2CD
330
245
100
AcDbEntity
  8
DV3_Default
  6
Continuous
 62
     7
 48
25.4
100
AcDbCircle
 10
289.3508994629
 20
18.1082567007
 30
0.0
 40
103.4117782912501
100
AcDbArc
 50
27.9845917371
 51
86.8776721523
  0
ARC
  5
2CE
330
245
100
AcDbEntity
  8
DV3_Default
  6
Continuous
 62
     7
 48
25.4
100
AcDbCircle
 10
289.5118064472
 20
4.677808745
 30
0.0
 40
105.6136920990303
100
AcDbArc
 50
34.3429647457
 51
87.0302447613
  0
ARC
  5
2CF
330
245
100
AcDbEntity
  8
DV3_Default
  6
Continuous
 62
     7
 48
25.4
100
AcDbCircle
 10
292.4181439328
 20
-2.1564895023
 30
0.0
 40
94.63538279651868
100
AcDbArc
 50
39.4663006278
 51
88.4466324568
  0
ARC
  5
2D0
330
245
100
AcDbEntity
  8
DV3_Default
  6
Continuous
 62
     7
 48
25.4
100
AcDbCircle
 10
294.9835252819
 20
-5.3354555786
 30
0.0
 40
85.90197788425093
100
AcDbArc
 50
43.5388074129
 51
90.0
  0
ENDBLK
  5
2D2
330
245
100
AcDbEntity
  8
0
100
AcDbBlockEnd
  0
BLOCK
  5
2DE
330
2D3
100
AcDbEntity
  8
0
100
AcDbBlockBegin
  2
GDimGGroup
 70
     0
 71
     0
 10
0.0
 20
0.0
 30
0.0
  3
GDimGGroup
  1

  0
HATCH
  5
2D5
330
2D3
100
AcDbEntity
  8
Default
  6
Continuous
 62
     7
 48
25.4
100
AcDbHatch
 10
0.0
 20
0.0
 30
0.0
210
0.0
220
0.0
230
1.0
  2
SOLID
 70
     1
 71
     0
 91
        1
 92
        1
 93
        3
 72
     1
 10
246.77257461971
 20
129.90231862303
 11
245.4392412230467
 21
129.90231862303
 72
     1
 10
245.4392412230467
 20
129.90231862303
 11
246.1059079213784
 21
125.9023184330402
 72
     1
 10
246.1059079213784
 20
125.9023184330402
 11
246.77257461971
 21
129.90231862303
 97
        0
 75
     0
 76
     1
 98
        0
  0
LWPOLYLINE
  5
2D6
330
2D3
100
AcDbEntity
  8
Default
  6
Continuous
 62
     7
 48
25.4
370
    20
100
AcDbPolyline
 90
        4
 70
     1
 43
0.0
 10
246.7725746197
 20
129.902318623
 10
246.1059079214
 20
125.902318433
 10
245.439241223
 20
129.902318623
 10
246.7725746197
 20
129.902318623
  0
HATCH
  5
2D7
330
2D3
100
AcDbEntity
  8
Default
  6
Continuous
 62
     7
 48
25.4
100
AcDbHatch
 10
0.0
 20
0.0
 30
0.0
210
0.0
220
0.0
230
1.0
  2
SOLID
 70
     1
 71
     0
 91
        1
 92
        1
 93
        3
 72
     1
 10
246.77257461971
 20
134.5023182594417
 11
246.1059079213784
 21
138.5023184494315
 72
     1
 10
246.1059079213784
 20
138.5023184494315
 11
245.4392412230467
 21
134.5023182594417
 72
     1
 10
245.4392412230467
 20
134.5023182594417
 11
246.77257461971
 21
134.5023182594417
 97
        0
 75
     0
 76
     1
 98
        0
  0
LWPOLYLINE
  5
2D8
330
2D3
100
AcDbEntity
  8
Default
  6
Continuous
 62
     7
 48
25.4
370
    20
100
AcDbPolyline
 90
        4
 70
     1
 43
0.0
 10
246.7725746197
 20
134.5023182594
 10
246.1059079214
 20
138.5023184494
 10
245.439241223
 20
134.5023182594
 10
246.7725746197
 20
134.5023182594
  0
LINE
  5
2D9
330
2D3
100
AcDbEntity
  8
Default
  6
Continuous
 62
     7
 48
25.4
100
AcDbLine
 10
227.6859669654
 20
125.902318433
 30
0.0
 11
248.1059080164
 21
125.902318433
 31
0.0
  0
LINE
  5
2DA
330
2D3
100
AcDbEntity
  8
Default
  6
Continuous
 62
     7
 48
25.4
100
AcDbLine
 10
227.6859669654
 20
138.502318433
 30
0.0
 11
248.1059080164
 21
138.502318433
 31
0.0
  0
LINE
  5
2DB
330
2D3
100
AcDbEntity
  8
Default
  6
Continuous
 62
     7
 48
25.4
100
AcDbLine
 10
246.1059079214
 20
89.4325161726
 30
0.0
 11
246.1059079214
 21
138.5023184494
 31
0.0
  0
TEXT
  5
2DC
330
2D3
100
AcDbEntity
  8
Default
  6
Continuous
 62
     7
 48
25.4
100
AcDbText
 10
245.1059079214
 20
90.8325153117
 30
0.0
 40
4.0
  1
21
 50
90.0
  7
SEACAD_arial_ttf
 11
241.1059079214
 21
90.8325153117
 31
0.0
100
AcDbText
 73
     3
  0
TEXT
  5
2DD
330
2D3
100
AcDbEntity
  8
Default
  6
Continuous
 62
     7
 48
25.4
100
AcDbText
 10
245.1059079214
 20
99.4933848769
 30
0.0
 40
4.0
  1
H8/h8
 50
90.0
  7
SEACAD_arial_ttf
 11
241.1059079214
 21
99.4933848769
 31
0.0
100
AcDbText
 73
     3
  0
ENDBLK
  5
2DF
330
2D3
100
AcDbEntity
  8
0
100
AcDbBlockEnd
  0
BLOCK
  5
2EA
330
2E0
100
AcDbEntity
  8
0
100
AcDbBlockBegin
  2
GDimGGroup1
 70
     0
 71
     0
 10
0.0
 20
0.0
 30
0.0
  3
GDimGGroup1
  1

  0
HATCH
  5
2E2
330
2E0
100
AcDbEntity
  8
Default
  6
Continuous
 62
     7
 48
25.4
100
AcDbHatch
 10
0.0
 20
0.0
 30
0.0
210
0.0
220
0.0
230
1.0
  2
SOLID
 70
     1
 71
     0
 91
        1
 92
        1
 93
        3
 72
     1
 10
261.8269078714247
 20
120.60231862303
 11
260.4935744747614
 21
120.60231862303
 72
     1
 10
260.4935744747614
 20
120.60231862303
 11
261.1602411730931
 21
116.6023184330402
 72
     1
 10
261.160241173093
 20
116.6023184330402
 11
261.8269078714247
 21
120.60231862303
 97
        0
 75
     0
 76
     1
 98
        0
  0
LWPOLYLINE
  5
2E3
330
2E0
100
AcDbEntity
  8
Default
  6
Continuous
 62
     7
 48
25.4
370
    20
100
AcDbPolyline
 90
        4
 70
     1
 43
0.0
 10
261.8269078714
 20
120.602318623
 10
261.1602411731
 20
116.602318433
 10
260.4935744748
 20
120.602318623
 10
261.8269078714
 20
120.602318623
  0
HATCH
  5
2E4
330
2E0
100
AcDbEntity
  8
Default
  6
Continuous
 62
     7
 48
25.4
100
AcDbHatch
 10
0.0
 20
0.0
 30
0.0
210
0.0
220
0.0
230
1.0
  2
SOLID
 70
     1
 71
     0
 91
        1
 92
        1
 93
        3
 72
     1
 10
261.8269078714247
 20
143.8023173966645
 11
261.160241173093
 21
147.8023175866543
 72
     1
 10
261.160241173093
 20
147.8023175866543
 11
260.4935744747614
 21
143.8023173966645
 72
     1
 10
260.4935744747614
 20
143.8023173966645
 11
261.8269078714247
 21
143.8023173966645
 97
        0
 75
     0
 76
     1
 98
        0
  0
LWPOLYLINE
  5
2E5
330
2E0
100
AcDbEntity
  8
Default
  6
Continuous
 62
     7
 48
25.4
370
    20
100
AcDbPolyline
 90
        4
 70
     1
 43
0.0
 10
261.8269078714
 20
143.8023173967
 10
261.1602411731
 20
147.8023175867
 10
260.4935744748
 20
143.8023173967
 10
261.8269078714
 20
143.8023173967
  0
LINE
  5
2E6
330
2E0
100
AcDbEntity
  8
Default
  6
Continuous
 62
     7
 48
25.4
100
AcDbLine
 10
224.5359669565
 20
116.602318433
 30
0.0
 11
263.1602412681
 21
116.602318433
 31
0.0
  0
LINE
  5
2E7
330
2E0
100
AcDbEntity
  8
Default
  6
Continuous
 62
     7
 48
25.4
100
AcDbLine
 10
224.5359669565
 20
147.802318433
 30
0.0
 11
263.1602412681
 21
147.802318433
 31
0.0
  0
LINE
  5
2E8
330
2E0
100
AcDbEntity
  8
Default
  6
Continuous
 62
     7
 48
25.4
100
AcDbLine
 10
261.1602411731
 20
116.602318433
 30
0.0
 11
261.1602411731
 21
147.8023175867
 31
0.0
  0
TEXT
  5
2E9
330
2E0
100
AcDbEntity
  8
Default
  6
Continuous
 62
     7
 48
25.4
100
AcDbText
 10
260.1602411731
 20
129.0718832272
 30
0.0
 40
4.0
  1
52
 50
90.0
  7
SEACAD_arial_ttf
 11
256.1602411731
 21
129.0718832272
 31
0.0
100
AcDbText
 73
     3
  0
ENDBLK
  5
2EB
330
2E0
100
AcDbEntity
  8
0
100
AcDbBlockEnd
  0
BLOCK
  5
2F6
330
2EC
100
AcDbEntity
  8
0
100
AcDbBlockBegin
  2
GDimGGroup2
 70
     0
 71
     0
 10
0.0
 20
0.0
 30
0.0
  3
GDimGGroup2
  1

  0
HATCH
  5
2EE
330
2EC
100
AcDbEntity
  8
Default
  6
Continuous
 62
     7
 48
25.4
100
AcDbHatch
 10
0.0
 20
0.0
 30
0.0
210
0.0
220
0.0
230
1.0
  2
SOLID
 70
     1
 71
     0
 91
        1
 92
        1
 93
        3
 72
     1
 10
316.0518104260517
 20
314.1791833434887
 11
314.7184770293884
 21
314.1791833434887
 72
     1
 10
314.7184770293884
 20
314.1791833434887
 11
315.3851437277201
 21
310.1791831534989
 72
     1
 10
315.3851437277201
 20
310.1791831534989
 11
316.0518104260517
 21
314.1791833434887
 97
        0
 75
     0
 76
     1
 98
        0
  0
LWPOLYLINE
  5
2EF
330
2EC
100
AcDbEntity
  8
Default
  6
Continuous
 62
     7
 48
25.4
370
    20
100
AcDbPolyline
 90
        4
 70
     1
 43
0.0
 10
316.0518104261
 20
314.1791833435
 10
315.3851437277
 20
310.1791831535
 10
314.7184770294
 20
314.1791833435
 10
316.0518104261
 20
314.1791833435
  0
HATCH
  5
2F0
330
2EC
100
AcDbEntity
  8
Default
  6
Continuous
 62
     7
 48
25.4
100
AcDbHatch
 10
0.0
 20
0.0
 30
0.0
210
0.0
220
0.0
230
1.0
  2
SOLID
 70
     1
 71
     0
 91
        1
 92
        1
 93
        3
 72
     1
 10
316.0518104260517
 20
372.7791853119321
 11
315.3851437277201
 21
376.7791855019219
 72
     1
 10
315.3851437277201
 20
376.7791855019219
 11
314.7184770293884
 21
372.7791853119321
 72
     1
 10
314.7184770293884
 20
372.7791853119321
 11
316.0518104260517
 21
372.7791853119321
 97
        0
 75
     0
 76
     1
 98
        0
  0
LWPOLYLINE
  5
2F1
330
2EC
100
AcDbEntity
  8
Default
  6
Continuous
 62
     7
 48
25.4
370
    20
100
AcDbPolyline
 90
        4
 70
     1
 43
0.0
 10
316.0518104261
 20
372.7791853119
 10
315.3851437277
 20
376.7791855019
 10
314.7184770294
 20
372.7791853119
 10
316.0518104261
 20
372.7791853119
  0
LINE
  5
2F2
330
2EC
100
AcDbEntity
  8
Default
  6
Continuous
 62
     7
 48
25.4
100
AcDbLine
 10
255.5215279467
 20
310.1791831535
 30
0.0
 11
317.3851438227
 21
310.1791831535
 31
0.0
  0
LINE
  5
2F3
330
2EC
100
AcDbEntity
  8
Default
  6
Continuous
 62
     7
 48
25.4
100
AcDbLine
 10
255.5215279467
 20
376.7791831535
 30
0.0
 11
317.3851438227
 21
376.7791831535
 31
0.0
  0
LINE
  5
2F4
330
2EC
100
AcDbEntity
  8
Default
  6
Continuous
 62
     7
 48
25.4
100
AcDbLine
 10
315.3851437277
 20
310.1791831535
 30
0.0
 11
315.3851437277
 21
376.7791855019
 31
0.0
  0
TEXT
  5
2F5
330
2EC
100
AcDbEntity
  8
Default
  6
Continuous
 62
     7
 48
25.4
100
AcDbText
 10
314.3851437277
 20
338.7835321538
 30
0.0
 40
4.0
  1
111
 50
90.0
  7
SEACAD_arial_ttf
 11
310.3851437277
 21
338.7835321538
 31
0.0
100
AcDbText
 73
     3
  0
ENDBLK
  5
2F7
330
2EC
100
AcDbEntity
  8
0
100
AcDbBlockEnd
  0
BLOCK
  5
302
330
2F8
100
AcDbEntity
  8
0
100
AcDbBlockBegin
  2
GDimGGroup3
 70
     0
 71
     0
 10
0.0
 20
0.0
 30
0.0
  3
GDimGGroup3
  1

  0
HATCH
  5
2FA
330
2F8
100
AcDbEntity
  8
Default
  6
Continuous
 62
     7
 48
25.4
100
AcDbHatch
 10
0.0
 20
0.0
 30
0.0
210
0.0
220
0.0
230
1.0
  2
SOLID
 70
     1
 71
     0
 91
        1
 92
        1
 93
        3
 72
     1
 10
427.8009054613219
 20
401.6669749889408
 11
423.8009052713321
 21
401.0003082906091
 72
     1
 10
423.8009052713321
 20
401.0003082906091
 11
427.8009054613219
 21
400.3336415922774
 72
     1
 10
427.8009054613219
 20
400.3336415922774
 11
427.8009054613219
 21
401.6669749889408
 97
        0
 75
     0
 76
     1
 98
        0
  0
LWPOLYLINE
  5
2FB
330
2F8
100
AcDbEntity
  8
Default
  6
Continuous
 62
     7
 48
25.4
370
    20
100
AcDbPolyline
 90
        4
 70
     1
 43
0.0
 10
427.8009054613
 20
401.6669749889
 10
423.8009052713
 20
401.0003082906
 10
427.8009054613
 20
400.3336415923
 10
427.8009054613
 20
401.6669749889
  0
HATCH
  5
2FC
330
2F8
100
AcDbEntity
  8
Default
  6
Continuous
 62
     7
 48
25.4
100
AcDbHatch
 10
0.0
 20
0.0
 30
0.0
210
0.0
220
0.0
230
1.0
  2
SOLID
 70
     1
 71
     0
 91
        1
 92
        1
 93
        3
 72
     1
 10
449.80090441079
 20
401.6669749889408
 11
449.80090441079
 21
400.3336415922774
 72
     1
 10
449.80090441079
 20
400.3336415922774
 11
453.8009046007798
 21
401.0003082906091
 72
     1
 10
453.8009046007798
 20
401.0003082906091
 11
449.80090441079
 21
401.6669749889408
 97
        0
 75
     0
 76
     1
 98
        0
  0
LWPOLYLINE
  5
2FD
330
2F8
100
AcDbEntity
  8
Default
  6
Continuous
 62
     7
 48
25.4
370
    20
100
AcDbPolyline
 90
        4
 70
     1
 43
0.0
 10
449.8009044108
 20
401.6669749889
 10
453.8009046008
 20
401.0003082906
 10
449.8009044108
 20
400.3336415923
 10
449.8009044108
 20
401.6669749889
  0
LINE
  5
2FE
330
2F8
100
AcDbEntity
  8
Default
  6
Continuous
 62
     7
 48
25.4
100
AcDbLine
 10
423.8009052713
 20
376.6572628622
 30
0.0
 11
423.8009052713
 21
403.0003083856
 31
0.0
  0
LINE
  5
2FF
330
2F8
100
AcDbEntity
  8
Default
  6
Continuous
 62
     7
 48
25.4
100
AcDbLine
 10
453.8009052713
 20
376.6572628622
 30
0.0
 11
453.8009052713
 21
403.0003083856
 31
0.0
  0
LINE
  5
300
330
2F8
100
AcDbEntity
  8
Default
  6
Continuous
 62
     7
 48
25.4
100
AcDbLine
 10
423.8009052713
 20
401.0003082906
 30
0.0
 11
453.8009046008
 21
401.0003082906
 31
0.0
  0
TEXT
  5
301
330
2F8
100
AcDbEntity
  8
Default
  6
Continuous
 62
     7
 48
25.4
100
AcDbText
 10
435.6704701534
 20
402.0003082906
 30
0.0
 40
4.0
  1
50
  7
SEACAD_arial_ttf
 11
435.6704701534
 21
406.0003082906
 31
0.0
100
AcDbText
 73
     3
  0
ENDBLK
  5
303
330
2F8
100
AcDbEntity
  8
0
100
AcDbBlockEnd
  0
BLOCK
  5
30E
330
304
100
AcDbEntity
  8
0
100
AcDbBlockBegin
  2
GDimGGroup4
 70
     0
 71
     0
 10
0.0
 20
0.0
 30
0.0
  3
GDimGGroup4
  1

  0
HATCH
  5
306
330
304
100
AcDbEntity
  8
Default
  6
Continuous
 62
     7
 48
25.4
100
AcDbHatch
 10
0.0
 20
0.0
 30
0.0
210
0.0
220
0.0
230
1.0
  2
SOLID
 70
     1
 71
     0
 91
        1
 92
        1
 93
        3
 72
     1
 10
230.3359669542656
 20
159.7808214083203
 11
226.3359667642758
 21
159.1141547099887
 72
     1
 10
226.3359667642758
 20
159.1141547099887
 11
230.3359669542656
 21
158.4474880116571
 72
     1
 10
230.3359669542656
 20
158.4474880116571
 11
230.3359669542656
 21
159.7808214083203
 97
        0
 75
     0
 76
     1
 98
        0
  0
LWPOLYLINE
  5
307
330
304
100
AcDbEntity
  8
Default
  6
Continuous
 62
     7
 48
25.4
370
    20
100
AcDbPolyline
 90
        4
 70
     1
 43
0.0
 10
230.3359669543
 20
159.7808214083
 10
226.3359667643
 20
159.11415471
 10
230.3359669543
 20
158.4474880117
 10
230.3359669543
 20
159.7808214083
  0
HATCH
  5
308
330
304
100
AcDbEntity
  8
Default
  6
Continuous
 62
     7
 48
25.4
100
AcDbHatch
 10
0.0
 20
0.0
 30
0.0
210
0.0
220
0.0
230
1.0
  2
SOLID
 70
     1
 71
     0
 91
        1
 92
        1
 93
        3
 72
     1
 10
220.535966574286
 20
159.7808214083203
 11
220.535966574286
 21
158.4474880116571
 72
     1
 10
220.535966574286
 20
158.4474880116571
 11
224.5359667642758
 21
159.1141547099887
 72
     1
 10
224.5359667642758
 20
159.1141547099887
 11
220.535966574286
 21
159.7808214083203
 97
        0
 75
     0
 76
     1
 98
        0
  0
LWPOLYLINE
  5
309
330
304
100
AcDbEntity
  8
Default
  6
Continuous
 62
     7
 48
25.4
370
    20
100
AcDbPolyline
 90
        4
 70
     1
 43
0.0
 10
220.5359665743
 20
159.7808214083
 10
224.5359667643
 20
159.11415471
 10
220.5359665743
 20
158.4474880117
 10
220.5359665743
 20
159.7808214083
  0
LINE
  5
30A
330
304
100
AcDbEntity
  8
Default
  6
Continuous
 62
     7
 48
25.4
100
AcDbLine
 10
226.3359667643
 20
146.002318433
 30
0.0
 11
226.3359667643
 21
161.114154805
 31
0.0
  0
LINE
  5
30B
330
304
100
AcDbEntity
  8
Default
  6
Continuous
 62
     7
 48
25.4
100
AcDbLine
 10
224.5359667643
 20
158.602318433
 30
0.0
 11
224.5359667643
 21
161.114154805
 31
0.0
  0
LINE
  5
30C
330
304
100
AcDbEntity
  8
Default
  6
Continuous
 62
     7
 48
25.4
100
AcDbLine
 10
234.3359671443
 20
159.11415471
 30
0.0
 11
212.5080551862
 21
159.11415471
 31
0.0
  0
TEXT
  5
30D
330
304
100
AcDbEntity
  8
Default
  6
Continuous
 62
     7
 48
25.4
100
AcDbText
 10
213.908055316
 20
160.11415471
 30
0.0
 40
4.0
  1
3
  7
SEACAD_arial_ttf
 11
213.908055316
 21
164.11415471
 31
0.0
100
AcDbText
 73
     3
  0
ENDBLK
  5
30F
330
304
100
AcDbEntity
  8
0
100
AcDbBlockEnd
  0
BLOCK
  5
31A
330
310
100
AcDbEntity
  8
0
100
AcDbBlockBegin
  2
GDimGGroup5
 70
     0
 71
     0
 10
0.0
 20
0.0
 30
0.0
  3
GDimGGroup5
  1

  0
HATCH
  5
312
330
310
100
AcDbEntity
  8
Default
  6
Continuous
 62
     7
 48
25.4
100
AcDbHatch
 10
0.0
 20
0.0
 30
0.0
210
0.0
220
0.0
230
1.0
  2
SOLID
 70
     1
 71
     0
 91
        1
 92
        1
 93
        3
 72
     1
 10
222.335966574286
 20
159.7808214083203
 11
222.335966574286
 21
158.4474880116571
 72
     1
 10
222.335966574286
 20
158.4474880116571
 11
226.3359667642758
 21
159.1141547099887
 72
     1
 10
226.3359667642758
 20
159.1141547099887
 11
222.335966574286
 21
159.7808214083203
 97
        0
 75
     0
 76
     1
 98
        0
  0
LWPOLYLINE
  5
313
330
310
100
AcDbEntity
  8
Default
  6
Continuous
 62
     7
 48
25.4
370
    20
100
AcDbPolyline
 90
        4
 70
     1
 43
0.0
 10
222.3359665743
 20
159.7808214083
 10
226.3359667643
 20
159.11415471
 10
222.3359665743
 20
158.4474880117
 10
222.3359665743
 20
159.7808214083
  0
HATCH
  5
314
330
310
100
AcDbEntity
  8
Default
  6
Continuous
 62
     7
 48
25.4
100
AcDbHatch
 10
0.0
 20
0.0
 30
0.0
210
0.0
220
0.0
230
1.0
  2
SOLID
 70
     1
 71
     0
 91
        1
 92
        1
 93
        3
 72
     1
 10
231.6859669542656
 20
159.7808214083203
 11
227.6859667642758
 21
159.1141547099887
 72
     1
 10
227.6859667642758
 20
159.1141547099887
 11
231.6859669542656
 21
158.4474880116571
 72
     1
 10
231.6859669542656
 20
158.4474880116571
 11
231.6859669542656
 21
159.7808214083203
 97
        0
 75
     0
 76
     1
 98
        0
  0
LWPOLYLINE
  5
315
330
310
100
AcDbEntity
  8
Default
  6
Continuous
 62
     7
 48
25.4
370
    20
100
AcDbPolyline
 90
        4
 70
     1
 43
0.0
 10
231.6859669543
 20
159.7808214083
 10
227.6859667643
 20
159.11415471
 10
231.6859669543
 20
158.4474880117
 10
231.6859669543
 20
159.7808214083
  0
LINE
  5
316
330
310
100
AcDbEntity
  8
Default
  6
Continuous
 62
     7
 48
25.4
100
AcDbLine
 10
226.3359667643
 20
146.002318433
 30
0.0
 11
226.3359667643
 21
161.114154805
 31
0.0
  0
LINE
  5
317
330
310
100
AcDbEntity
  8
Default
  6
Continuous
 62
     7
 48
25.4
100
AcDbLine
 10
227.6859667643
 20
135.352318433
 30
0.0
 11
227.6859667643
 21
161.114154805
 31
0.0
  0
LINE
  5
318
330
310
100
AcDbEntity
  8
Default
  6
Continuous
 62
     7
 48
25.4
100
AcDbLine
 10
218.3359663843
 20
159.11415471
 30
0.0
 11
245.8628544493
 21
159.11415471
 31
0.0
  0
TEXT
  5
319
330
310
100
AcDbEntity
  8
Default
  6
Continuous
 62
     7
 48
25.4
100
AcDbText
 10
233.5063320062
 20
160.11415471
 30
0.0
 40
4.0
  1
2.25
  7
SEACAD_arial_ttf
 11
233.5063320062
 21
164.11415471
 31
0.0
100
AcDbText
 73
     3
  0
ENDBLK
  5
31B
330
310
100
AcDbEntity
  8
0
100
AcDbBlockEnd
  0
BLOCK
  5
324
330
31C
100
AcDbEntity
  8
0
100
AcDbBlockBegin
  2
GDimGGroup6
 70
     0
 71
     0
 10
0.0
 20
0.0
 30
0.0
  3
GDimGGroup6
  1

  0
LINE
  5
31E
330
31C
100
AcDbEntity
  8
Default
  6
Continuous
 62
     7
 48
25.4
100
AcDbLine
 10
438.8009052713
 20
293.2572628622
 30
0.0
 11
493.3474034655
 21
348.0506851712
 31
0.0
  0
HATCH
  5
31F
330
31C
100
AcDbEntity
  8
Default
  6
Continuous
 62
     7
 48
25.4
100
AcDbHatch
 10
0.0
 20
0.0
 30
0.0
210
0.0
220
0.0
230
1.0
  2
SOLID
 70
     1
 71
     0
 91
        1
 92
        1
 93
        3
 72
     1
 10
477.427697022471
 20
333.0038579938637
 11
475.0781323615839
 21
329.6987117170866
 72
     1
 10
475.0781323615839
 20
329.6987117170866
 11
478.3726328602967
 21
332.0631804672637
 72
     1
 10
478.3726328602967
 20
332.0631804672637
 11
477.427697022471
 21
333.0038579938637
 97
        0
 75
     0
 76
     1
 98
        0
  0
LWPOLYLINE
  5
320
330
31C
100
AcDbEntity
  8
Default
  6
Continuous
 62
     7
 48
25.4
370
    20
100
AcDbPolyline
 90
        4
 70
     1
 43
0.0
 10
477.4276970225
 20
333.0038579939
 10
475.0781323616
 20
329.6987117171
 10
478.3726328603
 20
332.0631804673
 10
477.4276970225
 20
333.0038579939
  0
ARC
  5
321
330
31C
100
AcDbEntity
  8
Default
  6
Continuous
 62
     7
 48
25.4
100
AcDbCircle
 10
438.8009052713
 20
293.2572628622
 30
0.0
 40
51.42000000000792
100
AcDbArc
 50
38.3644531023
 51
47.3579323944
  0
TEXT
  5
322
330
31C
100
AcDbEntity
  8
Default
  6
Continuous
 62
     7
 48
25.4
100
AcDbText
 10
479.4058236659
 20
335.4634120015
 30
0.0
 40
4.0
  1
R
 50
45.1293917676
  7
SEACAD_arial_ttf
 11
476.5710162871
 21
338.2854444473
 31
0.0
100
AcDbText
 73
     3
  0
TEXT
  5
323
330
31C
100
AcDbEntity
  8
Default
  6
Continuous
 62
     7
 48
25.4
100
AcDbText
 10
483.9210755791
 20
339.9991038077
 30
0.0
 40
4.0
  1
85.7
 50
45.1293917676
  7
SEACAD_arial_ttf
 11
481.0862682003
 21
342.8211362534
 31
0.0
100
AcDbText
 73
     3
  0
ENDBLK
  5
325
330
31C
100
AcDbEntity
  8
0
100
AcDbBlockEnd
  0
BLOCK
  5
330
330
326
100
AcDbEntity
  8
0
100
AcDbBlockBegin
  2
GDimGGroup7
 70
     0
 71
     0
 10
0.0
 20
0.0
 30
0.0
  3
GDimGGroup7
  1

  0
HATCH
  5
328
330
326
100
AcDbEntity
  8
Default
  6
Continuous
 62
     7
 48
25.4
100
AcDbHatch
 10
0.0
 20
0.0
 30
0.0
210
0.0
220
0.0
230
1.0
  2
SOLID
 70
     1
 71
     0
 91
        1
 92
        1
 93
        3
 72
     1
 10
220.3215277585136
 20
188.3551999134955
 11
224.3215279485034
 21
189.0218666118271
 72
     1
 10
224.3215279485034
 20
189.0218666118271
 11
220.3215277585136
 21
189.6885333101587
 72
     1
 10
220.3215277585136
 20
189.6885333101587
 11
220.3215277585136
 21
188.3551999134955
 97
        0
 75
     0
 76
     1
 98
        0
  0
LWPOLYLINE
  5
329
330
326
100
AcDbEntity
  8
Default
  6
Continuous
 62
     7
 48
25.4
370
    20
100
AcDbPolyline
 90
        4
 70
     1
 43
0.0
 10
220.3215277585
 20
188.3551999135
 10
224.3215279485
 20
189.0218666118
 10
220.3215277585
 20
189.6885333102
 10
220.3215277585
 20
188.3551999135
  0
HATCH
  5
32A
330
326
100
AcDbEntity
  8
Default
  6
Continuous
 62
     7
 48
25.4
100
AcDbHatch
 10
0.0
 20
0.0
 30
0.0
210
0.0
220
0.0
230
1.0
  2
SOLID
 70
     1
 71
     0
 91
        1
 92
        1
 93
        3
 72
     1
 10
212.7255872654663
 20
188.3551999134955
 11
212.7255872654663
 21
189.6885333101587
 72
     1
 10
212.7255872654663
 20
189.6885333101587
 11
208.7255870754765
 21
189.0218666118271
 72
     1
 10
208.7255870754765
 20
189.0218666118271
 11
212.7255872654663
 21
188.3551999134955
 97
        0
 75
     0
 76
     1
 98
        0
  0
LWPOLYLINE
  5
32B
330
326
100
AcDbEntity
  8
Default
  6
Continuous
 62
     7
 48
25.4
370
    20
100
AcDbPolyline
 90
        4
 70
     1
 43
0.0
 10
212.7255872655
 20
188.3551999135
 10
208.7255870755
 20
189.0218666118
 10
212.7255872655
 20
189.6885333102
 10
212.7255872655
 20
188.3551999135
  0
LINE
  5
32C
330
326
100
AcDbEntity
  8
Default
  6
Continuous
 62
     7
 48
25.4
100
AcDbLine
 10
224.3215279485
 20
238.3291831535
 30
0.0
 11
224.3215279485
 21
187.0218665168
 31
0.0
  0
LINE
  5
32D
330
326
100
AcDbEntity
  8
Default
  6
Continuous
 62
     7
 48
25.4
100
AcDbLine
 10
208.7255866487
 20
236.8591831535
 30
0.0
 11
208.7255866487
 21
187.0218665168
 31
0.0
  0
LINE
  5
32E
330
326
100
AcDbEntity
  8
Default
  6
Continuous
 62
     7
 48
25.4
100
AcDbLine
 10
224.3215279485
 20
189.0218666118
 30
0.0
 11
208.7255870755
 21
189.0218666118
 31
0.0
  0
TEXT
  5
32F
330
326
100
AcDbEntity
  8
Default
  6
Continuous
 62
     7
 48
25.4
100
AcDbText
 10
213.3931227294
 20
190.0218666118
 30
0.0
 40
4.0
  1
26
  7
SEACAD_arial_ttf
 11
213.3931227294
 21
194.0218666118
 31
0.0
100
AcDbText
 73
     3
  0
ENDBLK
  5
331
330
326
100
AcDbEntity
  8
0
100
AcDbBlockEnd
  0
BLOCK
  5
33B
330
332
100
AcDbEntity
  8
0
100
AcDbBlockBegin
  2
GDimGGroup8
 70
     0
 71
     0
 10
0.0
 20
0.0
 30
0.0
  3
GDimGGroup8
  1

  0
HATCH
  5
334
330
332
100
AcDbEntity
  8
Default
  6
Continuous
 62
     7
 48
25.4
100
AcDbHatch
 10
0.0
 20
0.0
 30
0.0
210
0.0
220
0.0
230
1.0
  2
SOLID
 70
     1
 71
     0
 91
        1
 92
        1
 93
        3
 72
     1
 10
137.5215277585135
 20
214.5147388262686
 11
141.5215279485034
 21
215.1814055246002
 72
     1
 10
141.5215279485034
 20
215.1814055246002
 11
137.5215277585135
 21
215.8480722229318
 72
     1
 10
137.5215277585135
 20
215.8480722229318
 11
137.5215277585135
 21
214.5147388262686
 97
        0
 75
     0
 76
     1
 98
        0
  0
LWPOLYLINE
  5
335
330
332
100
AcDbEntity
  8
Default
  6
Continuous
 62
     7
 48
25.4
370
    20
100
AcDbPolyline
 90
        4
 70
     1
 43
0.0
 10
137.5215277585
 20
214.5147388263
 10
141.5215279485
 20
215.1814055246
 10
137.5215277585
 20
215.8480722229
 10
137.5215277585
 20
214.5147388263
  0
HATCH
  5
336
330
332
100
AcDbEntity
  8
Default
  6
Continuous
 62
     7
 48
25.4
100
AcDbHatch
 10
0.0
 20
0.0
 30
0.0
210
0.0
220
0.0
230
1.0
  2
SOLID
 70
     1
 71
     0
 91
        1
 92
        1
 93
        3
 72
     1
 10
148.5215281384932
 20
214.5147388262686
 11
148.5215281384932
 21
215.8480722229318
 72
     1
 10
148.5215281384932
 20
215.8480722229318
 11
144.5215279485034
 21
215.1814055246002
 72
     1
 10
144.5215279485034
 20
215.1814055246002
 11
148.5215281384932
 21
214.5147388262686
 97
        0
 75
     0
 76
     1
 98
        0
  0
LWPOLYLINE
  5
337
330
332
100
AcDbEntity
  8
Default
  6
Continuous
 62
     7
 48
25.4
370
    20
100
AcDbPolyline
 90
        4
 70
     1
 43
0.0
 10
148.5215281385
 20
214.5147388263
 10
144.5215279485
 20
215.1814055246
 10
148.5215281385
 20
215.8480722229
 10
148.5215281385
 20
214.5147388263
  0
LINE
  5
338
330
332
100
AcDbEntity
  8
Default
  6
Continuous
 62
     7
 48
25.4
100
AcDbLine
 10
144.5215279485
 20
228.2791831535
 30
0.0
 11
144.5215279485
 21
213.1814054296
 31
0.0
  0
LINE
  5
339
330
332
100
AcDbEntity
  8
Default
  6
Continuous
 62
     7
 48
25.4
100
AcDbLine
 10
133.5215275685
 20
215.1814055246
 30
0.0
 11
157.5674037958
 21
215.1814055246
 31
0.0
  0
TEXT
  5
33A
330
332
100
AcDbEntity
  8
Default
  6
Continuous
 62
     7
 48
25.4
100
AcDbText
 10
153.0369688834
 20
216.1814055246
 30
0.0
 40
4.0
  1
5
  7
SEACAD_arial_ttf
 11
153.0369688834
 21
220.1814055246
 31
0.0
100
AcDbText
 73
     3
  0
ENDBLK
  5
33C
330
332
100
AcDbEntity
  8
0
100
AcDbBlockEnd
  0
BLOCK
  5
349
330
33D
100
AcDbEntity
  8
0
100
AcDbBlockBegin
  2
GDimGGroup9
 70
     0
 71
     0
 10
0.0
 20
0.0
 30
0.0
  3
GDimGGroup9
  1

  0
HATCH
  5
33F
330
33D
100
AcDbEntity
  8
Default
  6
Continuous
 62
     7
 48
25.4
100
AcDbHatch
 10
0.0
 20
0.0
 30
0.0
210
0.0
220
0.0
230
1.0
  2
SOLID
 70
     1
 71
     0
 91
        1
 92
        1
 93
        3
 72
     1
 10
238.7884161421653
 20
245.4591829635091
 11
238.1217494438337
 21
249.4591831534989
 72
     1
 10
238.1217494438337
 20
249.4591831534989
 11
237.4550827455021
 21
245.4591829635091
 72
     1
 10
237.4550827455021
 20
245.4591829635091
 11
238.7884161421653
 21
245.4591829635091
 97
        0
 75
     0
 76
     1
 98
        0
  0
LWPOLYLINE
  5
340
330
33D
100
AcDbEntity
  8
Default
  6
Continuous
 62
     7
 48
25.4
370
    20
100
AcDbPolyline
 90
        4
 70
     1
 43
0.0
 10
238.7884161422
 20
245.4591829635
 10
238.1217494438
 20
249.4591831535
 10
237.4550827455
 20
245.4591829635
 10
238.7884161422
 20
245.4591829635
  0
HATCH
  5
341
330
33D
100
AcDbEntity
  8
Default
  6
Continuous
 62
     7
 48
25.4
100
AcDbHatch
 10
0.0
 20
0.0
 30
0.0
210
0.0
220
0.0
230
1.0
  2
SOLID
 70
     1
 71
     0
 91
        1
 92
        1
 93
        3
 72
     1
 10
238.7884161421653
 20
238.4591836787648
 11
237.4550827455021
 21
238.4591836787648
 72
     1
 10
237.4550827455021
 20
238.4591836787648
 11
238.1217494438337
 21
234.459183488775
 72
     1
 10
238.1217494438337
 20
234.459183488775
 11
238.7884161421653
 21
238.4591836787648
 97
        0
 75
     0
 76
     1
 98
        0
  0
LWPOLYLINE
  5
342
330
33D
100
AcDbEntity
  8
Default
  6
Continuous
 62
     7
 48
25.4
370
    20
100
AcDbPolyline
 90
        4
 70
     1
 43
0.0
 10
238.7884161422
 20
238.4591836788
 10
238.1217494438
 20
234.4591834888
 10
237.4550827455
 20
238.4591836788
 10
238.7884161422
 20
238.4591836788
  0
LINE
  5
343
330
33D
100
AcDbEntity
  8
Default
  6
Continuous
 62
     7
 48
25.4
100
AcDbLine
 10
224.3215279485
 20
249.4591831535
 30
0.0
 11
240.1217495388
 21
249.4591831535
 31
0.0
  0
LINE
  5
344
330
33D
100
AcDbEntity
  8
Default
  6
Continuous
 62
     7
 48
25.4
100
AcDbLine
 10
224.3215279485
 20
234.4591831535
 30
0.0
 11
240.1217495388
 21
234.4591831535
 31
0.0
  0
LINE
  5
345
330
33D
100
AcDbEntity
  8
Default
  6
Continuous
 62
     7
 48
25.4
100
AcDbLine
 10
238.1217494438
 20
249.4591831535
 30
0.0
 11
238.1217494438
 21
234.4591834888
 31
0.0
  0
TEXT
  5
346
330
33D
100
AcDbEntity
  8
Default
  6
Continuous
 62
     7
 48
25.4
100
AcDbText
 10
237.1217494438
 20
242.5094502929
 30
0.0
 40
4.0
  1
25
 50
90.0
  7
SEACAD_arial_ttf
 11
233.1217494438
 21
242.5094502929
 31
0.0
100
AcDbText
 73
     3
  0
TEXT
  5
348
330
33D
100
AcDbEntity
  8
Default
  6
Continuous
 62
     7
 48
25.4
100
AcDbText
 10
237.1217494438
 20
235.1480467841
 30
0.0
 40
4.0
  1
O
 50
90.0
  7
SEACAD_semeca1_ttf
 11
233.1217494438
 21
235.1480467841
 31
0.0
100
AcDbText
 73
     3
  0
ENDBLK
  5
34A
330
33D
100
AcDbEntity
  8
0
100
AcDbBlockEnd
  0
BLOCK
  5
354
330
34B
100
AcDbEntity
  8
0
100
AcDbBlockBegin
  2
GDimGGroup10
 70
     0
 71
     0
 10
0.0
 20
0.0
 30
0.0
  3
GDimGGroup10
  1

  0
HATCH
  5
34D
330
34B
100
AcDbEntity
  8
Default
  6
Continuous
 62
     7
 48
25.4
100
AcDbHatch
 10
0.0
 20
0.0
 30
0.0
210
0.0
220
0.0
230
1.0
  2
SOLID
 70
     1
 71
     0
 91
        1
 92
        1
 93
        3
 72
     1
 10
153.4415281384931
 20
274.6156940387573
 11
153.4415281384931
 21
275.9490274354207
 72
     1
 10
153.4415281384931
 20
275.9490274354207
 11
149.4415279485033
 21
275.282360737089
 72
     1
 10
149.4415279485033
 20
275.282360737089
 11
153.4415281384931
 21
274.6156940387573
 97
        0
 75
     0
 76
     1
 98
        0
  0
LWPOLYLINE
  5
34E
330
34B
100
AcDbEntity
  8
Default
  6
Continuous
 62
     7
 48
25.4
370
    20
100
AcDbPolyline
 90
        4
 70
     1
 43
0.0
 10
153.4415281385
 20
274.6156940388
 10
149.4415279485
 20
275.2823607371
 10
153.4415281385
 20
275.9490274354
 10
153.4415281385
 20
274.6156940388
  0
HATCH
  5
34F
330
34B
100
AcDbEntity
  8
Default
  6
Continuous
 62
     7
 48
25.4
100
AcDbHatch
 10
0.0
 20
0.0
 30
0.0
210
0.0
220
0.0
230
1.0
  2
SOLID
 70
     1
 71
     0
 91
        1
 92
        1
 93
        3
 72
     1
 10
168.2415281429635
 20
274.6156940387573
 11
172.2415283329533
 21
275.282360737089
 72
     1
 10
172.2415283329533
 20
275.282360737089
 11
168.2415281429635
 21
275.9490274354207
 72
     1
 10
168.2415281429635
 20
275.9490274354207
 11
168.2415281429635
 21
274.6156940387573
 97
        0
 75
     0
 76
     1
 98
        0
  0
LWPOLYLINE
  5
350
330
34B
100
AcDbEntity
  8
Default
  6
Continuous
 62
     7
 48
25.4
370
    20
100
AcDbPolyline
 90
        4
 70
     1
 43
0.0
 10
168.241528143
 20
274.6156940388
 10
172.241528333
 20
275.2823607371
 10
168.241528143
 20
275.9490274354
 10
168.241528143
 20
274.6156940388
  0
LINE
  5
351
330
34B
100
AcDbEntity
  8
Default
  6
Continuous
 62
     7
 48
25.4
100
AcDbLine
 10
149.4415279485
 20
278.3791831535
 30
0.0
 11
149.4415279485
 21
273.2823606421
 31
0.0
  0
LINE
  5
352
330
34B
100
AcDbEntity
  8
Default
  6
Continuous
 62
     7
 48
25.4
100
AcDbLine
 10
123.1044799097
 20
275.2823607371
 30
0.0
 11
172.241528333
 21
275.2823607371
 31
0.0
  0
TEXT
  5
353
330
34B
100
AcDbEntity
  8
Default
  6
Continuous
 62
     7
 48
25.4
100
AcDbText
 10
124.5044793378
 20
276.2823607371
 30
0.0
 40
4.0
  1
38
  7
SEACAD_arial_ttf
 11
124.5044793378
 21
280.2823607371
 31
0.0
100
AcDbText
 73
     3
  0
ENDBLK
  5
355
330
34B
100
AcDbEntity
  8
0
100
AcDbBlockEnd
  0
BLOCK
  5
35F
330
356
100
AcDbEntity
  8
0
100
AcDbBlockBegin
  2
GDimGGroup11
 70
     0
 71
     0
 10
0.0
 20
0.0
 30
0.0
  3
GDimGGroup11
  1

  0
HATCH
  5
358
330
356
100
AcDbEntity
  8
Default
  6
Continuous
 62
     7
 48
25.4
100
AcDbHatch
 10
0.0
 20
0.0
 30
0.0
210
0.0
220
0.0
230
1.0
  2
SOLID
 70
     1
 71
     0
 91
        1
 92
        1
 93
        3
 72
     1
 10
160.8960448926684
 20
282.3791833434887
 11
159.5627114960051
 21
282.3791833434887
 72
     1
 10
159.5627114960051
 20
282.3791833434887
 11
160.2293781943367
 21
278.3791831534988
 72
     1
 10
160.2293781943367
 20
278.3791831534988
 11
160.8960448926684
 21
282.3791833434887
 97
        0
 75
     0
 76
     1
 98
        0
  0
LWPOLYLINE
  5
359
330
356
100
AcDbEntity
  8
Default
  6
Continuous
 62
     7
 48
25.4
370
    20
100
AcDbPolyline
 90
        4
 70
     1
 43
0.0
 10
160.8960448927
 20
282.3791833435
 10
160.2293781943
 20
278.3791831535
 10
159.562711496
 20
282.3791833435
 10
160.8960448927
 20
282.3791833435
  0
HATCH
  5
35A
330
356
100
AcDbEntity
  8
Default
  6
Continuous
 62
     7
 48
25.4
100
AcDbHatch
 10
0.0
 20
0.0
 30
0.0
210
0.0
220
0.0
230
1.0
  2
SOLID
 70
     1
 71
     0
 91
        1
 92
        1
 93
        3
 72
     1
 10
160.8960448926684
 20
304.3791822929568
 11
160.2293781943367
 21
308.3791824829466
 72
     1
 10
160.2293781943367
 20
308.3791824829466
 11
159.5627114960051
 21
304.3791822929568
 72
     1
 10
159.5627114960051
 20
304.3791822929568
 11
160.8960448926684
 21
304.3791822929568
 97
        0
 75
     0
 76
     1
 98
        0
  0
LWPOLYLINE
  5
35B
330
356
100
AcDbEntity
  8
Default
  6
Continuous
 62
     7
 48
25.4
370
    20
100
AcDbPolyline
 90
        4
 70
     1
 43
0.0
 10
160.8960448927
 20
304.379182293
 10
160.2293781943
 20
308.3791824829
 10
159.562711496
 20
304.379182293
 10
160.8960448927
 20
304.379182293
  0
LINE
  5
35C
330
356
100
AcDbEntity
  8
Default
  6
Continuous
 62
     7
 48
25.4
100
AcDbLine
 10
160.2293781943
 20
278.3791831535
 30
0.0
 11
160.2293781943
 21
308.3791824829
 31
0.0
  0
TEXT
  5
35D
330
356
100
AcDbEntity
  8
Default
  6
Continuous
 62
     7
 48
25.4
100
AcDbText
 10
159.2293781943
 20
293.92944979
 30
0.0
 40
4.0
  1
50
 50
90.0
  7
SEACAD_arial_ttf
 11
155.2293781943
 21
293.92944979
 31
0.0
100
AcDbText
 73
     3
  0
TEXT
  5
35E
330
356
100
AcDbEntity
  8
Default
  6
Continuous
 62
     7
 48
25.4
100
AcDbText
 10
159.2293781943
 20
286.5680462812
 30
0.0
 40
4.0
  1
O
 50
90.0
  7
SEACAD_semeca1_ttf
 11
155.2293781943
 21
286.5680462812
 31
0.0
100
AcDbText
 73
     3
  0
ENDBLK
  5
360
330
356
100
AcDbEntity
  8
0
100
AcDbBlockEnd
  0
BLOCK
  5
36C
330
361
100
AcDbEntity
  8
0
100
AcDbBlockBegin
  2
GDimGGroup12
 70
     0
 71
     0
 10
0.0
 20
0.0
 30
0.0
  3
GDimGGroup12
  1

  0
HATCH
  5
363
330
361
100
AcDbEntity
  8
Default
  6
Continuous
 62
     7
 48
25.4
100
AcDbHatch
 10
0.0
 20
0.0
 30
0.0
210
0.0
220
0.0
230
1.0
  2
SOLID
 70
     1
 71
     0
 91
        1
 92
        1
 93
        3
 72
     1
 10
80.01616328025823
 20
261.3791833434887
 11
80.68282997858987
 21
257.3791831534988
 72
     1
 10
80.68282997858987
 20
257.3791831534988
 11
81.3494966769215
 21
261.3791833434887
 72
     1
 10
81.3494966769215
 20
261.3791833434887
 11
80.01616328025823
 21
261.3791833434887
 97
        0
 75
     0
 76
     1
 98
        0
  0
LWPOLYLINE
  5
364
330
361
100
AcDbEntity
  8
Default
  6
Continuous
 62
     7
 48
25.4
370
    20
100
AcDbPolyline
 90
        4
 70
     1
 43
0.0
 10
80.0161632803
 20
261.3791833435
 10
80.6828299786
 20
257.3791831535
 10
81.3494966769
 20
261.3791833435
 10
80.0161632803
 20
261.3791833435
  0
HATCH
  5
365
330
361
100
AcDbEntity
  8
Default
  6
Continuous
 62
     7
 48
25.4
100
AcDbHatch
 10
0.0
 20
0.0
 30
0.0
210
0.0
220
0.0
230
1.0
  2
SOLID
 70
     1
 71
     0
 91
        1
 92
        1
 93
        3
 72
     1
 10
80.01616328025823
 20
325.3791798640675
 11
81.3494966769215
 21
325.3791798640675
 72
     1
 10
81.3494966769215
 20
325.3791798640675
 11
80.68282997858987
 21
329.3791800540573
 72
     1
 10
80.68282997858987
 20
329.3791800540573
 11
80.01616328025823
 21
325.3791798640675
 97
        0
 75
     0
 76
     1
 98
        0
  0
LWPOLYLINE
  5
366
330
361
100
AcDbEntity
  8
Default
  6
Continuous
 62
     7
 48
25.4
370
    20
100
AcDbPolyline
 90
        4
 70
     1
 43
0.0
 10
80.0161632803
 20
325.3791798641
 10
80.6828299786
 20
329.3791800541
 10
81.3494966769
 20
325.3791798641
 10
80.0161632803
 20
325.3791798641
  0
LINE
  5
367
330
361
100
AcDbEntity
  8
Default
  6
Continuous
 62
     7
 48
25.4
100
AcDbLine
 10
144.5215279485
 20
257.3791831535
 30
0.0
 11
78.6828298836
 21
257.3791831535
 31
0.0
  0
LINE
  5
368
330
361
100
AcDbEntity
  8
Default
  6
Continuous
 62
     7
 48
25.4
100
AcDbLine
 10
145.121527493
 20
329.3791831535
 30
0.0
 11
78.6828298836
 21
329.3791831535
 31
0.0
  0
LINE
  5
369
330
361
100
AcDbEntity
  8
Default
  6
Continuous
 62
     7
 48
25.4
100
AcDbLine
 10
80.6828299786
 20
257.3791831535
 30
0.0
 11
80.6828299786
 21
329.3791800541
 31
0.0
  0
TEXT
  5
36A
330
361
100
AcDbEntity
  8
Default
  6
Continuous
 62
     7
 48
25.4
100
AcDbText
 10
79.6828299786
 20
292.3642311843
 30
0.0
 40
4.0
  1
120
 50
90.0
  7
SEACAD_arial_ttf
 11
75.6828299786
 21
292.3642311843
 31
0.0
100
AcDbText
 73
     3
  0
TEXT
  5
36B
330
361
100
AcDbEntity
  8
Default
  6
Continuous
 62
     7
 48
25.4
100
AcDbText
 10
79.6828299786
 20
285.0028276755
 30
0.0
 40
4.0
  1
O
 50
90.0
  7
SEACAD_semeca1_ttf
 11
75.6828299786
 21
285.0028276755
 31
0.0
100
AcDbText
 73
     3
  0
ENDBLK
  5
36D
330
361
100
AcDbEntity
  8
0
100
AcDbBlockEnd
  0
BLOCK
  5
37A
330
36E
100
AcDbEntity
  8
0
100
AcDbBlockBegin
  2
GDimGGroup13
 70
     0
 71
     0
 10
0.0
 20
0.0
 30
0.0
  3
GDimGGroup13
  1

  0
HATCH
  5
370
330
36E
100
AcDbEntity
  8
Default
  6
Continuous
 62
     7
 48
25.4
100
AcDbHatch
 10
0.0
 20
0.0
 30
0.0
210
0.0
220
0.0
230
1.0
  2
SOLID
 70
     1
 71
     0
 91
        1
 92
        1
 93
        3
 72
     1
 10
44.65403505826956
 20
231.3791833434887
 11
45.32070175660119
 21
227.3791831534988
 72
     1
 10
45.32070175660119
 20
227.3791831534988
 11
45.98736845493282
 21
231.3791833434887
 72
     1
 10
45.98736845493282
 20
231.3791833434887
 11
44.65403505826956
 21
231.3791833434887
 97
        0
 75
     0
 76
     1
 98
        0
  0
LWPOLYLINE
  5
371
330
36E
100
AcDbEntity
  8
Default
  6
Continuous
 62
     7
 48
25.4
370
    20
100
AcDbPolyline
 90
        4
 70
     1
 43
0.0
 10
44.6540350583
 20
231.3791833435
 10
45.3207017566
 20
227.3791831535
 10
45.9873684549
 20
231.3791833435
 10
44.6540350583
 20
231.3791833435
  0
HATCH
  5
372
330
36E
100
AcDbEntity
  8
Default
  6
Continuous
 62
     7
 48
25.4
100
AcDbHatch
 10
0.0
 20
0.0
 30
0.0
210
0.0
220
0.0
230
1.0
  2
SOLID
 70
     1
 71
     0
 91
        1
 92
        1
 93
        3
 72
     1
 10
44.65403505826956
 20
355.3791822482532
 11
45.98736845493282
 21
355.3791822482532
 72
     1
 10
45.98736845493282
 20
355.3791822482532
 11
45.32070175660119
 21
359.3791824382431
 72
     1
 10
45.32070175660119
 20
359.3791824382431
 11
44.65403505826956
 21
355.3791822482532
 97
        0
 75
     0
 76
     1
 98
        0
  0
LWPOLYLINE
  5
373
330
36E
100
AcDbEntity
  8
Default
  6
Continuous
 62
     7
 48
25.4
370
    20
100
AcDbPolyline
 90
        4
 70
     1
 43
0.0
 10
44.6540350583
 20
355.3791822483
 10
45.3207017566
 20
359.3791824382
 10
45.9873684549
 20
355.3791822483
 10
44.6540350583
 20
355.3791822483
  0
LINE
  5
374
330
36E
100
AcDbEntity
  8
Default
  6
Continuous
 62
     7
 48
25.4
100
AcDbLine
 10
134.6215279485
 20
227.3791831535
 30
0.0
 11
43.3207016616
 21
227.3791831535
 31
0.0
  0
LINE
  5
375
330
36E
100
AcDbEntity
  8
Default
  6
Continuous
 62
     7
 48
25.4
100
AcDbLine
 10
139.1215279485
 20
359.3791831535
 30
0.0
 11
43.3207016616
 21
359.3791831535
 31
0.0
  0
LINE
  5
376
330
36E
100
AcDbEntity
  8
Default
  6
Continuous
 62
     7
 48
25.4
100
AcDbLine
 10
45.3207017566
 20
227.3791831535
 30
0.0
 11
45.3207017566
 21
359.3791824382
 31
0.0
  0
TEXT
  5
377
330
36E
100
AcDbEntity
  8
Default
  6
Continuous
 62
     7
 48
25.4
100
AcDbText
 10
44.3207017566
 20
287.599014985
 30
0.0
 40
4.0
  1
220
 50
90.0
  7
SEACAD_arial_ttf
 11
40.3207017566
 21
287.599014985
 31
0.0
100
AcDbText
 73
     3
  0
TEXT
  5
378
330
36E
100
AcDbEntity
  8
Default
  6
Continuous
 62
     7
 48
25.4
100
AcDbText
 10
44.3207017566
 20
299.3903193329
 30
0.0
 40
4.0
  1
H6
 50
90.0
  7
SEACAD_arial_ttf
 11
40.3207017566
 21
299.3903193329
 31
0.0
100
AcDbText
 73
     3
  0
TEXT
  5
379
330
36E
100
AcDbEntity
  8
Default
  6
Continuous
 62
     7
 48
25.4
100
AcDbText
 10
44.3207017566
 20
280.2376114763
 30
0.0
 40
4.0
  1
O
 50
90.0
  7
SEACAD_semeca1_ttf
 11
40.3207017566
 21
280.2376114763
 31
0.0
100
AcDbText
 73
     3
  0
ENDBLK
  5
37B
330
36E
100
AcDbEntity
  8
0
100
AcDbBlockEnd
  0
BLOCK
  5
388
330
37C
100
AcDbEntity
  8
0
100
AcDbBlockBegin
  2
GDimGGroup14
 70
     0
 71
     0
 10
0.0
 20
0.0
 30
0.0
  3
GDimGGroup14
  1

  0
HATCH
  5
37E
330
37C
100
AcDbEntity
  8
Default
  6
Continuous
 62
     7
 48
25.4
100
AcDbHatch
 10
0.0
 20
0.0
 30
0.0
210
0.0
220
0.0
230
1.0
  2
SOLID
 70
     1
 71
     0
 91
        1
 92
        1
 93
        3
 72
     1
 10
272.8000375886374
 20
297.3791833434886
 11
271.4667041919741
 21
297.3791833434886
 72
     1
 10
271.4667041919741
 20
297.3791833434886
 11
272.1333708903057
 21
293.3791831534988
 72
     1
 10
272.1333708903057
 20
293.3791831534988
 11
272.8000375886374
 21
297.3791833434886
 97
        0
 75
     0
 76
     1
 98
        0
  0
LWPOLYLINE
  5
37F
330
37C
100
AcDbEntity
  8
Default
  6
Continuous
 62
     7
 48
25.4
370
    20
100
AcDbPolyline
 90
        4
 70
     1
 43
0.0
 10
272.8000375886
 20
297.3791833435
 10
272.1333708903
 20
293.3791831535
 10
271.466704192
 20
297.3791833435
 10
272.8000375886
 20
297.3791833435
  0
HATCH
  5
380
330
37C
100
AcDbEntity
  8
Default
  6
Continuous
 62
     7
 48
25.4
100
AcDbHatch
 10
0.0
 20
0.0
 30
0.0
210
0.0
220
0.0
230
1.0
  2
SOLID
 70
     1
 71
     0
 91
        1
 92
        1
 93
        3
 72
     1
 10
272.8000375886374
 20
334.0791833986229
 11
272.1333708903057
 21
338.0791835886127
 72
     1
 10
272.1333708903057
 20
338.0791835886127
 11
271.4667041919741
 21
334.0791833986229
 72
     1
 10
271.4667041919741
 20
334.0791833986229
 11
272.8000375886374
 21
334.0791833986229
 97
        0
 75
     0
 76
     1
 98
        0
  0
LWPOLYLINE
  5
381
330
37C
100
AcDbEntity
  8
Default
  6
Continuous
 62
     7
 48
25.4
370
    20
100
AcDbPolyline
 90
        4
 70
     1
 43
0.0
 10
272.8000375886
 20
334.0791833986
 10
272.1333708903
 20
338.0791835886
 10
271.466704192
 20
334.0791833986
 10
272.8000375886
 20
334.0791833986
  0
LINE
  5
382
330
37C
100
AcDbEntity
  8
Default
  6
Continuous
 62
     7
 48
25.4
100
AcDbLine
 10
259.1573288953
 20
293.3791831535
 30
0.0
 11
274.1333709853
 21
293.3791831535
 31
0.0
  0
LINE
  5
383
330
37C
100
AcDbEntity
  8
Default
  6
Continuous
 62
     7
 48
25.4
100
AcDbLine
 10
221.6215279485
 20
338.0791831535
 30
0.0
 11
274.1333709853
 21
338.0791831535
 31
0.0
  0
LINE
  5
384
330
37C
100
AcDbEntity
  8
Default
  6
Continuous
 62
     7
 48
25.4
100
AcDbLine
 10
272.1333708903
 20
264.1845096302
 30
0.0
 11
272.1333708903
 21
338.0791835886
 31
0.0
  0
TEXT
  5
385
330
37C
100
AcDbEntity
  8
Default
  6
Continuous
 62
     7
 48
25.4
100
AcDbText
 10
265.1333708903
 20
280.2975530409
 30
0.0
 40
4.0
  1
74.5
 50
90.0
  7
SEACAD_arial_ttf
 11
261.1333708903
 21
280.2975530409
 31
0.0
100
AcDbText
 73
     3
  0
TEXT
  5
386
330
37C
100
AcDbEntity
  8
Default
  6
Continuous
 62
     7
 48
25.4
100
AcDbText
 10
265.1333708903
 20
265.5845095627
 30
0.0
 40
4.0
  1
MAX
 50
90.0
  7
SEACAD_arial_ttf
 11
261.1333708903
 21
265.5845095627
 31
0.0
100
AcDbText
 73
     3
  0
TEXT
  5
387
330
37C
100
AcDbEntity
  8
Default
  6
Continuous
 62
     7
 48
25.4
100
AcDbText
 10
271.1333708903
 20
265.5845095627
 30
0.0
 40
4.0
  1
MIN 57
 50
90.0
  7
SEACAD_arial_ttf
 11
267.1333708903
 21
265.5845095627
 31
0.0
100
AcDbText
 73
     3
  0
ENDBLK
  5
389
330
37C
100
AcDbEntity
  8
0
100
AcDbBlockEnd
  0
BLOCK
  5
396
330
38A
100
AcDbEntity
  8
0
100
AcDbBlockBegin
  2
GDimGGroup15
 70
     0
 71
     0
 10
0.0
 20
0.0
 30
0.0
  3
GDimGGroup15
  1

  0
HATCH
  5
38C
330
38A
100
AcDbEntity
  8
Default
  6
Continuous
 62
     7
 48
25.4
100
AcDbHatch
 10
0.0
 20
0.0
 30
0.0
210
0.0
220
0.0
230
1.0
  2
SOLID
 70
     1
 71
     0
 91
        1
 92
        1
 93
        3
 72
     1
 10
295.1031882071492
 20
334.079182963509
 11
294.4365215088175
 21
338.0791831534988
 72
     1
 10
294.4365215088175
 20
338.0791831534988
 11
293.7698548104859
 21
334.079182963509
 72
     1
 10
293.7698548104859
 20
334.079182963509
 11
295.1031882071492
 21
334.079182963509
 97
        0
 75
     0
 76
     1
 98
        0
  0
LWPOLYLINE
  5
38D
330
38A
100
AcDbEntity
  8
Default
  6
Continuous
 62
     7
 48
25.4
370
    20
100
AcDbPolyline
 90
        4
 70
     1
 43
0.0
 10
295.1031882071
 20
334.0791829635
 10
294.4365215088
 20
338.0791831535
 10
293.7698548105
 20
334.0791829635
 10
295.1031882071
 20
334.0791829635
  0
HATCH
  5
38E
330
38A
100
AcDbEntity
  8
Default
  6
Continuous
 62
     7
 48
25.4
100
AcDbHatch
 10
0.0
 20
0.0
 30
0.0
210
0.0
220
0.0
230
1.0
  2
SOLID
 70
     1
 71
     0
 91
        1
 92
        1
 93
        3
 72
     1
 10
295.1031882071492
 20
350.2129280530457
 11
293.7698548104859
 21
350.2129280530457
 72
     1
 10
293.7698548104859
 20
350.2129280530457
 11
294.4365215088175
 21
346.2129278630559
 72
     1
 10
294.4365215088175
 20
346.2129278630559
 11
295.1031882071492
 21
350.2129280530457
 97
        0
 75
     0
 76
     1
 98
        0
  0
LWPOLYLINE
  5
38F
330
38A
100
AcDbEntity
  8
Default
  6
Continuous
 62
     7
 48
25.4
370
    20
100
AcDbPolyline
 90
        4
 70
     1
 43
0.0
 10
295.1031882071
 20
350.212928053
 10
294.4365215088
 20
346.2129278631
 10
293.7698548105
 20
350.212928053
 10
295.1031882071
 20
350.212928053
  0
LINE
  5
390
330
38A
100
AcDbEntity
  8
Default
  6
Continuous
 62
     7
 48
25.4
100
AcDbLine
 10
221.6215279485
 20
338.0791831535
 30
0.0
 11
296.4365216038
 21
338.0791831535
 31
0.0
  0
LINE
  5
391
330
38A
100
AcDbEntity
  8
Default
  6
Continuous
 62
     7
 48
25.4
100
AcDbLine
 10
258.6857585815
 20
346.2129278631
 30
0.0
 11
296.4365216038
 21
346.2129278631
 31
0.0
  0
LINE
  5
392
330
38A
100
AcDbEntity
  8
Default
  6
Continuous
 62
     7
 48
25.4
100
AcDbLine
 10
294.4365215088
 20
277.1751906496
 30
0.0
 11
294.4365215088
 21
354.2129274231
 31
0.0
  0
TEXT
  5
393
330
38A
100
AcDbEntity
  8
Default
  6
Continuous
 62
     7
 48
25.4
100
AcDbText
 10
287.4365215088
 20
293.2882344646
 30
0.0
 40
4.0
  1
38.25
 50
90.0
  7
SEACAD_arial_ttf
 11
283.4365215088
 21
293.2882344646
 31
0.0
100
AcDbText
 73
     3
  0
TEXT
  5
394
330
38A
100
AcDbEntity
  8
Default
  6
Continuous
 62
     7
 48
25.4
100
AcDbText
 10
287.4365215088
 20
278.5751909864
 30
0.0
 40
4.0
  1
MAX
 50
90.0
  7
SEACAD_arial_ttf
 11
283.4365215088
 21
278.5751909864
 31
0.0
100
AcDbText
 73
     3
  0
TEXT
  5
395
330
38A
100
AcDbEntity
  8
Default
  6
Continuous
 62
     7
 48
25.4
100
AcDbText
 10
293.4365215088
 20
278.5751909864
 30
0.0
 40
4.0
  1
MIN 12.75
 50
90.0
  7
SEACAD_arial_ttf
 11
289.4365215088
 21
278.5751909864
 31
0.0
100
AcDbText
 73
     3
  0
ENDBLK
  5
397
330
38A
100
AcDbEntity
  8
0
100
AcDbBlockEnd
  0
BLOCK
  5
3A2
330
398
100
AcDbEntity
  8
0
100
AcDbBlockBegin
  2
GDimGGroup16
 70
     0
 71
     0
 10
0.0
 20
0.0
 30
0.0
  3
GDimGGroup16
  1

  0
HATCH
  5
39A
330
398
100
AcDbEntity
  8
Default
  6
Continuous
 62
     7
 48
25.4
100
AcDbHatch
 10
0.0
 20
0.0
 30
0.0
210
0.0
220
0.0
230
1.0
  2
SOLID
 70
     1
 71
     0
 91
        1
 92
        1
 93
        3
 72
     1
 10
295.1055263902907
 20
350.2129280530457
 11
293.7721929936274
 21
350.2129280530457
 72
     1
 10
293.7721929936274
 20
350.2129280530457
 11
294.438859691959
 21
346.2129278630559
 72
     1
 10
294.438859691959
 20
346.2129278630559
 11
295.1055263902907
 21
350.2129280530457
 97
        0
 75
     0
 76
     1
 98
        0
  0
LWPOLYLINE
  5
39B
330
398
100
AcDbEntity
  8
Default
  6
Continuous
 62
     7
 48
25.4
370
    20
100
AcDbPolyline
 90
        4
 70
     1
 43
0.0
 10
295.1055263903
 20
350.212928053
 10
294.438859692
 20
346.2129278631
 10
293.7721929936
 20
350.212928053
 10
295.1055263903
 20
350.212928053
  0
HATCH
  5
39C
330
398
100
AcDbEntity
  8
Default
  6
Continuous
 62
     7
 48
25.4
100
AcDbHatch
 10
0.0
 20
0.0
 30
0.0
210
0.0
220
0.0
230
1.0
  2
SOLID
 70
     1
 71
     0
 91
        1
 92
        1
 93
        3
 72
     1
 10
295.1055263902907
 20
360.1769294180517
 11
294.438859691959
 21
364.1769296080415
 72
     1
 10
294.438859691959
 20
364.1769296080415
 11
293.7721929936274
 21
360.1769294180517
 72
     1
 10
293.7721929936274
 20
360.1769294180517
 11
295.1055263902907
 21
360.1769294180517
 97
        0
 75
     0
 76
     1
 98
        0
  0
LWPOLYLINE
  5
39D
330
398
100
AcDbEntity
  8
Default
  6
Continuous
 62
     7
 48
25.4
370
    20
100
AcDbPolyline
 90
        4
 70
     1
 43
0.0
 10
295.1055263903
 20
360.1769294181
 10
294.438859692
 20
364.176929608
 10
293.7721929936
 20
360.1769294181
 10
295.1055263903
 20
360.1769294181
  0
LINE
  5
39E
330
398
100
AcDbEntity
  8
Default
  6
Continuous
 62
     7
 48
25.4
100
AcDbLine
 10
258.6857585815
 20
346.2129278631
 30
0.0
 11
296.438859787
 21
346.2129278631
 31
0.0
  0
LINE
  5
39F
330
398
100
AcDbEntity
  8
Default
  6
Continuous
 62
     7
 48
25.4
100
AcDbLine
 10
258.9599455653
 20
364.1769303283
 30
0.0
 11
296.438859787
 21
364.1769303283
 31
0.0
  0
LINE
  5
3A0
330
398
100
AcDbEntity
  8
Default
  6
Continuous
 62
     7
 48
25.4
100
AcDbLine
 10
294.438859692
 20
346.2129278631
 30
0.0
 11
294.438859692
 21
364.176929608
 31
0.0
  0
TEXT
  5
3A1
330
398
100
AcDbEntity
  8
Default
  6
Continuous
 62
     7
 48
25.4
100
AcDbText
 10
293.438859692
 20
352.0644939529
 30
0.0
 40
4.0
  1
30
 50
90.0
  7
SEACAD_arial_ttf
 11
289.438859692
 21
352.0644939529
 31
0.0
100
AcDbText
 73
     3
  0
ENDBLK
  5
3A3
330
398
100
AcDbEntity
  8
0
100
AcDbBlockEnd
  0
BLOCK
  5
3AE
330
3A4
100
AcDbEntity
  8
0
100
AcDbBlockBegin
  2
GDimGGroup17
 70
     0
 71
     0
 10
0.0
 20
0.0
 30
0.0
  3
GDimGGroup17
  1

  0
HATCH
  5
3A6
330
3A4
100
AcDbEntity
  8
Default
  6
Continuous
 62
     7
 48
25.4
100
AcDbHatch
 10
0.0
 20
0.0
 30
0.0
210
0.0
220
0.0
230
1.0
  2
SOLID
 70
     1
 71
     0
 91
        1
 92
        1
 93
        3
 72
     1
 10
295.1031850752553
 20
368.1769305183095
 11
293.769851678592
 21
368.1769305183095
 72
     1
 10
293.769851678592
 20
368.1769305183095
 11
294.4365183769237
 21
364.1769303283197
 72
     1
 10
294.4365183769237
 20
364.1769303283197
 11
295.1031850752553
 21
368.1769305183095
 97
        0
 75
     0
 76
     1
 98
        0
  0
LWPOLYLINE
  5
3A7
330
3A4
100
AcDbEntity
  8
Default
  6
Continuous
 62
     7
 48
25.4
370
    20
100
AcDbPolyline
 90
        4
 70
     1
 43
0.0
 10
295.1031850753
 20
368.1769305183
 10
294.4365183769
 20
364.1769303283
 10
293.7698516786
 20
368.1769305183
 10
295.1031850753
 20
368.1769305183
  0
HATCH
  5
3A8
330
3A4
100
AcDbEntity
  8
Default
  6
Continuous
 62
     7
 48
25.4
100
AcDbHatch
 10
0.0
 20
0.0
 30
0.0
210
0.0
220
0.0
230
1.0
  2
SOLID
 70
     1
 71
     0
 91
        1
 92
        1
 93
        3
 72
     1
 10
295.1031850752553
 20
372.7791830240291
 11
294.4365183769237
 21
376.7791832140189
 72
     1
 10
294.4365183769237
 20
376.7791832140189
 11
293.769851678592
 21
372.7791830240291
 72
     1
 10
293.769851678592
 20
372.7791830240291
 11
295.1031850752553
 21
372.7791830240291
 97
        0
 75
     0
 76
     1
 98
        0
  0
LWPOLYLINE
  5
3A9
330
3A4
100
AcDbEntity
  8
Default
  6
Continuous
 62
     7
 48
25.4
370
    20
100
AcDbPolyline
 90
        4
 70
     1
 43
0.0
 10
295.1031850753
 20
372.779183024
 10
294.4365183769
 20
376.779183214
 10
293.7698516786
 20
372.779183024
 10
295.1031850753
 20
372.779183024
  0
LINE
  5
3AA
330
3A4
100
AcDbEntity
  8
Default
  6
Continuous
 62
     7
 48
25.4
100
AcDbLine
 10
258.9599455653
 20
364.1769303283
 30
0.0
 11
296.4365184719
 21
364.1769303283
 31
0.0
  0
LINE
  5
3AB
330
3A4
100
AcDbEntity
  8
Default
  6
Continuous
 62
     7
 48
25.4
100
AcDbLine
 10
255.5215279467
 20
376.7791831535
 30
0.0
 11
296.4365184719
 21
376.7791831535
 31
0.0
  0
LINE
  5
3AC
330
3A4
100
AcDbEntity
  8
Default
  6
Continuous
 62
     7
 48
25.4
100
AcDbLine
 10
294.4365183769
 20
364.1769303283
 30
0.0
 11
294.4365183769
 21
376.779183214
 31
0.0
  0
TEXT
  5
3AD
330
3A4
100
AcDbEntity
  8
Default
  6
Continuous
 62
     7
 48
25.4
100
AcDbText
 10
293.4365183769
 20
367.3476219886
 30
0.0
 40
4.0
  1
21
 50
90.0
  7
SEACAD_arial_ttf
 11
289.4365183769
 21
367.3476219886
 31
0.0
100
AcDbText
 73
     3
  0
ENDBLK
  5
3AF
330
3A4
100
AcDbEntity
  8
0
100
AcDbBlockEnd
  0
BLOCK
  5
3BA
330
3B0
100
AcDbEntity
  8
0
100
AcDbBlockBegin
  2
GDimGGroup18
 70
     0
 71
     0
 10
0.0
 20
0.0
 30
0.0
  3
GDimGGroup18
  1

  0
HATCH
  5
3B2
330
3B0
100
AcDbEntity
  8
Default
  6
Continuous
 62
     7
 48
25.4
100
AcDbHatch
 10
0.0
 20
0.0
 30
0.0
210
0.0
220
0.0
230
1.0
  2
SOLID
 70
     1
 71
     0
 91
        1
 92
        1
 93
        3
 72
     1
 10
251.5215277566614
 20
401.8397324542837
 11
251.5215277566614
 21
400.5063990576204
 72
     1
 10
251.5215277566614
 20
400.5063990576204
 11
255.5215279466512
 21
401.1730657559521
 72
     1
 10
255.5215279466512
 20
401.1730657559521
 11
251.5215277566614
 21
401.8397324542837
 97
        0
 75
     0
 76
     1
 98
        0
  0
LWPOLYLINE
  5
3B3
330
3B0
100
AcDbEntity
  8
Default
  6
Continuous
 62
     7
 48
25.4
370
    20
100
AcDbPolyline
 90
        4
 70
     1
 43
0.0
 10
251.5215277567
 20
401.8397324543
 10
255.5215279467
 20
401.173065756
 10
251.5215277567
 20
400.5063990576
 10
251.5215277567
 20
401.8397324543
  0
HATCH
  5
3B4
330
3B0
100
AcDbEntity
  8
Default
  6
Continuous
 62
     7
 48
25.4
100
AcDbHatch
 10
0.0
 20
0.0
 30
0.0
210
0.0
220
0.0
230
1.0
  2
SOLID
 70
     1
 71
     0
 91
        1
 92
        1
 93
        3
 72
     1
 10
228.321528983027
 20
401.8397324542837
 11
224.3215287930372
 21
401.1730657559521
 72
     1
 10
224.3215287930372
 20
401.1730657559521
 11
228.321528983027
 21
400.5063990576204
 72
     1
 10
228.321528983027
 20
400.5063990576204
 11
228.321528983027
 21
401.8397324542837
 97
        0
 75
     0
 76
     1
 98
        0
  0
LWPOLYLINE
  5
3B5
330
3B0
100
AcDbEntity
  8
Default
  6
Continuous
 62
     7
 48
25.4
370
    20
100
AcDbPolyline
 90
        4
 70
     1
 43
0.0
 10
228.321528983
 20
401.8397324543
 10
224.321528793
 20
401.173065756
 10
228.321528983
 20
400.5063990576
 10
228.321528983
 20
401.8397324543
  0
LINE
  5
3B6
330
3B0
100
AcDbEntity
  8
Default
  6
Continuous
 62
     7
 48
25.4
100
AcDbLine
 10
255.5215279467
 20
376.7791831535
 30
0.0
 11
255.5215279467
 21
403.1730658509
 31
0.0
  0
LINE
  5
3B7
330
3B0
100
AcDbEntity
  8
Default
  6
Continuous
 62
     7
 48
25.4
100
AcDbLine
 10
224.3215279485
 20
383.3791831535
 30
0.0
 11
224.3215279485
 21
403.1730658509
 31
0.0
  0
LINE
  5
3B8
330
3B0
100
AcDbEntity
  8
Default
  6
Continuous
 62
     7
 48
25.4
100
AcDbLine
 10
255.5215279467
 20
401.173065756
 30
0.0
 11
224.321528793
 21
401.173065756
 31
0.0
  0
TEXT
  5
3B9
330
3B0
100
AcDbEntity
  8
Default
  6
Continuous
 62
     7
 48
25.4
100
AcDbText
 10
236.7910935872
 20
402.173065756
 30
0.0
 40
4.0
  1
52
  7
SEACAD_arial_ttf
 11
236.7910935872
 21
406.173065756
 31
0.0
100
AcDbText
 73
     3
  0
ENDBLK
  5
3BB
330
3B0
100
AcDbEntity
  8
0
100
AcDbBlockEnd
  0
BLOCK
  5
3C5
330
3BC
100
AcDbEntity
  8
0
100
AcDbBlockBegin
  2
GDimGGroup19
 70
     0
 71
     0
 10
0.0
 20
0.0
 30
0.0
  3
GDimGGroup19
  1

  0
LINE
  5
3BE
330
3BC
100
AcDbEntity
  8
Default
  6
Continuous
 62
     7
 48
25.4
100
AcDbLine
 10
438.8009052713
 20
293.2572628622
 30
0.0
 11
528.1199468629
 21
304.4293722402
 31
0.0
  0
HATCH
  5
3BF
330
3BC
100
AcDbEntity
  8
Default
  6
Continuous
 62
     7
 48
25.4
100
AcDbHatch
 10
0.0
 20
0.0
 30
0.0
210
0.0
220
0.0
230
1.0
  2
SOLID
 70
     1
 71
     0
 91
        1
 92
        1
 93
        3
 72
     1
 10
499.2465102549173
 20
301.4897172856403
 11
495.3601806533204
 21
300.3317500001202
 72
     1
 10
495.3601806533204
 20
300.3317500001202
 11
499.4119953420267
 21
300.1666932372565
 72
     1
 10
499.4119953420267
 20
300.1666932372565
 11
499.2465102549173
 21
301.4897172856403
 97
        0
 75
     0
 76
     1
 98
        0
  0
LWPOLYLINE
  5
3C0
330
3BC
100
AcDbEntity
  8
Default
  6
Continuous
 62
     7
 48
25.4
370
    20
100
AcDbPolyline
 90
        4
 70
     1
 43
0.0
 10
499.2465102549
 20
301.4897172856
 10
495.3601806533
 20
300.3317500001
 10
499.411995342
 20
300.1666932373
 10
499.2465102549
 20
301.4897172856
  0
ARC
  5
3C1
330
3BC
100
AcDbEntity
  8
Default
  6
Continuous
 62
     7
 48
25.4
100
AcDbCircle
 10
438.8009052713
 20
293.2572628622
 30
0.0
 40
57.00000000000927
100
AcDbArc
 50
5.1192040567
 51
12.5873678849
  0
TEXT
  5
3C2
330
3BC
100
AcDbEntity
  8
Default
  6
Continuous
 62
     7
 48
25.4
100
AcDbText
 10
501.2736253483
 20
302.0792014618
 30
0.0
 40
4.0
  1
R
 50
7.1295822852
  7
SEACAD_arial_ttf
 11
500.7771701105
 21
306.0482734184
 31
0.0
100
AcDbText
 73
     3
  0
TEXT
  5
3C3
330
3BC
100
AcDbEntity
  8
Default
  6
Continuous
 62
     7
 48
25.4
100
AcDbText
 10
507.6241404789
 20
302.8735298422
 30
0.0
 40
4.0
  1
95
 50
7.1295822852
  7
SEACAD_arial_ttf
 11
507.1276852412
 21
306.8426017988
 31
0.0
100
AcDbText
 73
     3
  0
TEXT
  5
3C4
330
3BC
100
AcDbEntity
  8
Default
  6
Continuous
 62
     7
 48
25.4
100
AcDbText
 10
515.8211369111
 20
303.8988178332
 30
0.0
 40
4.0
  1
±0.1
 50
7.1295822852
  7
SEACAD_arial_ttf
 11
515.3246816733
 21
307.8678897898
 31
0.0
100
AcDbText
 73
     3
  0
ENDBLK
  5
3C6
330
3BC
100
AcDbEntity
  8
0
100
AcDbBlockEnd
  0
BLOCK
  5
3D1
330
3C7
100
AcDbEntity
  8
0
100
AcDbBlockBegin
  2
GDimGGroup20
 70
     0
 71
     0
 10
0.0
 20
0.0
 30
0.0
  3
GDimGGroup20
  1

  0
HATCH
  5
3C9
330
3C7
100
AcDbEntity
  8
Default
  6
Continuous
 62
     7
 48
25.4
100
AcDbHatch
 10
0.0
 20
0.0
 30
0.0
210
0.0
220
0.0
230
1.0
  2
SOLID
 70
     1
 71
     0
 91
        1
 92
        1
 93
        3
 72
     1
 10
525.7597234220474
 20
348.066018612642
 11
528.3971116697798
 21
344.9856567447269
 72
     1
 10
528.3971116697798
 20
344.9856567447268
 11
526.9013212304377
 21
348.7548817271544
 72
     1
 10
526.9013212304377
 20
348.7548817271544
 11
525.7597234220473
 21
348.0660186126419
 97
        0
 75
     0
 76
     1
 98
        0
  0
LWPOLYLINE
  5
3CA
330
3C7
100
AcDbEntity
  8
Default
  6
Continuous
 62
     7
 48
25.4
370
    20
100
AcDbPolyline
 90
        4
 70
     1
 43
0.0
 10
525.759723422
 20
348.0660186126
 10
528.3971116698
 20
344.9856567447
 10
526.9013212304
 20
348.7548817272
 10
525.759723422
 20
348.0660186126
  0
HATCH
  5
3CB
330
3C7
100
AcDbEntity
  8
Default
  6
Continuous
 62
     7
 48
25.4
100
AcDbHatch
 10
0.0
 20
0.0
 30
0.0
210
0.0
220
0.0
230
1.0
  2
SOLID
 70
     1
 71
     0
 91
        1
 92
        1
 93
        3
 72
     1
 10
442.8130420469084
 20
397.303270712479
 11
438.8009022565055
 21
396.7140506272399
 72
     1
 10
438.8009022565055
 20
396.7140506272399
 11
442.7872680318289
 21
395.9701864515246
 72
     1
 10
442.7872680318289
 20
395.9701864515246
 11
442.8130420469084
 21
397.303270712479
 97
        0
 75
     0
 76
     1
 98
        0
  0
LWPOLYLINE
  5
3CC
330
3C7
100
AcDbEntity
  8
Default
  6
Continuous
 62
     7
 48
25.4
370
    20
100
AcDbPolyline
 90
        4
 70
     1
 43
0.0
 10
442.8130420469
 20
397.3032707125
 10
438.8009022565
 20
396.7140506272
 10
442.7872680318
 20
395.9701864515
 10
442.8130420469
 20
397.3032707125
  0
LINE
  5
3CD
330
3C7
100
AcDbEntity
  8
Default
  6
Continuous
 62
     7
 48
25.4
100
AcDbLine
 10
483.331931058
 20
318.9672625874
 30
0.0
 11
530.1291595351
 21
345.985655046
 31
0.0
  0
LINE
  5
3CE
330
3C7
100
AcDbEntity
  8
Default
  6
Continuous
 62
     7
 48
25.4
100
AcDbLine
 10
438.8009052713
 20
293.2572628622
 30
0.0
 11
438.8009052713
 21
398.7140472298
 31
0.0
  0
ARC
  5
3CF
330
3C7
100
AcDbEntity
  8
Default
  6
Continuous
 62
     7
 48
25.4
100
AcDbCircle
 10
438.8009052713
 20
293.2572628622
 30
0.0
 40
103.456787765026
100
AcDbArc
 50
30.0
 51
90.0000016697
  0
TEXT
  5
3D0
330
3C7
100
AcDbEntity
  8
Default
  6
Continuous
 62
     7
 48
25.4
100
AcDbText
 10
487.3392778682
 20
385.8499294471
 30
0.0
 40
4.0
  1
60°
 50
330.0
  7
SEACAD_arial_ttf
 11
489.3392778682
 21
389.3140310622
 31
0.0
100
AcDbText
 73
     3
  0
ENDBLK
  5
3D2
330
3C7
100
AcDbEntity
  8
0
100
AcDbBlockEnd
  0
BLOCK
  5
3DD
330
3D3
100
AcDbEntity
  8
0
100
AcDbBlockBegin
  2
GDimGGroup21
 70
     0
 71
     0
 10
0.0
 20
0.0
 30
0.0
  3
GDimGGroup21
  1

  0
HATCH
  5
3D5
330
3D3
100
AcDbEntity
  8
Default
  6
Continuous
 62
     7
 48
25.4
100
AcDbHatch
 10
0.0
 20
0.0
 30
0.0
210
0.0
220
0.0
230
1.0
  2
SOLID
 70
     1
 71
     0
 91
        1
 92
        1
 93
        3
 72
     1
 10
536.9822233732656
 20
323.6918572713099
 11
538.7324884784778
 21
320.033849880932
 72
     1
 10
538.7324884784778
 20
320.033849880932
 11
538.2632130731294
 21
324.0617806897367
 72
     1
 10
538.2632130731295
 20
324.0617806897367
 11
536.9822233732657
 21
323.6918572713099
 97
        0
 75
     0
 76
     1
 98
        0
  0
LWPOLYLINE
  5
3D6
330
3D3
100
AcDbEntity
  8
Default
  6
Continuous
 62
     7
 48
25.4
370
    20
100
AcDbPolyline
 90
        4
 70
     1
 43
0.0
 10
536.9822233733
 20
323.6918572713
 10
538.7324884785
 20
320.0338498809
 10
538.2632130731
 20
324.0617806897
 10
536.9822233733
 20
323.6918572713
  0
HATCH
  5
3D7
330
3D3
100
AcDbEntity
  8
Default
  6
Continuous
 62
     7
 48
25.4
100
AcDbHatch
 10
0.0
 20
0.0
 30
0.0
210
0.0
220
0.0
230
1.0
  2
SOLID
 70
     1
 71
     0
 91
        1
 92
        1
 93
        3
 72
     1
 10
530.9134606808638
 20
341.8056524030557
 11
528.3971112929264
 21
344.985657397456
 72
     1
 10
528.3971112929264
 20
344.985657397456
 11
529.7460888238724
 21
341.1614312499085
 72
     1
 10
529.7460888238725
 20
341.1614312499085
 11
530.9134606808639
 21
341.8056524030557
 97
        0
 75
     0
 76
     1
 98
        0
  0
LWPOLYLINE
  5
3D8
330
3D3
100
AcDbEntity
  8
Default
  6
Continuous
 62
     7
 48
25.4
370
    20
100
AcDbPolyline
 90
        4
 70
     1
 43
0.0
 10
530.9134606809
 20
341.8056524031
 10
528.3971112929
 20
344.9856573975
 10
529.7460888239
 20
341.1614312499
 10
530.9134606809
 20
341.8056524031
  0
LINE
  5
3D9
330
3D3
100
AcDbEntity
  8
Default
  6
Continuous
 62
     7
 48
25.4
100
AcDbLine
 10
493.8586773986
 20
308.0099484408
 30
0.0
 11
540.6643368494
 21
320.5514870918
 31
0.0
  0
LINE
  5
3DA
330
3D3
100
AcDbEntity
  8
Default
  6
Continuous
 62
     7
 48
25.4
100
AcDbLine
 10
483.331931058
 20
318.9672625874
 30
0.0
 11
530.1291595351
 21
345.985655046
 31
0.0
  0
ARC
  5
3DB
330
3D3
100
AcDbEntity
  8
Default
  6
Continuous
 62
     7
 48
25.4
100
AcDbCircle
 10
438.8009052713
 20
293.2572628622
 30
0.0
 40
103.4567877650281
100
AcDbArc
 50
15.0
 51
30.0000004174
  0
TEXT
  5
3DC
330
3D3
100
AcDbEntity
  8
Default
  6
Continuous
 62
     7
 48
25.4
100
AcDbText
 10
533.6758293292
 20
337.16767512
 30
0.0
 40
4.0
  1
15°
 50
292.5
  7
SEACAD_arial_ttf
 11
537.3713474593
 21
338.6984088494
 31
0.0
100
AcDbText
 73
     3
  0
ENDBLK
  5
3DE
330
3D3
100
AcDbEntity
  8
0
100
AcDbBlockEnd
  0
BLOCK
  5
3E9
330
3DF
100
AcDbEntity
  8
0
100
AcDbBlockBegin
  2
GDimGGroup22
 70
     0
 71
     0
 10
0.0
 20
0.0
 30
0.0
  3
GDimGGroup22
  1

  0
HATCH
  5
3E1
330
3DF
100
AcDbEntity
  8
Default
  6
Continuous
 62
     7
 48
25.4
100
AcDbHatch
 10
0.0
 20
0.0
 30
0.0
210
0.0
220
0.0
230
1.0
  2
SOLID
 70
     1
 71
     0
 91
        1
 92
        1
 93
        3
 72
     1
 10
541.5138287481368
 20
297.2436286165435
 11
542.2576930363582
 21
293.2572628622139
 72
     1
 10
542.2576930363582
 20
293.2572628622139
 11
542.8469130083639
 21
297.2694026692461
 72
     1
 10
542.8469130083638
 20
297.2694026692461
 11
541.5138287481368
 21
297.2436286165435
 97
        0
 75
     0
 76
     1
 98
        0
  0
LWPOLYLINE
  5
3E2
330
3DF
100
AcDbEntity
  8
Default
  6
Continuous
 62
     7
 48
25.4
370
    20
100
AcDbPolyline
 90
        4
 70
     1
 43
0.0
 10
541.5138287481
 20
297.2436286165
 10
542.2576930364
 20
293.2572628622
 10
542.8469130084
 20
297.2694026692
 10
541.5138287481
 20
297.2436286165
  0
HATCH
  5
3E3
330
3DF
100
AcDbEntity
  8
Default
  6
Continuous
 62
     7
 48
25.4
100
AcDbHatch
 10
0.0
 20
0.0
 30
0.0
210
0.0
220
0.0
230
1.0
  2
SOLID
 70
     1
 71
     0
 91
        1
 92
        1
 93
        3
 72
     1
 10
540.3400492891074
 20
316.3109225114072
 11
538.732488283404
 21
320.0338506089568
 72
     1
 10
538.732488283404
 20
320.0338506089568
 11
539.0457179598641
 21
315.9907907310466
 72
     1
 10
539.0457179598641
 20
315.9907907310466
 11
540.3400492891074
 21
316.3109225114072
 97
        0
 75
     0
 76
     1
 98
        0
  0
LWPOLYLINE
  5
3E4
330
3DF
100
AcDbEntity
  8
Default
  6
Continuous
 62
     7
 48
25.4
370
    20
100
AcDbPolyline
 90
        4
 70
     1
 43
0.0
 10
540.3400492891
 20
316.3109225114
 10
538.7324882834
 20
320.033850609
 10
539.0457179599
 20
315.990790731
 10
540.3400492891
 20
316.3109225114
  0
LINE
  5
3E5
330
3DF
100
AcDbEntity
  8
Default
  6
Continuous
 62
     7
 48
25.4
100
AcDbLine
 10
543.4903394421
 20
293.2572628622
 30
0.0
 11
540.2576964338
 21
293.2572628622
 31
0.0
  0
LINE
  5
3E6
330
3DF
100
AcDbEntity
  8
Default
  6
Continuous
 62
     7
 48
25.4
100
AcDbLine
 10
493.8586773986
 20
308.0099484408
 30
0.0
 11
540.6643368494
 21
320.5514870918
 31
0.0
  0
ARC
  5
3E7
330
3DF
100
AcDbEntity
  8
Default
  6
Continuous
 62
     7
 48
25.4
100
AcDbCircle
 10
438.8009052713
 20
293.2572628622
 30
0.0
 40
103.4567877650258
100
AcDbArc
 50
0.0
 51
15.0000004174
  0
TEXT
  5
3E8
330
3DF
100
AcDbEntity
  8
Default
  6
Continuous
 62
     7
 48
25.4
100
AcDbText
 10
541.8078956567
 20
311.1160268561
 30
0.0
 40
4.0
  1
15°
 50
277.5
  7
SEACAD_arial_ttf
 11
545.7736751022
 21
311.638131625
 31
0.0
100
AcDbText
 73
     3
  0
ENDBLK
  5
3EA
330
3DF
100
AcDbEntity
  8
0
100
AcDbBlockEnd
  0
BLOCK
  5
3F5
330
3EB
100
AcDbEntity
  8
0
100
AcDbBlockBegin
  2
GDimGGroup23
 70
     0
 71
     0
 10
0.0
 20
0.0
 30
0.0
  3
GDimGGroup23
  1

  0
HATCH
  5
3ED
330
3EB
100
AcDbEntity
  8
Default
  6
Continuous
 62
     7
 48
25.4
100
AcDbHatch
 10
0.0
 20
0.0
 30
0.0
210
0.0
220
0.0
230
1.0
  2
SOLID
 70
     1
 71
     0
 91
        1
 92
        1
 93
        3
 72
     1
 10
529.7459133472852
 20
245.352761329017
 11
528.396921804176
 21
241.5285401242222
 72
     1
 10
528.3969218041759
 20
241.5285401242222
 11
530.9132828438073
 21
244.7085358985603
 72
     1
 10
530.9132828438073
 20
244.7085358985603
 11
529.7459133472852
 21
245.352761329017
 97
        0
 75
     0
 76
     1
 98
        0
  0
LWPOLYLINE
  5
3EE
330
3EB
100
AcDbEntity
  8
Default
  6
Continuous
 62
     7
 48
25.4
370
    20
100
AcDbPolyline
 90
        4
 70
     1
 43
0.0
 10
529.7459133473
 20
245.352761329
 10
528.3969218042
 20
241.5285401242
 10
530.9132828438
 20
244.7085358986
 10
529.7459133473
 20
245.352761329
  0
HATCH
  5
3EF
330
3EB
100
AcDbEntity
  8
Default
  6
Continuous
 62
     7
 48
25.4
100
AcDbHatch
 10
0.0
 20
0.0
 30
0.0
210
0.0
220
0.0
230
1.0
  2
SOLID
 70
     1
 71
     0
 91
        1
 92
        1
 93
        3
 72
     1
 10
542.8469129245672
 20
289.2451209770982
 11
542.2576930363581
 21
293.2572607964368
 72
     1
 10
542.2576930363582
 20
293.2572607964367
 11
541.5138286648787
 21
289.2708950576433
 72
     1
 10
541.5138286648786
 20
289.2708950576433
 11
542.8469129245672
 21
289.2451209770982
 97
        0
 75
     0
 76
     1
 98
        0
  0
LWPOLYLINE
  5
3F0
330
3EB
100
AcDbEntity
  8
Default
  6
Continuous
 62
     7
 48
25.4
370
    20
100
AcDbPolyline
 90
        4
 70
     1
 43
0.0
 10
542.8469129246
 20
289.2451209771
 10
542.2576930364
 20
293.2572607964
 10
541.5138286649
 20
289.2708950576
 10
542.8469129246
 20
289.2451209771
  0
LINE
  5
3F1
330
3EB
100
AcDbEntity
  8
Default
  6
Continuous
 62
     7
 48
25.4
100
AcDbLine
 10
500.1153730071
 20
257.8570383425
 30
0.0
 11
530.128965999
 21
240.5285354656
 31
0.0
  0
LINE
  5
3F2
330
3EB
100
AcDbEntity
  8
Default
  6
Continuous
 62
     7
 48
25.4
100
AcDbLine
 10
543.4903394421
 20
293.2572628622
 30
0.0
 11
540.2576964338
 21
293.2572628622
 31
0.0
  0
ARC
  5
3F3
330
3EB
100
AcDbEntity
  8
Default
  6
Continuous
 62
     7
 48
25.4
100
AcDbCircle
 10
438.8009052713
 20
293.2572628622
 30
0.0
 40
103.4567877650244
100
AcDbArc
 50
329.9997897003
 51
359.9999988559
  0
TEXT
  5
3F4
330
3EB
100
AcDbEntity
  8
Default
  6
Continuous
 62
     7
 48
25.4
100
AcDbText
 10
536.663712241
 20
262.6236313342
 30
0.0
 40
4.0
  1
30°
 50
74.9998948502
  7
SEACAD_arial_ttf
 11
532.8000108358
 21
263.6589146053
 31
0.0
100
AcDbText
 73
     3
  0
ENDBLK
  5
3F6
330
3EB
100
AcDbEntity
  8
0
100
AcDbBlockEnd
  0
BLOCK
  5
402
330
3F7
100
AcDbEntity
  8
0
100
AcDbBlockBegin
  2
GDimGGroup24
 70
     0
 71
     0
 10
0.0
 20
0.0
 30
0.0
  3
GDimGGroup24
  1

  0
HATCH
  5
3F9
330
3F7
100
AcDbEntity
  8
Default
  6
Continuous
 62
     7
 48
25.4
100
AcDbHatch
 10
0.0
 20
0.0
 30
0.0
210
0.0
220
0.0
230
1.0
  2
SOLID
 70
     1
 71
     0
 91
        1
 92
        1
 93
        3
 72
     1
 10
26.55199712778097
 20
206.1791833434886
 11
27.2186638261126
 21
202.1791831534988
 72
     1
 10
27.2186638261126
 20
202.1791831534988
 11
27.88533052444424
 21
206.1791833434886
 72
     1
 10
27.88533052444424
 20
206.1791833434886
 11
26.55199712778097
 21
206.1791833434886
 97
        0
 75
     0
 76
     1
 98
        0
  0
LWPOLYLINE
  5
3FA
330
3F7
100
AcDbEntity
  8
Default
  6
Continuous
 62
     7
 48
25.4
370
    20
100
AcDbPolyline
 90
        4
 70
     1
 43
0.0
 10
26.5519971278
 20
206.1791833435
 10
27.2186638261
 20
202.1791831535
 10
27.8853305244
 20
206.1791833435
 10
26.5519971278
 20
206.1791833435
  0
HATCH
  5
3FB
330
3F7
100
AcDbEntity
  8
Default
  6
Continuous
 62
     7
 48
25.4
100
AcDbHatch
 10
0.0
 20
0.0
 30
0.0
210
0.0
220
0.0
230
1.0
  2
SOLID
 70
     1
 71
     0
 91
        1
 92
        1
 93
        3
 72
     1
 10
26.55199712778097
 20
380.5791860391087
 11
27.88533052444424
 21
380.5791860391087
 72
     1
 10
27.88533052444424
 20
380.5791860391087
 11
27.2186638261126
 21
384.5791862290985
 72
     1
 10
27.2186638261126
 20
384.5791862290985
 11
26.55199712778097
 21
380.5791860391087
 97
        0
 75
     0
 76
     1
 98
        0
  0
LWPOLYLINE
  5
3FC
330
3F7
100
AcDbEntity
  8
Default
  6
Continuous
 62
     7
 48
25.4
370
    20
100
AcDbPolyline
 90
        4
 70
     1
 43
0.0
 10
26.5519971278
 20
380.5791860391
 10
27.2186638261
 20
384.5791862291
 10
27.8853305244
 20
380.5791860391
 10
26.5519971278
 20
380.5791860391
  0
LINE
  5
3FD
330
3F7
100
AcDbEntity
  8
Default
  6
Continuous
 62
     7
 48
25.4
100
AcDbLine
 10
142.7215279485
 20
202.1791831535
 30
0.0
 11
25.2186637311
 21
202.1791831535
 31
0.0
  0
LINE
  5
3FE
330
3F7
100
AcDbEntity
  8
Default
  6
Continuous
 62
     7
 48
25.4
100
AcDbLine
 10
142.7215279485
 20
384.5791831535
 30
0.0
 11
25.2186637311
 21
384.5791831535
 31
0.0
  0
LINE
  5
3FF
330
3F7
100
AcDbEntity
  8
Default
  6
Continuous
 62
     7
 48
25.4
100
AcDbLine
 10
27.2186638261
 20
202.1791831535
 30
0.0
 11
27.2186638261
 21
384.5791862291
 31
0.0
  0
TEXT
  5
400
330
3F7
100
AcDbEntity
  8
Default
  6
Continuous
 62
     7
 48
25.4
100
AcDbText
 10
26.2186638261
 20
292.3642342718
 30
0.0
 40
4.0
  1
304
 50
90.0
  7
SEACAD_arial_ttf
 11
22.2186638261
 21
292.3642342718
 31
0.0
100
AcDbText
 73
     3
  0
TEXT
  5
401
330
3F7
100
AcDbEntity
  8
Default
  6
Continuous
 62
     7
 48
25.4
100
AcDbText
 10
26.2186638261
 20
285.002830763
 30
0.0
 40
4.0
  1
O
 50
90.0
  7
SEACAD_semeca1_ttf
 11
22.2186638261
 21
285.002830763
 31
0.0
100
AcDbText
 73
     3
  0
ENDBLK
  5
403
330
3F7
100
AcDbEntity
  8
0
100
AcDbBlockEnd
  0
BLOCK
  5
40F
330
404
100
AcDbEntity
  8
0
100
AcDbBlockBegin
  2
GDimGGroup25
 70
     0
 71
     0
 10
0.0
 20
0.0
 30
0.0
  3
GDimGGroup25
  1

  0
HATCH
  5
406
330
404
100
AcDbEntity
  8
Default
  6
Continuous
 62
     7
 48
25.4
100
AcDbHatch
 10
0.0
 20
0.0
 30
0.0
210
0.0
220
0.0
230
1.0
  2
SOLID
 70
     1
 71
     0
 91
        1
 92
        1
 93
        3
 72
     1
 10
96.4342938044167
 20
272.4791833434886
 11
97.10096050274834
 21
268.4791831534988
 72
     1
 10
97.10096050274834
 20
268.4791831534988
 11
97.76762720107998
 21
272.4791833434886
 72
     1
 10
97.76762720107998
 20
272.4791833434886
 11
96.4342938044167
 21
272.4791833434886
 97
        0
 75
     0
 76
     1
 98
        0
  0
LWPOLYLINE
  5
407
330
404
100
AcDbEntity
  8
Default
  6
Continuous
 62
     7
 48
25.4
370
    20
100
AcDbPolyline
 90
        4
 70
     1
 43
0.0
 10
96.4342938044
 20
272.4791833435
 10
97.1009605027
 20
268.4791831535
 10
97.7676272011
 20
272.4791833435
 10
96.4342938044
 20
272.4791833435
  0
HATCH
  5
408
330
404
100
AcDbEntity
  8
Default
  6
Continuous
 62
     7
 48
25.4
100
AcDbHatch
 10
0.0
 20
0.0
 30
0.0
210
0.0
220
0.0
230
1.0
  2
SOLID
 70
     1
 71
     0
 91
        1
 92
        1
 93
        3
 72
     1
 10
96.4342938044167
 20
314.2791840483135
 11
97.76762720107998
 21
314.2791840483135
 72
     1
 10
97.76762720107998
 20
314.2791840483135
 11
97.10096050274834
 21
318.2791842383033
 72
     1
 10
97.10096050274834
 20
318.2791842383033
 11
96.4342938044167
 21
314.2791840483135
 97
        0
 75
     0
 76
     1
 98
        0
  0
LWPOLYLINE
  5
409
330
404
100
AcDbEntity
  8
Default
  6
Continuous
 62
     7
 48
25.4
370
    20
100
AcDbPolyline
 90
        4
 70
     1
 43
0.0
 10
96.4342938044
 20
314.2791840483
 10
97.1009605027
 20
318.2791842383
 10
97.7676272011
 20
314.2791840483
 10
96.4342938044
 20
314.2791840483
  0
LINE
  5
40A
330
404
100
AcDbEntity
  8
Default
  6
Continuous
 62
     7
 48
25.4
100
AcDbLine
 10
150.3415279485
 20
268.4791831535
 30
0.0
 11
95.1009604078
 21
268.4791831535
 31
0.0
  0
LINE
  5
40B
330
404
100
AcDbEntity
  8
Default
  6
Continuous
 62
     7
 48
25.4
100
AcDbLine
 10
150.3415279485
 20
318.2791831535
 30
0.0
 11
95.1009604078
 21
318.2791831535
 31
0.0
  0
LINE
  5
40C
330
404
100
AcDbEntity
  8
Default
  6
Continuous
 62
     7
 48
25.4
100
AcDbLine
 10
97.1009605027
 20
268.4791831535
 30
0.0
 11
97.1009605027
 21
318.2791842383
 31
0.0
  0
TEXT
  5
40D
330
404
100
AcDbEntity
  8
Default
  6
Continuous
 62
     7
 48
25.4
100
AcDbText
 10
96.1009605027
 20
293.9294506677
 30
0.0
 40
4.0
  1
83
 50
90.0
  7
SEACAD_arial_ttf
 11
92.1009605027
 21
293.9294506677
 31
0.0
100
AcDbText
 73
     3
  0
TEXT
  5
40E
330
404
100
AcDbEntity
  8
Default
  6
Continuous
 62
     7
 48
25.4
100
AcDbText
 10
96.1009605027
 20
286.5680471589
 30
0.0
 40
4.0
  1
O
 50
90.0
  7
SEACAD_semeca1_ttf
 11
92.1009605027
 21
286.5680471589
 31
0.0
100
AcDbText
 73
     3
  0
ENDBLK
  5
410
330
404
100
AcDbEntity
  8
0
100
AcDbBlockEnd
  0
BLOCK
  5
41B
330
411
100
AcDbEntity
  8
0
100
AcDbBlockBegin
  2
GDimGGroup26
 70
     0
 71
     0
 10
0.0
 20
0.0
 30
0.0
  3
GDimGGroup26
  1

  0
HATCH
  5
413
330
411
100
AcDbEntity
  8
Default
  6
Continuous
 62
     7
 48
25.4
100
AcDbHatch
 10
0.0
 20
0.0
 30
0.0
210
0.0
220
0.0
230
1.0
  2
SOLID
 70
     1
 71
     0
 91
        1
 92
        1
 93
        3
 72
     1
 10
145.4415277585135
 20
302.5418633466598
 11
149.4415279485033
 21
303.2085300449915
 72
     1
 10
149.4415279485033
 20
303.2085300449915
 11
145.4415277585135
 21
303.8751967433231
 72
     1
 10
145.4415277585135
 20
303.8751967433231
 11
145.4415277585135
 21
302.5418633466598
 97
        0
 75
     0
 76
     1
 98
        0
  0
LWPOLYLINE
  5
414
330
411
100
AcDbEntity
  8
Default
  6
Continuous
 62
     7
 48
25.4
370
    20
100
AcDbPolyline
 90
        4
 70
     1
 43
0.0
 10
145.4415277585
 20
302.5418633467
 10
149.4415279485
 20
303.208530045
 10
145.4415277585
 20
303.8751967433
 10
145.4415277585
 20
302.5418633467
  0
HATCH
  5
415
330
411
100
AcDbEntity
  8
Default
  6
Continuous
 62
     7
 48
25.4
100
AcDbHatch
 10
0.0
 20
0.0
 30
0.0
210
0.0
220
0.0
230
1.0
  2
SOLID
 70
     1
 71
     0
 91
        1
 92
        1
 93
        3
 72
     1
 10
137.7215281384931
 20
302.5418633466598
 11
137.7215281384931
 21
303.8751967433231
 72
     1
 10
137.7215281384931
 20
303.8751967433231
 11
133.7215279485033
 21
303.2085300449915
 72
     1
 10
133.7215279485033
 20
303.2085300449915
 11
137.7215281384931
 21
302.5418633466598
 97
        0
 75
     0
 76
     1
 98
        0
  0
LWPOLYLINE
  5
416
330
411
100
AcDbEntity
  8
Default
  6
Continuous
 62
     7
 48
25.4
370
    20
100
AcDbPolyline
 90
        4
 70
     1
 43
0.0
 10
137.7215281385
 20
302.5418633467
 10
133.7215279485
 20
303.208530045
 10
137.7215281385
 20
303.8751967433
 10
137.7215281385
 20
302.5418633467
  0
LINE
  5
417
330
411
100
AcDbEntity
  8
Default
  6
Continuous
 62
     7
 48
25.4
100
AcDbLine
 10
149.4415279485
 20
303.208530045
 30
0.0
 11
104.2580556132
 21
303.208530045
 31
0.0
  0
TEXT
  5
418
330
411
100
AcDbEntity
  8
Default
  6
Continuous
 62
     7
 48
25.4
100
AcDbText
 10
120.3710982672
 20
310.208530045
 30
0.0
 40
4.0
  1
26.2
  7
SEACAD_arial_ttf
 11
120.3710982672
 21
314.208530045
 31
0.0
100
AcDbText
 73
     3
  0
TEXT
  5
419
330
411
100
AcDbEntity
  8
Default
  6
Continuous
 62
     7
 48
25.4
100
AcDbText
 10
105.6580547889
 20
310.208530045
 30
0.0
 40
4.0
  1
MAX
  7
SEACAD_arial_ttf
 11
105.6580547889
 21
314.208530045
 31
0.0
100
AcDbText
 73
     3
  0
TEXT
  5
41A
330
411
100
AcDbEntity
  8
Default
  6
Continuous
 62
     7
 48
25.4
100
AcDbText
 10
105.6580547889
 20
304.208530045
 30
0.0
 40
4.0
  1
MIN 1.2
  7
SEACAD_arial_ttf
 11
105.6580547889
 21
308.208530045
 31
0.0
100
AcDbText
 73
     3
  0
ENDBLK
  5
41C
330
411
100
AcDbEntity
  8
0
100
AcDbBlockEnd
  0
BLOCK
  5
426
330
41D
100
AcDbEntity
  8
0
100
AcDbBlockBegin
  2
GDimGGroup27
 70
     0
 71
     0
 10
0.0
 20
0.0
 30
0.0
  3
GDimGGroup27
  1

  0
HATCH
  5
41F
330
41D
100
AcDbEntity
  8
Default
  6
Continuous
 62
     7
 48
25.4
100
AcDbHatch
 10
0.0
 20
0.0
 30
0.0
210
0.0
220
0.0
230
1.0
  2
SOLID
 70
     1
 71
     0
 91
        1
 92
        1
 93
        3
 72
     1
 10
204.4633657906342
 20
278.4791833434887
 11
203.130032393971
 21
278.4791833434887
 72
     1
 10
203.130032393971
 20
278.4791833434887
 11
203.7966990923026
 21
274.4791831534989
 72
     1
 10
203.7966990923026
 20
274.4791831534989
 11
204.4633657906342
 21
278.4791833434887
 97
        0
 75
     0
 76
     1
 98
        0
  0
LWPOLYLINE
  5
420
330
41D
100
AcDbEntity
  8
Default
  6
Continuous
 62
     7
 48
25.4
370
    20
100
AcDbPolyline
 90
        4
 70
     1
 43
0.0
 10
204.4633657906
 20
278.4791833435
 10
203.7966990923
 20
274.4791831535
 10
203.130032394
 20
278.4791833435
 10
204.4633657906
 20
278.4791833435
  0
HATCH
  5
421
330
41D
100
AcDbEntity
  8
Default
  6
Continuous
 62
     7
 48
25.4
100
AcDbHatch
 10
0.0
 20
0.0
 30
0.0
210
0.0
220
0.0
230
1.0
  2
SOLID
 70
     1
 71
     0
 91
        1
 92
        1
 93
        3
 72
     1
 10
204.4633657906342
 20
308.2791820813603
 11
203.7966990923026
 21
312.2791822713501
 72
     1
 10
203.7966990923026
 20
312.2791822713501
 11
203.130032393971
 21
308.2791820813603
 72
     1
 10
203.130032393971
 20
308.2791820813603
 11
204.4633657906342
 21
308.2791820813603
 97
        0
 75
     0
 76
     1
 98
        0
  0
LWPOLYLINE
  5
422
330
41D
100
AcDbEntity
  8
Default
  6
Continuous
 62
     7
 48
25.4
370
    20
100
AcDbPolyline
 90
        4
 70
     1
 43
0.0
 10
204.4633657906
 20
308.2791820814
 10
203.7966990923
 20
312.2791822714
 10
203.130032394
 20
308.2791820814
 10
204.4633657906
 20
308.2791820814
  0
LINE
  5
423
330
41D
100
AcDbEntity
  8
Default
  6
Continuous
 62
     7
 48
25.4
100
AcDbLine
 10
203.7966990923
 20
274.4791831535
 30
0.0
 11
203.7966990923
 21
312.2791822714
 31
0.0
  0
TEXT
  5
424
330
41D
100
AcDbEntity
  8
Default
  6
Continuous
 62
     7
 48
25.4
100
AcDbText
 10
202.7966990923
 20
293.9294496842
 30
0.0
 40
4.0
  1
63
 50
90.0
  7
SEACAD_arial_ttf
 11
198.7966990923
 21
293.9294496842
 31
0.0
100
AcDbText
 73
     3
  0
TEXT
  5
425
330
41D
100
AcDbEntity
  8
Default
  6
Continuous
 62
     7
 48
25.4
100
AcDbText
 10
202.7966990923
 20
286.5680461754
 30
0.0
 40
4.0
  1
O
 50
90.0
  7
SEACAD_semeca1_ttf
 11
198.7966990923
 21
286.5680461754
 31
0.0
100
AcDbText
 73
     3
  0
ENDBLK
  5
427
330
41D
100
AcDbEntity
  8
0
100
AcDbBlockEnd
  0
BLOCK
  5
432
330
428
100
AcDbEntity
  8
0
100
AcDbBlockBegin
  2
GDimGGroup28
 70
     0
 71
     0
 10
0.0
 20
0.0
 30
0.0
  3
GDimGGroup28
  1

  0
HATCH
  5
42A
330
428
100
AcDbEntity
  8
Default
  6
Continuous
 62
     7
 48
25.4
100
AcDbHatch
 10
0.0
 20
0.0
 30
0.0
210
0.0
220
0.0
230
1.0
  2
SOLID
 70
     1
 71
     0
 91
        1
 92
        1
 93
        3
 72
     1
 10
148.5215281384932
 20
188.0405337877211
 11
148.5215281384932
 21
189.3738671843844
 72
     1
 10
148.5215281384932
 20
189.3738671843844
 11
144.5215279485034
 21
188.7072004860527
 72
     1
 10
144.5215279485034
 20
188.7072004860527
 11
148.5215281384932
 21
188.0405337877211
 97
        0
 75
     0
 76
     1
 98
        0
  0
LWPOLYLINE
  5
42B
330
428
100
AcDbEntity
  8
Default
  6
Continuous
 62
     7
 48
25.4
370
    20
100
AcDbPolyline
 90
        4
 70
     1
 43
0.0
 10
148.5215281385
 20
188.0405337877
 10
144.5215279485
 20
188.7072004861
 10
148.5215281385
 20
189.3738671844
 10
148.5215281385
 20
188.0405337877
  0
HATCH
  5
42C
330
428
100
AcDbEntity
  8
Default
  6
Continuous
 62
     7
 48
25.4
100
AcDbHatch
 10
0.0
 20
0.0
 30
0.0
210
0.0
220
0.0
230
1.0
  2
SOLID
 70
     1
 71
     0
 91
        1
 92
        1
 93
        3
 72
     1
 10
129.7215277585135
 20
188.0405337877211
 11
133.7215279485033
 21
188.7072004860527
 72
     1
 10
133.7215279485033
 20
188.7072004860527
 11
129.7215277585135
 21
189.3738671843844
 72
     1
 10
129.7215277585135
 20
189.3738671843844
 11
129.7215277585135
 21
188.0405337877211
 97
        0
 75
     0
 76
     1
 98
        0
  0
LWPOLYLINE
  5
42D
330
428
100
AcDbEntity
  8
Default
  6
Continuous
 62
     7
 48
25.4
370
    20
100
AcDbPolyline
 90
        4
 70
     1
 43
0.0
 10
129.7215277585
 20
188.0405337877
 10
133.7215279485
 20
188.7072004861
 10
129.7215277585
 20
189.3738671844
 10
129.7215277585
 20
188.0405337877
  0
LINE
  5
42E
330
428
100
AcDbEntity
  8
Default
  6
Continuous
 62
     7
 48
25.4
100
AcDbLine
 10
144.5215279485
 20
232.4191831535
 30
0.0
 11
144.5215279485
 21
186.7072003911
 31
0.0
  0
LINE
  5
42F
330
428
100
AcDbEntity
  8
Default
  6
Continuous
 62
     7
 48
25.4
100
AcDbLine
 10
133.7215279485
 20
232.7191831535
 30
0.0
 11
133.7215279485
 21
186.7072003911
 31
0.0
  0
LINE
  5
430
330
428
100
AcDbEntity
  8
Default
  6
Continuous
 62
     7
 48
25.4
100
AcDbLine
 10
152.5215283285
 20
188.7072004861
 30
0.0
 11
125.7215282197
 21
188.7072004861
 31
0.0
  0
TEXT
  5
431
330
428
100
AcDbEntity
  8
Default
  6
Continuous
 62
     7
 48
25.4
100
AcDbText
 10
135.9910930258
 20
189.7072004861
 30
0.0
 40
4.0
  1
18
  7
SEACAD_arial_ttf
 11
135.9910930258
 21
193.7072004861
 31
0.0
100
AcDbText
 73
     3
  0
ENDBLK
  5
433
330
428
100
AcDbEntity
  8
0
100
AcDbBlockEnd
  0
BLOCK
  5
43E
330
434
100
AcDbEntity
  8
0
100
AcDbBlockBegin
  2
GDimGGroup29
 70
     0
 71
     0
 10
0.0
 20
0.0
 30
0.0
  3
GDimGGroup29
  1

  0
HATCH
  5
436
330
434
100
AcDbEntity
  8
Default
  6
Continuous
 62
     7
 48
25.4
100
AcDbHatch
 10
0.0
 20
0.0
 30
0.0
210
0.0
220
0.0
230
1.0
  2
SOLID
 70
     1
 71
     0
 91
        1
 92
        1
 93
        3
 72
     1
 10
137.7215281384931
 20
173.9880780525145
 11
137.7215281384931
 21
175.3214114491777
 72
     1
 10
137.7215281384931
 20
175.3214114491777
 11
133.7215279485033
 21
174.6547447508461
 72
     1
 10
133.7215279485033
 20
174.6547447508461
 11
137.7215281384931
 21
173.9880780525145
 97
        0
 75
     0
 76
     1
 98
        0
  0
LWPOLYLINE
  5
437
330
434
100
AcDbEntity
  8
Default
  6
Continuous
 62
     7
 48
25.4
370
    20
100
AcDbPolyline
 90
        4
 70
     1
 43
0.0
 10
137.7215281385
 20
173.9880780525
 10
133.7215279485
 20
174.6547447508
 10
137.7215281385
 20
175.3214114492
 10
137.7215281385
 20
173.9880780525
  0
HATCH
  5
438
330
434
100
AcDbEntity
  8
Default
  6
Continuous
 62
     7
 48
25.4
100
AcDbHatch
 10
0.0
 20
0.0
 30
0.0
210
0.0
220
0.0
230
1.0
  2
SOLID
 70
     1
 71
     0
 91
        1
 92
        1
 93
        3
 72
     1
 10
220.3215265902625
 20
173.9880780525145
 11
224.3215267802523
 21
174.6547447508461
 72
     1
 10
224.3215267802523
 20
174.6547447508461
 11
220.3215265902625
 21
175.3214114491777
 72
     1
 10
220.3215265902625
 20
175.3214114491777
 11
220.3215265902625
 21
173.9880780525145
 97
        0
 75
     0
 76
     1
 98
        0
  0
LWPOLYLINE
  5
439
330
434
100
AcDbEntity
  8
Default
  6
Continuous
 62
     7
 48
25.4
370
    20
100
AcDbPolyline
 90
        4
 70
     1
 43
0.0
 10
220.3215265903
 20
173.9880780525
 10
224.3215267803
 20
174.6547447508
 10
220.3215265903
 20
175.3214114492
 10
220.3215265903
 20
173.9880780525
  0
LINE
  5
43A
330
434
100
AcDbEntity
  8
Default
  6
Continuous
 62
     7
 48
25.4
100
AcDbLine
 10
133.7215279485
 20
232.7191831535
 30
0.0
 11
133.7215279485
 21
172.6547446559
 31
0.0
  0
LINE
  5
43B
330
434
100
AcDbEntity
  8
Default
  6
Continuous
 62
     7
 48
25.4
100
AcDbLine
 10
224.3215279485
 20
203.3791831535
 30
0.0
 11
224.3215279485
 21
172.6547446559
 31
0.0
  0
LINE
  5
43C
330
434
100
AcDbEntity
  8
Default
  6
Continuous
 62
     7
 48
25.4
100
AcDbLine
 10
133.7215279485
 20
174.6547447508
 30
0.0
 11
224.3215267803
 21
174.6547447508
 31
0.0
  0
TEXT
  5
43D
330
434
100
AcDbEntity
  8
Default
  6
Continuous
 62
     7
 48
25.4
100
AcDbText
 10
174.3258751905
 20
175.6547447508
 30
0.0
 40
4.0
  1
151
  7
SEACAD_arial_ttf
 11
174.3258751905
 21
179.6547447508
 31
0.0
100
AcDbText
 73
     3
  0
ENDBLK
  5
43F
330
434
100
AcDbEntity
  8
0
100
AcDbBlockEnd
  0
BLOCK
  5
44A
330
440
100
AcDbEntity
  8
0
100
AcDbBlockBegin
  2
GDimGGroup30
 70
     0
 71
     0
 10
0.0
 20
0.0
 30
0.0
  3
GDimGGroup30
  1

  0
HATCH
  5
442
330
440
100
AcDbEntity
  8
Default
  6
Continuous
 62
     7
 48
25.4
100
AcDbHatch
 10
0.0
 20
0.0
 30
0.0
210
0.0
220
0.0
230
1.0
  2
SOLID
 70
     1
 71
     0
 91
        1
 92
        1
 93
        3
 72
     1
 10
129.7215277585135
 20
173.9880780525145
 11
133.7215279485033
 21
174.6547447508461
 72
     1
 10
133.7215279485033
 20
174.6547447508461
 11
129.7215277585135
 21
175.3214114491777
 72
     1
 10
129.7215277585135
 20
175.3214114491777
 11
129.7215277585135
 21
173.9880780525145
 97
        0
 75
     0
 76
     1
 98
        0
  0
LWPOLYLINE
  5
443
330
440
100
AcDbEntity
  8
Default
  6
Continuous
 62
     7
 48
25.4
370
    20
100
AcDbPolyline
 90
        4
 70
     1
 43
0.0
 10
129.7215277585
 20
173.9880780525
 10
133.7215279485
 20
174.6547447508
 10
129.7215277585
 20
175.3214114492
 10
129.7215277585
 20
173.9880780525
  0
HATCH
  5
444
330
440
100
AcDbEntity
  8
Default
  6
Continuous
 62
     7
 48
25.4
100
AcDbHatch
 10
0.0
 20
0.0
 30
0.0
210
0.0
220
0.0
230
1.0
  2
SOLID
 70
     1
 71
     0
 91
        1
 92
        1
 93
        3
 72
     1
 10
122.7215284737693
 20
173.9880780525145
 11
122.7215284737693
 21
175.3214114491777
 72
     1
 10
122.7215284737693
 20
175.3214114491777
 11
118.7215282837795
 21
174.6547447508461
 72
     1
 10
118.7215282837795
 20
174.6547447508461
 11
122.7215284737693
 21
173.9880780525145
 97
        0
 75
     0
 76
     1
 98
        0
  0
LWPOLYLINE
  5
445
330
440
100
AcDbEntity
  8
Default
  6
Continuous
 62
     7
 48
25.4
370
    20
100
AcDbPolyline
 90
        4
 70
     1
 43
0.0
 10
122.7215284738
 20
173.9880780525
 10
118.7215282838
 20
174.6547447508
 10
122.7215284738
 20
175.3214114492
 10
122.7215284738
 20
173.9880780525
  0
LINE
  5
446
330
440
100
AcDbEntity
  8
Default
  6
Continuous
 62
     7
 48
25.4
100
AcDbLine
 10
133.7215279485
 20
232.7191831535
 30
0.0
 11
133.7215279485
 21
172.6547446559
 31
0.0
  0
LINE
  5
447
330
440
100
AcDbEntity
  8
Default
  6
Continuous
 62
     7
 48
25.4
100
AcDbLine
 10
118.7215279485
 20
237.1591831535
 30
0.0
 11
118.7215279485
 21
172.6547446559
 31
0.0
  0
LINE
  5
448
330
440
100
AcDbEntity
  8
Default
  6
Continuous
 62
     7
 48
25.4
100
AcDbLine
 10
133.7215279485
 20
174.6547447508
 30
0.0
 11
118.7215282838
 21
174.6547447508
 31
0.0
  0
TEXT
  5
449
330
440
100
AcDbEntity
  8
Default
  6
Continuous
 62
     7
 48
25.4
100
AcDbText
 10
123.0910933335
 20
175.6547447508
 30
0.0
 40
4.0
  1
25
  7
SEACAD_arial_ttf
 11
123.0910933335
 21
179.6547447508
 31
0.0
100
AcDbText
 73
     3
  0
ENDBLK
  5
44B
330
440
100
AcDbEntity
  8
0
100
AcDbBlockEnd
  0
BLOCK
  5
457
330
44C
100
AcDbEntity
  8
0
100
AcDbBlockBegin
  2
GDimGGroup31
 70
     0
 71
     0
 10
0.0
 20
0.0
 30
0.0
  3
GDimGGroup31
  1

  0
HATCH
  5
44E
330
44C
100
AcDbEntity
  8
Default
  6
Continuous
 62
     7
 48
25.4
100
AcDbHatch
 10
0.0
 20
0.0
 30
0.0
210
0.0
220
0.0
230
1.0
  2
SOLID
 70
     1
 71
     0
 91
        1
 92
        1
 93
        3
 72
     1
 10
62.75607776905063
 20
255.4634833434886
 11
63.42274446738227
 21
251.4634831534988
 72
     1
 10
63.42274446738227
 20
251.4634831534988
 11
64.08941116571391
 21
255.4634833434886
 72
     1
 10
64.08941116571391
 20
255.4634833434886
 11
62.75607776905063
 21
255.4634833434886
 97
        0
 75
     0
 76
     1
 98
        0
  0
LWPOLYLINE
  5
44F
330
44C
100
AcDbEntity
  8
Default
  6
Continuous
 62
     7
 48
25.4
370
    20
100
AcDbPolyline
 90
        4
 70
     1
 43
0.0
 10
62.7560777691
 20
255.4634833435
 10
63.4227444674
 20
251.4634831535
 10
64.0894111657
 20
255.4634833435
 10
62.7560777691
 20
255.4634833435
  0
HATCH
  5
450
330
44C
100
AcDbEntity
  8
Default
  6
Continuous
 62
     7
 48
25.4
100
AcDbHatch
 10
0.0
 20
0.0
 30
0.0
210
0.0
220
0.0
230
1.0
  2
SOLID
 70
     1
 71
     0
 91
        1
 92
        1
 93
        3
 72
     1
 10
62.75607776905063
 20
331.294882642693
 11
64.08941116571391
 21
331.294882642693
 72
     1
 10
64.08941116571391
 20
331.294882642693
 11
63.42274446738227
 21
335.2948828326828
 72
     1
 10
63.42274446738227
 20
335.2948828326828
 11
62.75607776905063
 21
331.294882642693
 97
        0
 75
     0
 76
     1
 98
        0
  0
LWPOLYLINE
  5
451
330
44C
100
AcDbEntity
  8
Default
  6
Continuous
 62
     7
 48
25.4
370
    20
100
AcDbPolyline
 90
        4
 70
     1
 43
0.0
 10
62.7560777691
 20
331.2948826427
 10
63.4227444674
 20
335.2948828327
 10
64.0894111657
 20
331.2948826427
 10
62.7560777691
 20
331.2948826427
  0
LINE
  5
452
330
44C
100
AcDbEntity
  8
Default
  6
Continuous
 62
     7
 48
25.4
100
AcDbLine
 10
133.7215279485
 20
251.4634831535
 30
0.0
 11
61.4227443724
 21
251.4634831535
 31
0.0
  0
LINE
  5
453
330
44C
100
AcDbEntity
  8
Default
  6
Continuous
 62
     7
 48
25.4
100
AcDbLine
 10
133.7215279485
 20
335.2948831535
 30
0.0
 11
61.4227443724
 21
335.2948831535
 31
0.0
  0
LINE
  5
454
330
44C
100
AcDbEntity
  8
Default
  6
Continuous
 62
     7
 48
25.4
100
AcDbLine
 10
63.4227444674
 20
251.4634831535
 30
0.0
 11
63.4227444674
 21
335.2948828327
 31
0.0
  0
TEXT
  5
455
330
44C
100
AcDbEntity
  8
Default
  6
Continuous
 62
     7
 48
25.4
100
AcDbText
 10
62.4227444674
 20
286.885971704
 30
0.0
 40
4.0
  1
139.719
 50
90.0
  7
SEACAD_arial_ttf
 11
58.4227444674
 21
286.885971704
 31
0.0
100
AcDbText
 73
     3
  0
TEXT
  5
456
330
44C
100
AcDbEntity
  8
Default
  6
Continuous
 62
     7
 48
25.4
100
AcDbText
 10
62.4227444674
 20
279.5245681952
 30
0.0
 40
4.0
  1
O
 50
90.0
  7
SEACAD_semeca1_ttf
 11
58.4227444674
 21
279.5245681952
 31
0.0
100
AcDbText
 73
     3
  0
ENDBLK
  5
458
330
44C
100
AcDbEntity
  8
0
100
AcDbBlockEnd
  0
BLOCK
  5
465
330
459
100
AcDbEntity
  8
0
100
AcDbBlockBegin
  2
GDimGGroup32
 70
     0
 71
     0
 10
0.0
 20
0.0
 30
0.0
  3
GDimGGroup32
  1

  0
HATCH
  5
45B
330
459
100
AcDbEntity
  8
Default
  6
Continuous
 62
     7
 48
25.4
100
AcDbHatch
 10
0.0
 20
0.0
 30
0.0
210
0.0
220
0.0
230
1.0
  2
SOLID
 70
     1
 71
     0
 91
        1
 92
        1
 93
        3
 72
     1
 10
63.8931648429832
 20
347.9162444274624
 11
63.95205797667624
 21
343.861496888418
 72
     1
 10
63.95205797667624
 20
343.861496888418
 11
65.21140151152156
 21
347.7161693606036
 72
     1
 10
65.21140151152156
 20
347.7161693606036
 11
63.8931648429832
 21
347.9162444274623
 97
        0
 75
     0
 76
     1
 98
        0
  0
LWPOLYLINE
  5
45C
330
459
100
AcDbEntity
  8
Default
  6
Continuous
 62
     7
 48
25.4
370
    20
100
AcDbPolyline
 90
        4
 70
     1
 43
0.0
 10
63.893164843
 20
347.9162444275
 10
63.9520579767
 20
343.8614968884
 10
65.2114015115
 20
347.7161693606
 10
63.893164843
 20
347.9162444275
  0
HATCH
  5
45D
330
459
100
AcDbEntity
  8
Default
  6
Continuous
 62
     7
 48
25.4
100
AcDbHatch
 10
0.0
 20
0.0
 30
0.0
210
0.0
220
0.0
230
1.0
  2
SOLID
 70
     1
 71
     0
 91
        1
 92
        1
 93
        3
 72
     1
 10
64.20829161608722
 20
331.3154674567344
 11
63.42810143483146
 21
335.2948831534988
 72
     1
 10
63.42810143483146
 20
335.2948831534988
 11
62.87549786679846
 21
331.2775363545305
 72
     1
 10
62.87549786679846
 20
331.2775363545306
 11
64.20829161608722
 21
331.3154674567344
 97
        0
 75
     0
 76
     1
 98
        0
  0
LWPOLYLINE
  5
45E
330
459
100
AcDbEntity
  8
Default
  6
Continuous
 62
     7
 48
25.4
370
    20
100
AcDbPolyline
 90
        4
 70
     1
 43
0.0
 10
64.2082916161
 20
331.3154674567
 10
63.4281014348
 20
335.2948831535
 10
62.8754978668
 20
331.2775363545
 10
64.2082916161
 20
331.3154674567
  0
LINE
  5
45F
330
459
100
AcDbEntity
  8
Default
  6
Continuous
 62
     7
 48
25.4
100
AcDbLine
 10
141.5215275659
 20
334.3371636254
 30
0.0
 11
61.9669690455
 21
344.1052351612
 31
0.0
  0
LINE
  5
460
330
459
100
AcDbEntity
  8
Default
  6
Continuous
 62
     7
 48
25.4
100
AcDbLine
 10
133.7215279485
 20
335.2948831535
 30
0.0
 11
61.4281048323
 21
335.2948831535
 31
0.0
  0
ARC
  5
461
330
459
100
AcDbEntity
  8
Default
  6
Continuous
 62
     7
 48
25.4
100
AcDbCircle
 10
133.7215279485
 20
335.2948831535
 30
0.0
 40
70.29342651367354
100
AcDbArc
 50
166.4792448664
 51
180.0000000525
  0
ARC
  5
462
330
459
100
AcDbEntity
  8
Default
  6
Continuous
 62
     7
 48
25.4
100
AcDbCircle
 10
133.7215279485
 20
335.2948831535
 30
0.0
 40
70.29342651367391
100
AcDbArc
 50
180.0
 51
186.5207551336
  0
TEXT
  5
463
330
459
100
AcDbEntity
  8
Default
  6
Continuous
 62
     7
 48
25.4
100
AcDbText
 10
61.931481804
 20
329.3534351473
 30
0.0
 40
4.0
  1
7°
 50
86.5
  7
SEACAD_arial_ttf
 11
57.9389426103
 21
329.5976293054
 31
0.0
100
AcDbText
 73
     3
  0
TEXT
  5
464
330
459
100
AcDbEntity
  8
Default
  6
Continuous
 62
     7
 48
25.4
100
AcDbText
 10
62.4315489713
 20
337.5294610613
 30
0.0
 40
4.0
  1
7'30"
 50
86.5
  7
SEACAD_arial_ttf
 11
58.4390097776
 21
337.7736552195
 31
0.0
100
AcDbText
 73
     3
  0
ENDBLK
  5
466
330
459
100
AcDbEntity
  8
0
100
AcDbBlockEnd
  0
ENDSEC
  0
SECTION
  2
ENTITIES
  0
INSERT
  5
2C
330
1F
100
AcDbEntity
  8
Default
100
AcDbBlockReference
  2
SEANNOT_GROUP
 10
0.0
 20
0.0
 30
0.0
  0
INSERT
  5
36
330
1F
100
AcDbEntity
  8
Default
100
AcDbBlockReference
  2
SEANNOT_GROUP1
 10
0.0
 20
0.0
 30
0.0
  0
INSERT
  5
41
330
1F
100
AcDbEntity
  8
Default
100
AcDbBlockReference
  2
SEANNOT_GROUP2
 10
0.0
 20
0.0
 30
0.0
  0
INSERT
  5
4A
330
1F
100
AcDbEntity
  8
Default
100
AcDbBlockReference
  2
SEANNOT_GROUP3
 10
0.0
 20
0.0
 30
0.0
  0
INSERT
  5
53
330
1F
100
AcDbEntity
  8
Default
100
AcDbBlockReference
  2
SE
 10
0.0
 20
0.0
 30
0.0
  0
INSERT
  5
19A
330
1F
100
AcDbEntity
  8
Default
100
AcDbBlockReference
  2
SE1
 10
0.0
 20
0.0
 30
0.0
  0
INSERT
  5
246
330
1F
100
AcDbEntity
  8
Default
100
AcDbBlockReference
  2
SE2
 10
0.0
 20
0.0
 30
0.0
  0
INSERT
  5
2D4
330
1F
100
AcDbEntity
  8
Default
100
AcDbBlockReference
  2
GDimGGroup
 10
0.0
 20
0.0
 30
0.0
  0
INSERT
  5
2E1
330
1F
100
AcDbEntity
  8
Default
100
AcDbBlockReference
  2
GDimGGroup1
 10
0.0
 20
0.0
 30
0.0
  0
INSERT
  5
2ED
330
1F
100
AcDbEntity
  8
Default
100
AcDbBlockReference
  2
GDimGGroup2
 10
0.0
 20
0.0
 30
0.0
  0
INSERT
  5
2F9
330
1F
100
AcDbEntity
  8
Default
100
AcDbBlockReference
  2
GDimGGroup3
 10
0.0
 20
0.0
 30
0.0
  0
INSERT
  5
305
330
1F
100
AcDbEntity
  8
Default
100
AcDbBlockReference
  2
GDimGGroup4
 10
0.0
 20
0.0
 30
0.0
  0
INSERT
  5
311
330
1F
100
AcDbEntity
  8
Default
100
AcDbBlockReference
  2
GDimGGroup5
 10
0.0
 20
0.0
 30
0.0
  0
INSERT
  5
31D
330
1F
100
AcDbEntity
  8
Default
100
AcDbBlockReference
  2
GDimGGroup6
 10
0.0
 20
0.0
 30
0.0
  0
INSERT
  5
327
330
1F
100
AcDbEntity
  8
Default
100
AcDbBlockReference
  2
GDimGGroup7
 10
0.0
 20
0.0
 30
0.0
  0
INSERT
  5
333
330
1F
100
AcDbEntity
  8
Default
100
AcDbBlockReference
  2
GDimGGroup8
 10
0.0
 20
0.0
 30
0.0
  0
INSERT
  5
33E
330
1F
100
AcDbEntity
  8
Default
100
AcDbBlockReference
  2
GDimGGroup9
 10
0.0
 20
0.0
 30
0.0
  0
INSERT
  5
34C
330
1F
100
AcDbEntity
  8
Default
100
AcDbBlockReference
  2
GDimGGroup10
 10
0.0
 20
0.0
 30
0.0
  0
INSERT
  5
357
330
1F
100
AcDbEntity
  8
Default
100
AcDbBlockReference
  2
GDimGGroup11
 10
0.0
 20
0.0
 30
0.0
  0
INSERT
  5
362
330
1F
100
AcDbEntity
  8
Default
100
AcDbBlockReference
  2
GDimGGroup12
 10
0.0
 20
0.0
 30
0.0
  0
INSERT
  5
36F
330
1F
100
AcDbEntity
  8
Default
100
AcDbBlockReference
  2
GDimGGroup13
 10
0.0
 20
0.0
 30
0.0
  0
INSERT
  5
37D
330
1F
100
AcDbEntity
  8
Default
100
AcDbBlockReference
  2
GDimGGroup14
 10
0.0
 20
0.0
 30
0.0
  0
INSERT
  5
38B
330
1F
100
AcDbEntity
  8
Default
100
AcDbBlockReference
  2
GDimGGroup15
 10
0.0
 20
0.0
 30
0.0
  0
INSERT
  5
399
330
1F
100
AcDbEntity
  8
Default
100
AcDbBlockReference
  2
GDimGGroup16
 10
0.0
 20
0.0
 30
0.0
  0
INSERT
  5
3A5
330
1F
100
AcDbEntity
  8
Default
100
AcDbBlockReference
  2
GDimGGroup17
 10
0.0
 20
0.0
 30
0.0
  0
INSERT
  5
3B1
330
1F
100
AcDbEntity
  8
Default
100
AcDbBlockReference
  2
GDimGGroup18
 10
0.0
 20
0.0
 30
0.0
  0
INSERT
  5
3BD
330
1F
100
AcDbEntity
  8
Default
100
AcDbBlockReference
  2
GDimGGroup19
 10
0.0
 20
0.0
 30
0.0
  0
INSERT
  5
3C8
330
1F
100
AcDbEntity
  8
Default
100
AcDbBlockReference
  2
GDimGGroup20
 10
0.0
 20
0.0
 30
0.0
  0
INSERT
  5
3D4
330
1F
100
AcDbEntity
  8
Default
100
AcDbBlockReference
  2
GDimGGroup21
 10
0.0
 20
0.0
 30
0.0
  0
INSERT
  5
3E0
330
1F
100
AcDbEntity
  8
Default
100
AcDbBlockReference
  2
GDimGGroup22
 10
0.0
 20
0.0
 30
0.0
  0
INSERT
  5
3EC
330
1F
100
AcDbEntity
  8
Default
100
AcDbBlockReference
  2
GDimGGroup23
 10
0.0
 20
0.0
 30
0.0
  0
INSERT
  5
3F8
330
1F
100
AcDbEntity
  8
Default
100
AcDbBlockReference
  2
GDimGGroup24
 10
0.0
 20
0.0
 30
0.0
  0
INSERT
  5
405
330
1F
100
AcDbEntity
  8
Default
100
AcDbBlockReference
  2
GDimGGroup25
 10
0.0
 20
0.0
 30
0.0
  0
INSERT
  5
412
330
1F
100
AcDbEntity
  8
Default
100
AcDbBlockReference
  2
GDimGGroup26
 10
0.0
 20
0.0
 30
0.0
  0
INSERT
  5
41E
330
1F
100
AcDbEntity
  8
Default
100
AcDbBlockReference
  2
GDimGGroup27
 10
0.0
 20
0.0
 30
0.0
  0
INSERT
  5
429
330
1F
100
AcDbEntity
  8
Default
100
AcDbBlockReference
  2
GDimGGroup28
 10
0.0
 20
0.0
 30
0.0
  0
INSERT
  5
435
330
1F
100
AcDbEntity
  8
Default
100
AcDbBlockReference
  2
GDimGGroup29
 10
0.0
 20
0.0
 30
0.0
  0
INSERT
  5
441
330
1F
100
AcDbEntity
  8
Default
100
AcDbBlockReference
  2
GDimGGroup30
 10
0.0
 20
0.0
 30
0.0
  0
INSERT
  5
44D
330
1F
100
AcDbEntity
  8
Default
100
AcDbBlockReference
  2
GDimGGroup31
 10
0.0
 20
0.0
 30
0.0
  0
INSERT
  5
45A
330
1F
100
AcDbEntity
  8
Default
100
AcDbBlockReference
  2
GDimGGroup32
 10
0.0
 20
0.0
 30
0.0
  0
LINE
  5
468
330
1F
100
AcDbEntity
  8
BORDER
  6
Continuous
 62
     7
 48
25.4
100
AcDbLine
 10
6.2292620399
 20
410.0
 30
0.0
 11
586.2292620399
 21
410.0
 31
0.0
  0
LINE
  5
469
330
1F
100
AcDbEntity
  8
BORDER
  6
Continuous
 62
     7
 48
25.4
100
AcDbLine
 10
6.2292620399
 20
410.0
 30
0.0
 11
6.2292620399
 21
10.0
 31
0.0
  0
LINE
  5
46A
330
1F
100
AcDbEntity
  8
BORDER
  6
Continuous
 62
     7
 48
25.4
100
AcDbLine
 10
6.2292620399
 20
10.0
 30
0.0
 11
586.2292620399
 21
10.0
 31
0.0
  0
LINE
  5
46B
330
1F
100
AcDbEntity
  8
BORDER
  6
Continuous
 62
     7
 48
25.4
100
AcDbLine
 10
586.2292620399
 20
10.0
 30
0.0
 11
586.2292620399
 21
410.0
 31
0.0
  0
LINE
  5
46C
330
1F
100
AcDbEntity
  8
Default
  6
Continuous
 62
     7
 48
25.4
100
AcDbLine
 10
3.7292620399
 20
412.5
 30
0.0
 11
588.7292620399
 21
412.5
 31
0.0
  0
LINE
  5
46D
330
1F
100
AcDbEntity
  8
Default
  6
Continuous
 62
     7
 48
25.4
100
AcDbLine
 10
588.7292620399
 20
412.5
 30
0.0
 11
588.7292620399
 21
7.5
 31
0.0
  0
LINE
  5
46E
330
1F
100
AcDbEntity
  8
Default
  6
Continuous
 62
     7
 48
25.4
100
AcDbLine
 10
588.7292620399
 20
7.5
 30
0.0
 11
3.7292620399
 21
7.5
 31
0.0
  0
LINE
  5
46F
330
1F
100
AcDbEntity
  8
Default
  6
Continuous
 62
     7
 48
25.4
100
AcDbLine
 10
3.7292620399
 20
7.5
 30
0.0
 11
3.7292620399
 21
412.5
 31
0.0
  0
TEXT
  5
470
330
1F
100
AcDbEntity
  8
Default
  6
Continuous
 62
     7
 48
25.4
100
AcDbText
 10
473.5242219525
 20
28.1561611714
 30
0.0
 40
5.0
  1
TITLE :
  7
SEACAD_arial_ttf
 11
473.5242219525
 21
33.1561611714
 31
0.0
100
AcDbText
 73
     3
  0
TEXT
  5
471
330
1F
100
AcDbEntity
  8
Default
  6
Continuous
 62
     7
 48
25.4
100
AcDbText
 10
473.4498030642
 20
40.2710242694
 30
0.0
 40
5.0
  1
KITAGAWA EUROPE LIMITED
  7
SEACAD_arial_ttf
 11
473.4498030642
 21
45.2710242694
 31
0.0
100
AcDbText
 73
     3
  0
TEXT
  5
472
330
1F
100
AcDbEntity
  8
Default
  6
Continuous
 62
     7
 48
25.4
100
AcDbText
 10
474.0233693351
 20
14.6180387033
 30
0.0
 40
5.0
  1
www.kitagawaeurope.com
  7
SEACAD_arial_ttf
 11
474.0233693351
 21
19.6180387033
 31
0.0
100
AcDbText
 73
     3
  0
TEXT
  5
473
330
1F
100
AcDbEntity
  8
Default
  6
Continuous
 62
     7
 48
25.4
100
AcDbText
 10
497.8463064412
 20
27.8559210467
 30
0.0
 40
5.0
  1
BL212A8 POWER CHUCK
  7
SEACAD_arial_ttf
 11
497.8463064412
 21
32.8559210467
 31
0.0
100
AcDbText
 73
     3
  0
LINE
  5
474
330
1F
100
AcDbEntity
  8
Default
  6
Continuous
 62
     7
 48
25.4
100
AcDbLine
 10
471.5030858285
 20
50.0
 30
0.0
 11
586.2292620399
 21
50.0
 31
0.0
  0
LINE
  5
475
330
1F
100
AcDbEntity
  8
Default
  6
Continuous
 62
     7
 48
25.4
100
AcDbLine
 10
471.5030858285
 20
36.7
 30
0.0
 11
586.2292620399
 21
36.7
 31
0.0
  0
LINE
  5
476
330
1F
100
AcDbEntity
  8
Default
  6
Continuous
 62
     7
 48
25.4
100
AcDbLine
 10
586.2292620399
 20
23.4
 30
0.0
 11
471.5030858285
 21
23.4
 31
0.0
  0
LINE
  5
477
330
1F
100
AcDbEntity
  8
Default
  6
Continuous
 62
     7
 48
25.4
100
AcDbLine
 10
471.5030858285
 20
50.0
 30
0.0
 11
471.5030858285
 21
10.0
 31
0.0
  0
ENDSEC
  0
SECTION
  2
OBJECTS
  0
DICTIONARY
  5
C
330
0
100
AcDbDictionary
281
     1
  3
ACAD_GROUP
350
D
  3
ACAD_LAYOUT
350
1A
  3
ACAD_MLINESTYLE
350
17
  3
ACAD_PLOTSETTINGS
350
19
  3
ACAD_PLOTSTYLENAME
350
E
  0
DICTIONARY
  5
D
102
{ACAD_REACTORS
330
C
102
}
330
C
100
AcDbDictionary
281
     1
  0
DICTIONARY
  5
1A
102
{ACAD_REACTORS
330
C
102
}
330
C
100
AcDbDictionary
281
     1
  3
Layout1
350
1E
  3
Model
350
22
  0
DICTIONARY
  5
17
102
{ACAD_REACTORS
330
C
102
}
330
C
100
AcDbDictionary
281
     1
  3
Standard
350
18
  0
DICTIONARY
  5
19
102
{ACAD_REACTORS
330
C
102
}
330
C
100
AcDbDictionary
281
     1
  0
ACDBDICTIONARYWDFLT
  5
E
102
{ACAD_REACTORS
330
C
102
}
330
C
100
AcDbDictionary
281
     1
  3
Normal
350
F
100
AcDbDictionaryWithDefault
340
F
  0
LAYOUT
  5
1E
102
{ACAD_REACTORS
330
1A
102
}
330
1A
100
AcDbPlotSettings
  1

  2

  4

  6

 40
0.0
 41
0.0
 42
0.0
 43
0.0
 44
0.0
 45
0.0
 46
0.0
 47
0.0
 48
0.0
 49
0.0
140
0.0
141
0.0
142
1.0
143
1.0
 70
   688
 72
     0
 73
     0
 74
     5
  7

 75
    16
147
1.0
148
0.0
149
0.0
100
AcDbLayout
  1
Layout1
 70
     1
 71
     1
 10
0.0
 20
0.0
 11
594.0
 21
420.0
 12
0.0
 22
0.0
 32
0.0
 14
0.0
 24
0.0
 34
0.0
 15
594.0
 25
420.0
 35
0.0
146
0.0
 13
0.0
 23
0.0
 33
0.0
 16
1.0
 26
0.0
 36
0.0
 17
0.0
 27
1.0
 37
0.0
 76
     0
330
1B
  0
LAYOUT
  5
22
102
{ACAD_REACTORS
330
1A
102
}
330
1A
100
AcDbPlotSettings
  1

  2

  4

  6

 40
0.0
 41
0.0
 42
0.0
 43
0.0
 44
0.0
 45
0.0
 46
0.0
 47
0.0
 48
0.0
 49
0.0
140
0.0
141
0.0
142
1.0
143
1.0
 70
  1712
 72
     0
 73
     0
 74
     0
  7

 75
     0
147
1.0
148
0.0
149
0.0
100
AcDbLayout
  1
Model
 70
     1
 71
     0
 10
0.0
 20
0.0
 11
594.0
 21
420.0
 12
0.0
 22
0.0
 32
0.0
 14
0.0
 24
0.0
 34
0.0
 15
594.0
 25
420.0
 35
0.0
146
0.0
 13
0.0
 23
0.0
 33
0.0
 16
1.0
 26
0.0
 36
0.0
 17
0.0
 27
1.0
 37
0.0
 76
     0
330
1F
  0
MLINESTYLE
  5
18
102
{ACAD_REACTORS
330
17
102
}
330
17
100
AcDbMlineStyle
  2
Standard
 70
     0
  3

 62
   256
 51
90.0
 52
90.0
 71
     2
 49
0.5
 62
   256
  6
BYLAYER
 49
-0.5
 62
   256
  6
BYLAYER
  0
ACDBPLACEHOLDER
  5
F
102
{ACAD_REACTORS
330
E
102
}
330
E
  0
ENDSEC
  0
EOF
