ISO-10303-21;
HEADER;
FILE_DESCRIPTION( ( 'Unknown' ), '1' );
FILE_NAME( 's:/LEAVE 2D&3D CAD/LEAVE 3D CAD (STEP)/Metric/BC-3D/BC01-3D/BC01-080080-400.stp', 'Unknown', ( 'Unknown' ), ( 'Unknown' ), 'XStep 1.0', 'Unknown', '  ' );
FILE_SCHEMA( ( 'CONFIG_CONTROL_DESIGN' ) );
ENDSEC;
DATA;
#1 = DESIGN_CONTEXT( '', #27, 'design' );
#2 = APPLICATION_PROTOCOL_DEFINITION( 'INTERNATIONAL STANDARD', 'config_control_design', 1994, #27 );
#3 = PRODUCT_CATEGORY_RELATIONSHIP( 'NONE', 'NONE', #28, #29 );
#4 = DATE_AND_TIME( #30, #31 );
#5 = DATE_TIME_ROLE( 'creation_date' );
#6 = DATE_TIME_ROLE( 'classification_date' );
#7 = PERSON_AND_ORGANIZATION_ROLE( 'creator' );
#8 = PERSON_AND_ORGANIZATION_ROLE( 'design_supplier' );
#9 = PERSON_AND_ORGANIZATION_ROLE( 'classification_officer' );
#10 = PERSON_AND_ORGANIZATION_ROLE( 'design_owner' );
#11 = APPROVAL_PERSON_ORGANIZATION( #32, #33, #34 );
#12 = APPROVAL_DATE_TIME( #4, #33 );
#13 = CC_DESIGN_APPROVAL( #33, ( #35, #36, #37 ) );
#14 = CC_DESIGN_DATE_AND_TIME_ASSIGNMENT( #4, #5, ( #37 ) );
#15 = CC_DESIGN_DATE_AND_TIME_ASSIGNMENT( #4, #6, ( #35 ) );
#16 = CC_DESIGN_PERSON_AND_ORGANIZATION_ASSIGNMENT( #32, #10, ( #38 ) );
#17 = CC_DESIGN_PERSON_AND_ORGANIZATION_ASSIGNMENT( #32, #7, ( #37 ) );
#18 = CC_DESIGN_PERSON_AND_ORGANIZATION_ASSIGNMENT( #32, #7, ( #36 ) );
#19 = CC_DESIGN_PERSON_AND_ORGANIZATION_ASSIGNMENT( #32, #8, ( #36 ) );
#20 = CC_DESIGN_SECURITY_CLASSIFICATION( #35, ( #36 ) );
#21 = CC_DESIGN_PERSON_AND_ORGANIZATION_ASSIGNMENT( #32, #9, ( #35 ) );
#22 = SHAPE_DEFINITION_REPRESENTATION( #39, #40 );
#23 =  ( GEOMETRIC_REPRESENTATION_CONTEXT( 3 )GLOBAL_UNCERTAINTY_ASSIGNED_CONTEXT( ( #43 ) )GLOBAL_UNIT_ASSIGNED_CONTEXT( ( #45, #46, #47 ) )REPRESENTATION_CONTEXT( 'NONE', 'WORKSPACE' ) );
#27 = APPLICATION_CONTEXT( 'CONFIGURATION CONTROLLED 3D DESIGNS OF MECHANICAL PARTS AND ASSEMBLIES' );
#28 = PRODUCT_CATEGORY( 'part', 'NONE' );
#29 = PRODUCT_RELATED_PRODUCT_CATEGORY( 'detail', ' ', ( #38 ) );
#30 = CALENDAR_DATE( 2007, 24, 11 );
#31 = LOCAL_TIME( 13, 12, 52.0000000000000, #49 );
#32 = PERSON_AND_ORGANIZATION( #50, #51 );
#33 = APPROVAL( #52, 'SOLID MODEL' );
#34 = APPROVAL_ROLE( 'APPROVED' );
#35 = SECURITY_CLASSIFICATION( '', '', #53 );
#36 = PRODUCT_DEFINITION_FORMATION_WITH_SPECIFIED_SOURCE( ' ', 'NONE', #38, .NOT_KNOWN. );
#37 = PRODUCT_DEFINITION( 'NONE', 'NONE', #36, #1 );
#38 = PRODUCT( '1', '1', 'PART-1-DESC', ( #54 ) );
#39 = PRODUCT_DEFINITION_SHAPE( 'NONE', 'NONE', #37 );
#40 = ADVANCED_BREP_SHAPE_REPRESENTATION( '1', ( #55, #56 ), #23 );
#43 = UNCERTAINTY_MEASURE_WITH_UNIT( LENGTH_MEASURE( 0.00100000000000000 ), #45, '', '' );
#45 =  ( CONVERSION_BASED_UNIT( 'MILLIMETRE', #59 )LENGTH_UNIT(  )NAMED_UNIT( #62 ) );
#46 =  ( NAMED_UNIT( #64 )PLANE_ANGLE_UNIT(  )SI_UNIT( $, .RADIAN. ) );
#47 =  ( NAMED_UNIT( #64 )SOLID_ANGLE_UNIT(  )SI_UNIT( $, .STERADIAN. ) );
#49 = COORDINATED_UNIVERSAL_TIME_OFFSET( 8, 0, .AHEAD. );
#50 = PERSON( '', 'UNSPECIFIED', $, $, $, $ );
#51 = ORGANIZATION( 'UNSPECIFIED', 'UNSPECIFIED', 'UNSPECIFIED' );
#52 = APPROVAL_STATUS( 'approved' );
#53 = SECURITY_CLASSIFICATION_LEVEL( 'unclassified' );
#54 = MECHANICAL_CONTEXT( '', #27, 'mechanical' );
#55 = MANIFOLD_SOLID_BREP( '1', #70 );
#56 = AXIS2_PLACEMENT_3D( '', #71, #72, #73 );
#59 = LENGTH_MEASURE_WITH_UNIT( LENGTH_MEASURE( 1.00000000000000 ), #74 );
#62 = DIMENSIONAL_EXPONENTS( 1.00000000000000, 0.000000000000000, 0.000000000000000, 0.000000000000000, 0.000000000000000, 0.000000000000000, 0.000000000000000 );
#64 = DIMENSIONAL_EXPONENTS( 0.000000000000000, 0.000000000000000, 0.000000000000000, 0.000000000000000, 0.000000000000000, 0.000000000000000, 0.000000000000000 );
#70 = CLOSED_SHELL( '', ( #75, #76, #77, #78, #79, #80, #81, #82, #83, #84, #85, #86, #87, #88 ) );
#71 = CARTESIAN_POINT( '', ( 0.000000000000000, 0.000000000000000, 0.000000000000000 ) );
#72 = DIRECTION( '', ( 0.000000000000000, 0.000000000000000, 1.00000000000000 ) );
#73 = DIRECTION( '', ( 1.00000000000000, 0.000000000000000, 0.000000000000000 ) );
#74 =  ( NAMED_UNIT( #62 )LENGTH_UNIT(  )SI_UNIT( .MILLI., .METRE. ) );
#75 = ADVANCED_FACE( '', ( #90 ), #91, .T. );
#76 = ADVANCED_FACE( '', ( #92 ), #93, .T. );
#77 = ADVANCED_FACE( '', ( #94 ), #95, .T. );
#78 = ADVANCED_FACE( '', ( #96 ), #97, .T. );
#79 = ADVANCED_FACE( '', ( #98 ), #99, .T. );
#80 = ADVANCED_FACE( '', ( #100 ), #101, .T. );
#81 = ADVANCED_FACE( '', ( #102 ), #103, .T. );
#82 = ADVANCED_FACE( '', ( #104 ), #105, .F. );
#83 = ADVANCED_FACE( '', ( #106 ), #107, .T. );
#84 = ADVANCED_FACE( '', ( #108 ), #109, .T. );
#85 = ADVANCED_FACE( '', ( #110 ), #111, .T. );
#86 = ADVANCED_FACE( '', ( #112 ), #113, .T. );
#87 = ADVANCED_FACE( '', ( #114 ), #115, .T. );
#88 = ADVANCED_FACE( '', ( #116 ), #117, .T. );
#90 = FACE_OUTER_BOUND( '', #118, .T. );
#91 = PLANE( '', #119 );
#92 = FACE_OUTER_BOUND( '', #120, .T. );
#93 = PLANE( '', #121 );
#94 = FACE_OUTER_BOUND( '', #122, .T. );
#95 = PLANE( '', #123 );
#96 = FACE_OUTER_BOUND( '', #124, .T. );
#97 = PLANE( '', #125 );
#98 = FACE_OUTER_BOUND( '', #126, .T. );
#99 = PLANE( '', #127 );
#100 = FACE_OUTER_BOUND( '', #128, .T. );
#101 = PLANE( '', #129 );
#102 = FACE_OUTER_BOUND( '', #130, .T. );
#103 = PLANE( '', #131 );
#104 = FACE_OUTER_BOUND( '', #132, .T. );
#105 = PLANE( '', #133 );
#106 = FACE_OUTER_BOUND( '', #134, .T. );
#107 = PLANE( '', #135 );
#108 = FACE_OUTER_BOUND( '', #136, .T. );
#109 = PLANE( '', #137 );
#110 = FACE_OUTER_BOUND( '', #138, .T. );
#111 = PLANE( '', #139 );
#112 = FACE_OUTER_BOUND( '', #140, .T. );
#113 = PLANE( '', #141 );
#114 = FACE_OUTER_BOUND( '', #142, .T. );
#115 = PLANE( '', #143 );
#116 = FACE_OUTER_BOUND( '', #144, .T. );
#117 = PLANE( '', #145 );
#118 = EDGE_LOOP( '', ( #146, #147, #148, #149 ) );
#119 = AXIS2_PLACEMENT_3D( '', #150, #151, #152 );
#120 = EDGE_LOOP( '', ( #153, #154, #155, #156 ) );
#121 = AXIS2_PLACEMENT_3D( '', #157, #158, #159 );
#122 = EDGE_LOOP( '', ( #160, #161, #162, #163, #164, #165, #166, #167, #168, #169, #170, #171 ) );
#123 = AXIS2_PLACEMENT_3D( '', #172, #173, #174 );
#124 = EDGE_LOOP( '', ( #175, #176, #177, #178 ) );
#125 = AXIS2_PLACEMENT_3D( '', #179, #180, #181 );
#126 = EDGE_LOOP( '', ( #182, #183, #184, #185 ) );
#127 = AXIS2_PLACEMENT_3D( '', #186, #187, #188 );
#128 = EDGE_LOOP( '', ( #189, #190, #191, #192 ) );
#129 = AXIS2_PLACEMENT_3D( '', #193, #194, #195 );
#130 = EDGE_LOOP( '', ( #196, #197, #198, #199 ) );
#131 = AXIS2_PLACEMENT_3D( '', #200, #201, #202 );
#132 = EDGE_LOOP( '', ( #203, #204, #205, #206, #207, #208, #209, #210, #211, #212, #213, #214 ) );
#133 = AXIS2_PLACEMENT_3D( '', #215, #216, #217 );
#134 = EDGE_LOOP( '', ( #218, #219, #220, #221 ) );
#135 = AXIS2_PLACEMENT_3D( '', #222, #223, #224 );
#136 = EDGE_LOOP( '', ( #225, #226, #227, #228 ) );
#137 = AXIS2_PLACEMENT_3D( '', #229, #230, #231 );
#138 = EDGE_LOOP( '', ( #232, #233, #234, #235 ) );
#139 = AXIS2_PLACEMENT_3D( '', #236, #237, #238 );
#140 = EDGE_LOOP( '', ( #239, #240, #241, #242 ) );
#141 = AXIS2_PLACEMENT_3D( '', #243, #244, #245 );
#142 = EDGE_LOOP( '', ( #246, #247, #248, #249 ) );
#143 = AXIS2_PLACEMENT_3D( '', #250, #251, #252 );
#144 = EDGE_LOOP( '', ( #253, #254, #255, #256 ) );
#145 = AXIS2_PLACEMENT_3D( '', #257, #258, #259 );
#146 = ORIENTED_EDGE( '', *, *, #260, .F. );
#147 = ORIENTED_EDGE( '', *, *, #261, .F. );
#148 = ORIENTED_EDGE( '', *, *, #262, .T. );
#149 = ORIENTED_EDGE( '', *, *, #263, .T. );
#150 = CARTESIAN_POINT( '', ( 200.000000000000, -40.0000000000000, -40.0000000000000 ) );
#151 = DIRECTION( '', ( 0.000000000000000, -1.00000000000000, -8.67361737988405E-017 ) );
#152 = DIRECTION( '', ( 0.000000000000000, 8.67361737988405E-017, -1.00000000000000 ) );
#153 = ORIENTED_EDGE( '', *, *, #264, .F. );
#154 = ORIENTED_EDGE( '', *, *, #263, .F. );
#155 = ORIENTED_EDGE( '', *, *, #265, .T. );
#156 = ORIENTED_EDGE( '', *, *, #266, .T. );
#157 = CARTESIAN_POINT( '', ( 200.000000000000, -40.0000000000000, 40.0000000000000 ) );
#158 = DIRECTION( '', ( 0.000000000000000, -6.07153216591883E-015, 1.00000000000000 ) );
#159 = DIRECTION( '', ( 0.000000000000000, -1.00000000000000, -6.07153216591883E-015 ) );
#160 = ORIENTED_EDGE( '', *, *, #260, .T. );
#161 = ORIENTED_EDGE( '', *, *, #264, .T. );
#162 = ORIENTED_EDGE( '', *, *, #267, .T. );
#163 = ORIENTED_EDGE( '', *, *, #268, .T. );
#164 = ORIENTED_EDGE( '', *, *, #269, .T. );
#165 = ORIENTED_EDGE( '', *, *, #270, .T. );
#166 = ORIENTED_EDGE( '', *, *, #271, .T. );
#167 = ORIENTED_EDGE( '', *, *, #272, .T. );
#168 = ORIENTED_EDGE( '', *, *, #273, .T. );
#169 = ORIENTED_EDGE( '', *, *, #274, .T. );
#170 = ORIENTED_EDGE( '', *, *, #275, .T. );
#171 = ORIENTED_EDGE( '', *, *, #276, .T. );
#172 = CARTESIAN_POINT( '', ( -200.000000000000, -40.0000000000000, 8.00000000000000 ) );
#173 = DIRECTION( '', ( -1.00000000000000, 6.12303176911189E-017, 0.000000000000000 ) );
#174 = DIRECTION( '', ( -6.12303176911189E-017, -1.00000000000000, 0.000000000000000 ) );
#175 = ORIENTED_EDGE( '', *, *, #267, .F. );
#176 = ORIENTED_EDGE( '', *, *, #266, .F. );
#177 = ORIENTED_EDGE( '', *, *, #277, .T. );
#178 = ORIENTED_EDGE( '', *, *, #278, .T. );
#179 = CARTESIAN_POINT( '', ( 200.000000000000, -24.0000000000000, 40.0000000000000 ) );
#180 = DIRECTION( '', ( 0.000000000000000, 1.00000000000000, -5.42101086242751E-016 ) );
#181 = DIRECTION( '', ( 0.000000000000000, 5.42101086242751E-016, 1.00000000000000 ) );
#182 = ORIENTED_EDGE( '', *, *, #268, .F. );
#183 = ORIENTED_EDGE( '', *, *, #278, .F. );
#184 = ORIENTED_EDGE( '', *, *, #279, .T. );
#185 = ORIENTED_EDGE( '', *, *, #280, .T. );
#186 = CARTESIAN_POINT( '', ( 200.000000000000, -24.0000000000000, 8.00000000000000 ) );
#187 = DIRECTION( '', ( 0.000000000000000, 0.000000000000000, 1.00000000000000 ) );
#188 = DIRECTION( '', ( 1.00000000000000, 0.000000000000000, 0.000000000000000 ) );
#189 = ORIENTED_EDGE( '', *, *, #275, .F. );
#190 = ORIENTED_EDGE( '', *, *, #281, .F. );
#191 = ORIENTED_EDGE( '', *, *, #282, .T. );
#192 = ORIENTED_EDGE( '', *, *, #283, .T. );
#193 = CARTESIAN_POINT( '', ( 200.000000000000, -24.0000000000000, -8.00000000000000 ) );
#194 = DIRECTION( '', ( 0.000000000000000, 1.00000000000000, -5.42101086242753E-016 ) );
#195 = DIRECTION( '', ( 0.000000000000000, 5.42101086242753E-016, 1.00000000000000 ) );
#196 = ORIENTED_EDGE( '', *, *, #276, .F. );
#197 = ORIENTED_EDGE( '', *, *, #283, .F. );
#198 = ORIENTED_EDGE( '', *, *, #284, .T. );
#199 = ORIENTED_EDGE( '', *, *, #261, .T. );
#200 = CARTESIAN_POINT( '', ( 200.000000000000, -24.0000000000000, -40.0000000000000 ) );
#201 = DIRECTION( '', ( 0.000000000000000, -4.33680868994204E-016, -1.00000000000000 ) );
#202 = DIRECTION( '', ( 0.000000000000000, 1.00000000000000, -4.33680868994204E-016 ) );
#203 = ORIENTED_EDGE( '', *, *, #262, .F. );
#204 = ORIENTED_EDGE( '', *, *, #284, .F. );
#205 = ORIENTED_EDGE( '', *, *, #282, .F. );
#206 = ORIENTED_EDGE( '', *, *, #285, .F. );
#207 = ORIENTED_EDGE( '', *, *, #286, .F. );
#208 = ORIENTED_EDGE( '', *, *, #287, .F. );
#209 = ORIENTED_EDGE( '', *, *, #288, .F. );
#210 = ORIENTED_EDGE( '', *, *, #289, .F. );
#211 = ORIENTED_EDGE( '', *, *, #290, .F. );
#212 = ORIENTED_EDGE( '', *, *, #279, .F. );
#213 = ORIENTED_EDGE( '', *, *, #277, .F. );
#214 = ORIENTED_EDGE( '', *, *, #265, .F. );
#215 = CARTESIAN_POINT( '', ( 200.000000000000, -40.0000000000000, 8.00000000000000 ) );
#216 = DIRECTION( '', ( -1.00000000000000, 6.12303176911189E-017, 0.000000000000000 ) );
#217 = DIRECTION( '', ( -6.12303176911189E-017, -1.00000000000000, 0.000000000000000 ) );
#218 = ORIENTED_EDGE( '', *, *, #269, .F. );
#219 = ORIENTED_EDGE( '', *, *, #280, .F. );
#220 = ORIENTED_EDGE( '', *, *, #290, .T. );
#221 = ORIENTED_EDGE( '', *, *, #291, .T. );
#222 = CARTESIAN_POINT( '', ( 200.000000000000, 24.0000000000000, 8.00000000000000 ) );
#223 = DIRECTION( '', ( 0.000000000000000, -1.00000000000000, -5.42101086242751E-016 ) );
#224 = DIRECTION( '', ( 0.000000000000000, 5.42101086242751E-016, -1.00000000000000 ) );
#225 = ORIENTED_EDGE( '', *, *, #270, .F. );
#226 = ORIENTED_EDGE( '', *, *, #291, .F. );
#227 = ORIENTED_EDGE( '', *, *, #289, .T. );
#228 = ORIENTED_EDGE( '', *, *, #292, .T. );
#229 = CARTESIAN_POINT( '', ( 200.000000000000, 24.0000000000000, 40.0000000000000 ) );
#230 = DIRECTION( '', ( 0.000000000000000, 5.63785129692463E-015, 1.00000000000000 ) );
#231 = DIRECTION( '', ( 0.000000000000000, -1.00000000000000, 5.63785129692463E-015 ) );
#232 = ORIENTED_EDGE( '', *, *, #271, .F. );
#233 = ORIENTED_EDGE( '', *, *, #292, .F. );
#234 = ORIENTED_EDGE( '', *, *, #288, .T. );
#235 = ORIENTED_EDGE( '', *, *, #293, .T. );
#236 = CARTESIAN_POINT( '', ( 200.000000000000, 40.0000000000000, 40.0000000000000 ) );
#237 = DIRECTION( '', ( 0.000000000000000, 1.00000000000000, -8.67361737988405E-017 ) );
#238 = DIRECTION( '', ( 0.000000000000000, 8.67361737988405E-017, 1.00000000000000 ) );
#239 = ORIENTED_EDGE( '', *, *, #272, .F. );
#240 = ORIENTED_EDGE( '', *, *, #293, .F. );
#241 = ORIENTED_EDGE( '', *, *, #287, .T. );
#242 = ORIENTED_EDGE( '', *, *, #294, .T. );
#243 = CARTESIAN_POINT( '', ( 200.000000000000, 40.0000000000000, -40.0000000000000 ) );
#244 = DIRECTION( '', ( 0.000000000000000, 8.67361737988407E-016, -1.00000000000000 ) );
#245 = DIRECTION( '', ( 0.000000000000000, 1.00000000000000, 8.67361737988407E-016 ) );
#246 = ORIENTED_EDGE( '', *, *, #273, .F. );
#247 = ORIENTED_EDGE( '', *, *, #294, .F. );
#248 = ORIENTED_EDGE( '', *, *, #286, .T. );
#249 = ORIENTED_EDGE( '', *, *, #295, .T. );
#250 = CARTESIAN_POINT( '', ( 200.000000000000, 24.0000000000000, -40.0000000000000 ) );
#251 = DIRECTION( '', ( 0.000000000000000, -1.00000000000000, -4.33680868994203E-016 ) );
#252 = DIRECTION( '', ( 0.000000000000000, 4.33680868994203E-016, -1.00000000000000 ) );
#253 = ORIENTED_EDGE( '', *, *, #274, .F. );
#254 = ORIENTED_EDGE( '', *, *, #295, .F. );
#255 = ORIENTED_EDGE( '', *, *, #285, .T. );
#256 = ORIENTED_EDGE( '', *, *, #281, .T. );
#257 = CARTESIAN_POINT( '', ( 200.000000000000, 24.0000000000000, -8.00000000000000 ) );
#258 = DIRECTION( '', ( 0.000000000000000, 0.000000000000000, -1.00000000000000 ) );
#259 = DIRECTION( '', ( -1.00000000000000, 0.000000000000000, 0.000000000000000 ) );
#260 = EDGE_CURVE( '', #296, #297, #298, .T. );
#261 = EDGE_CURVE( '', #299, #296, #300, .T. );
#262 = EDGE_CURVE( '', #299, #301, #302, .T. );
#263 = EDGE_CURVE( '', #301, #297, #303, .T. );
#264 = EDGE_CURVE( '', #297, #304, #305, .T. );
#265 = EDGE_CURVE( '', #301, #306, #307, .T. );
#266 = EDGE_CURVE( '', #306, #304, #308, .T. );
#267 = EDGE_CURVE( '', #304, #309, #310, .T. );
#268 = EDGE_CURVE( '', #309, #311, #312, .T. );
#269 = EDGE_CURVE( '', #311, #313, #314, .T. );
#270 = EDGE_CURVE( '', #313, #315, #316, .T. );
#271 = EDGE_CURVE( '', #315, #317, #318, .T. );
#272 = EDGE_CURVE( '', #317, #319, #320, .T. );
#273 = EDGE_CURVE( '', #319, #321, #322, .T. );
#274 = EDGE_CURVE( '', #321, #323, #324, .T. );
#275 = EDGE_CURVE( '', #323, #325, #326, .T. );
#276 = EDGE_CURVE( '', #325, #296, #327, .T. );
#277 = EDGE_CURVE( '', #306, #328, #329, .T. );
#278 = EDGE_CURVE( '', #328, #309, #330, .T. );
#279 = EDGE_CURVE( '', #328, #331, #332, .T. );
#280 = EDGE_CURVE( '', #331, #311, #333, .T. );
#281 = EDGE_CURVE( '', #334, #323, #335, .T. );
#282 = EDGE_CURVE( '', #334, #336, #337, .T. );
#283 = EDGE_CURVE( '', #336, #325, #338, .T. );
#284 = EDGE_CURVE( '', #336, #299, #339, .T. );
#285 = EDGE_CURVE( '', #340, #334, #341, .T. );
#286 = EDGE_CURVE( '', #342, #340, #343, .T. );
#287 = EDGE_CURVE( '', #344, #342, #345, .T. );
#288 = EDGE_CURVE( '', #346, #344, #347, .T. );
#289 = EDGE_CURVE( '', #348, #346, #349, .T. );
#290 = EDGE_CURVE( '', #331, #348, #350, .T. );
#291 = EDGE_CURVE( '', #348, #313, #351, .T. );
#292 = EDGE_CURVE( '', #346, #315, #352, .T. );
#293 = EDGE_CURVE( '', #344, #317, #353, .T. );
#294 = EDGE_CURVE( '', #342, #319, #354, .T. );
#295 = EDGE_CURVE( '', #340, #321, #355, .T. );
#296 = VERTEX_POINT( '', #356 );
#297 = VERTEX_POINT( '', #357 );
#298 = LINE( '', #358, #359 );
#299 = VERTEX_POINT( '', #360 );
#300 = LINE( '', #361, #362 );
#301 = VERTEX_POINT( '', #363 );
#302 = LINE( '', #364, #365 );
#303 = LINE( '', #366, #367 );
#304 = VERTEX_POINT( '', #368 );
#305 = LINE( '', #369, #370 );
#306 = VERTEX_POINT( '', #371 );
#307 = LINE( '', #372, #373 );
#308 = LINE( '', #374, #375 );
#309 = VERTEX_POINT( '', #376 );
#310 = LINE( '', #377, #378 );
#311 = VERTEX_POINT( '', #379 );
#312 = LINE( '', #380, #381 );
#313 = VERTEX_POINT( '', #382 );
#314 = LINE( '', #383, #384 );
#315 = VERTEX_POINT( '', #385 );
#316 = LINE( '', #386, #387 );
#317 = VERTEX_POINT( '', #388 );
#318 = LINE( '', #389, #390 );
#319 = VERTEX_POINT( '', #391 );
#320 = LINE( '', #392, #393 );
#321 = VERTEX_POINT( '', #394 );
#322 = LINE( '', #395, #396 );
#323 = VERTEX_POINT( '', #397 );
#324 = LINE( '', #398, #399 );
#325 = VERTEX_POINT( '', #400 );
#326 = LINE( '', #401, #402 );
#327 = LINE( '', #403, #404 );
#328 = VERTEX_POINT( '', #405 );
#329 = LINE( '', #406, #407 );
#330 = LINE( '', #408, #409 );
#331 = VERTEX_POINT( '', #410 );
#332 = LINE( '', #411, #412 );
#333 = LINE( '', #413, #414 );
#334 = VERTEX_POINT( '', #415 );
#335 = LINE( '', #416, #417 );
#336 = VERTEX_POINT( '', #418 );
#337 = LINE( '', #419, #420 );
#338 = LINE( '', #421, #422 );
#339 = LINE( '', #423, #424 );
#340 = VERTEX_POINT( '', #425 );
#341 = LINE( '', #426, #427 );
#342 = VERTEX_POINT( '', #428 );
#343 = LINE( '', #429, #430 );
#344 = VERTEX_POINT( '', #431 );
#345 = LINE( '', #432, #433 );
#346 = VERTEX_POINT( '', #434 );
#347 = LINE( '', #435, #436 );
#348 = VERTEX_POINT( '', #437 );
#349 = LINE( '', #438, #439 );
#350 = LINE( '', #440, #441 );
#351 = LINE( '', #442, #443 );
#352 = LINE( '', #444, #445 );
#353 = LINE( '', #446, #447 );
#354 = LINE( '', #448, #449 );
#355 = LINE( '', #450, #451 );
#356 = CARTESIAN_POINT( '', ( -200.000000000000, -40.0000000000000, -40.0000000000000 ) );
#357 = CARTESIAN_POINT( '', ( -200.000000000000, -40.0000000000000, 40.0000000000000 ) );
#358 = CARTESIAN_POINT( '', ( -200.000000000000, -40.0000000000000, -40.0000000000000 ) );
#359 = VECTOR( '', #452, 1000.00000000000 );
#360 = CARTESIAN_POINT( '', ( 200.000000000000, -40.0000000000000, -40.0000000000000 ) );
#361 = CARTESIAN_POINT( '', ( 200.000000000000, -40.0000000000000, -40.0000000000000 ) );
#362 = VECTOR( '', #453, 1000.00000000000 );
#363 = CARTESIAN_POINT( '', ( 200.000000000000, -40.0000000000000, 40.0000000000000 ) );
#364 = CARTESIAN_POINT( '', ( 200.000000000000, -40.0000000000000, -40.0000000000000 ) );
#365 = VECTOR( '', #454, 1000.00000000000 );
#366 = CARTESIAN_POINT( '', ( 200.000000000000, -40.0000000000000, 40.0000000000000 ) );
#367 = VECTOR( '', #455, 1000.00000000000 );
#368 = CARTESIAN_POINT( '', ( -200.000000000000, -24.0000000000000, 40.0000000000000 ) );
#369 = CARTESIAN_POINT( '', ( -200.000000000000, -40.0000000000000, 40.0000000000000 ) );
#370 = VECTOR( '', #456, 1000.00000000000 );
#371 = CARTESIAN_POINT( '', ( 200.000000000000, -24.0000000000000, 40.0000000000000 ) );
#372 = CARTESIAN_POINT( '', ( 200.000000000000, -40.0000000000000, 40.0000000000000 ) );
#373 = VECTOR( '', #457, 1000.00000000000 );
#374 = CARTESIAN_POINT( '', ( 200.000000000000, -24.0000000000000, 40.0000000000000 ) );
#375 = VECTOR( '', #458, 1000.00000000000 );
#376 = CARTESIAN_POINT( '', ( -200.000000000000, -24.0000000000000, 8.00000000000000 ) );
#377 = CARTESIAN_POINT( '', ( -200.000000000000, -24.0000000000000, 40.0000000000000 ) );
#378 = VECTOR( '', #459, 1000.00000000000 );
#379 = CARTESIAN_POINT( '', ( -200.000000000000, 24.0000000000000, 8.00000000000000 ) );
#380 = CARTESIAN_POINT( '', ( -200.000000000000, -24.0000000000000, 8.00000000000000 ) );
#381 = VECTOR( '', #460, 1000.00000000000 );
#382 = CARTESIAN_POINT( '', ( -200.000000000000, 24.0000000000000, 40.0000000000000 ) );
#383 = CARTESIAN_POINT( '', ( -200.000000000000, 24.0000000000000, 8.00000000000000 ) );
#384 = VECTOR( '', #461, 1000.00000000000 );
#385 = CARTESIAN_POINT( '', ( -200.000000000000, 40.0000000000000, 40.0000000000000 ) );
#386 = CARTESIAN_POINT( '', ( -200.000000000000, 24.0000000000000, 40.0000000000000 ) );
#387 = VECTOR( '', #462, 1000.00000000000 );
#388 = CARTESIAN_POINT( '', ( -200.000000000000, 40.0000000000000, -40.0000000000000 ) );
#389 = CARTESIAN_POINT( '', ( -200.000000000000, 40.0000000000000, 40.0000000000000 ) );
#390 = VECTOR( '', #463, 1000.00000000000 );
#391 = CARTESIAN_POINT( '', ( -200.000000000000, 24.0000000000000, -40.0000000000000 ) );
#392 = CARTESIAN_POINT( '', ( -200.000000000000, 40.0000000000000, -40.0000000000000 ) );
#393 = VECTOR( '', #464, 1000.00000000000 );
#394 = CARTESIAN_POINT( '', ( -200.000000000000, 24.0000000000000, -8.00000000000000 ) );
#395 = CARTESIAN_POINT( '', ( -200.000000000000, 24.0000000000000, -40.0000000000000 ) );
#396 = VECTOR( '', #465, 1000.00000000000 );
#397 = CARTESIAN_POINT( '', ( -200.000000000000, -24.0000000000000, -8.00000000000000 ) );
#398 = CARTESIAN_POINT( '', ( -200.000000000000, 24.0000000000000, -8.00000000000000 ) );
#399 = VECTOR( '', #466, 1000.00000000000 );
#400 = CARTESIAN_POINT( '', ( -200.000000000000, -24.0000000000000, -40.0000000000000 ) );
#401 = CARTESIAN_POINT( '', ( -200.000000000000, -24.0000000000000, -8.00000000000000 ) );
#402 = VECTOR( '', #467, 1000.00000000000 );
#403 = CARTESIAN_POINT( '', ( -200.000000000000, -24.0000000000000, -40.0000000000000 ) );
#404 = VECTOR( '', #468, 1000.00000000000 );
#405 = CARTESIAN_POINT( '', ( 200.000000000000, -24.0000000000000, 8.00000000000000 ) );
#406 = CARTESIAN_POINT( '', ( 200.000000000000, -24.0000000000000, 40.0000000000000 ) );
#407 = VECTOR( '', #469, 1000.00000000000 );
#408 = CARTESIAN_POINT( '', ( 200.000000000000, -24.0000000000000, 8.00000000000000 ) );
#409 = VECTOR( '', #470, 1000.00000000000 );
#410 = CARTESIAN_POINT( '', ( 200.000000000000, 24.0000000000000, 8.00000000000000 ) );
#411 = CARTESIAN_POINT( '', ( 200.000000000000, -24.0000000000000, 8.00000000000000 ) );
#412 = VECTOR( '', #471, 1000.00000000000 );
#413 = CARTESIAN_POINT( '', ( 200.000000000000, 24.0000000000000, 8.00000000000000 ) );
#414 = VECTOR( '', #472, 1000.00000000000 );
#415 = CARTESIAN_POINT( '', ( 200.000000000000, -24.0000000000000, -8.00000000000000 ) );
#416 = CARTESIAN_POINT( '', ( 200.000000000000, -24.0000000000000, -8.00000000000000 ) );
#417 = VECTOR( '', #473, 1000.00000000000 );
#418 = CARTESIAN_POINT( '', ( 200.000000000000, -24.0000000000000, -40.0000000000000 ) );
#419 = CARTESIAN_POINT( '', ( 200.000000000000, -24.0000000000000, -8.00000000000000 ) );
#420 = VECTOR( '', #474, 1000.00000000000 );
#421 = CARTESIAN_POINT( '', ( 200.000000000000, -24.0000000000000, -40.0000000000000 ) );
#422 = VECTOR( '', #475, 1000.00000000000 );
#423 = CARTESIAN_POINT( '', ( 200.000000000000, -24.0000000000000, -40.0000000000000 ) );
#424 = VECTOR( '', #476, 1000.00000000000 );
#425 = CARTESIAN_POINT( '', ( 200.000000000000, 24.0000000000000, -8.00000000000000 ) );
#426 = CARTESIAN_POINT( '', ( 200.000000000000, 24.0000000000000, -8.00000000000000 ) );
#427 = VECTOR( '', #477, 1000.00000000000 );
#428 = CARTESIAN_POINT( '', ( 200.000000000000, 24.0000000000000, -40.0000000000000 ) );
#429 = CARTESIAN_POINT( '', ( 200.000000000000, 24.0000000000000, -40.0000000000000 ) );
#430 = VECTOR( '', #478, 1000.00000000000 );
#431 = CARTESIAN_POINT( '', ( 200.000000000000, 40.0000000000000, -40.0000000000000 ) );
#432 = CARTESIAN_POINT( '', ( 200.000000000000, 40.0000000000000, -40.0000000000000 ) );
#433 = VECTOR( '', #479, 1000.00000000000 );
#434 = CARTESIAN_POINT( '', ( 200.000000000000, 40.0000000000000, 40.0000000000000 ) );
#435 = CARTESIAN_POINT( '', ( 200.000000000000, 40.0000000000000, 40.0000000000000 ) );
#436 = VECTOR( '', #480, 1000.00000000000 );
#437 = CARTESIAN_POINT( '', ( 200.000000000000, 24.0000000000000, 40.0000000000000 ) );
#438 = CARTESIAN_POINT( '', ( 200.000000000000, 24.0000000000000, 40.0000000000000 ) );
#439 = VECTOR( '', #481, 1000.00000000000 );
#440 = CARTESIAN_POINT( '', ( 200.000000000000, 24.0000000000000, 8.00000000000000 ) );
#441 = VECTOR( '', #482, 1000.00000000000 );
#442 = CARTESIAN_POINT( '', ( 200.000000000000, 24.0000000000000, 40.0000000000000 ) );
#443 = VECTOR( '', #483, 1000.00000000000 );
#444 = CARTESIAN_POINT( '', ( 200.000000000000, 40.0000000000000, 40.0000000000000 ) );
#445 = VECTOR( '', #484, 1000.00000000000 );
#446 = CARTESIAN_POINT( '', ( 200.000000000000, 40.0000000000000, -40.0000000000000 ) );
#447 = VECTOR( '', #485, 1000.00000000000 );
#448 = CARTESIAN_POINT( '', ( 200.000000000000, 24.0000000000000, -40.0000000000000 ) );
#449 = VECTOR( '', #486, 1000.00000000000 );
#450 = CARTESIAN_POINT( '', ( 200.000000000000, 24.0000000000000, -8.00000000000000 ) );
#451 = VECTOR( '', #487, 1000.00000000000 );
#452 = DIRECTION( '', ( -5.31088347701510E-033, -8.67361737988405E-017, 1.00000000000000 ) );
#453 = DIRECTION( '', ( -1.00000000000000, 0.000000000000000, 0.000000000000000 ) );
#454 = DIRECTION( '', ( -5.31088347701510E-033, -8.67361737988405E-017, 1.00000000000000 ) );
#455 = DIRECTION( '', ( -1.00000000000000, 0.000000000000000, 0.000000000000000 ) );
#456 = DIRECTION( '', ( 6.12303176911189E-017, 1.00000000000000, 6.07153216591883E-015 ) );
#457 = DIRECTION( '', ( 6.12303176911189E-017, 1.00000000000000, 6.07153216591883E-015 ) );
#458 = DIRECTION( '', ( -1.00000000000000, 0.000000000000000, 0.000000000000000 ) );
#459 = DIRECTION( '', ( -3.31930217313443E-032, -5.42101086242751E-016, -1.00000000000000 ) );
#460 = DIRECTION( '', ( 6.12303176911189E-017, 1.00000000000000, 0.000000000000000 ) );
#461 = DIRECTION( '', ( -3.31930217313443E-032, -5.42101086242751E-016, 1.00000000000000 ) );
#462 = DIRECTION( '', ( 6.12303176911189E-017, 1.00000000000000, -5.63785129692463E-015 ) );
#463 = DIRECTION( '', ( -5.31088347701510E-033, -8.67361737988405E-017, -1.00000000000000 ) );
#464 = DIRECTION( '', ( -6.12303176911189E-017, -1.00000000000000, -8.67361737988407E-016 ) );
#465 = DIRECTION( '', ( -2.65544173850755E-032, -4.33680868994202E-016, 1.00000000000000 ) );
#466 = DIRECTION( '', ( -6.12303176911189E-017, -1.00000000000000, 0.000000000000000 ) );
#467 = DIRECTION( '', ( -3.31930217313444E-032, -5.42101086242753E-016, -1.00000000000000 ) );
#468 = DIRECTION( '', ( -6.12303176911189E-017, -1.00000000000000, 4.33680868994204E-016 ) );
#469 = DIRECTION( '', ( -3.31930217313443E-032, -5.42101086242751E-016, -1.00000000000000 ) );
#470 = DIRECTION( '', ( -1.00000000000000, 0.000000000000000, 0.000000000000000 ) );
#471 = DIRECTION( '', ( 6.12303176911189E-017, 1.00000000000000, 0.000000000000000 ) );
#472 = DIRECTION( '', ( -1.00000000000000, 0.000000000000000, 0.000000000000000 ) );
#473 = DIRECTION( '', ( -1.00000000000000, 0.000000000000000, 0.000000000000000 ) );
#474 = DIRECTION( '', ( -3.31930217313444E-032, -5.42101086242753E-016, -1.00000000000000 ) );
#475 = DIRECTION( '', ( -1.00000000000000, 0.000000000000000, 0.000000000000000 ) );
#476 = DIRECTION( '', ( -6.12303176911189E-017, -1.00000000000000, 4.33680868994204E-016 ) );
#477 = DIRECTION( '', ( -6.12303176911189E-017, -1.00000000000000, 0.000000000000000 ) );
#478 = DIRECTION( '', ( -2.65544173850755E-032, -4.33680868994202E-016, 1.00000000000000 ) );
#479 = DIRECTION( '', ( -6.12303176911189E-017, -1.00000000000000, -8.67361737988407E-016 ) );
#480 = DIRECTION( '', ( -5.31088347701510E-033, -8.67361737988405E-017, -1.00000000000000 ) );
#481 = DIRECTION( '', ( 6.12303176911189E-017, 1.00000000000000, -5.63785129692463E-015 ) );
#482 = DIRECTION( '', ( -3.31930217313443E-032, -5.42101086242751E-016, 1.00000000000000 ) );
#483 = DIRECTION( '', ( -1.00000000000000, 0.000000000000000, 0.000000000000000 ) );
#484 = DIRECTION( '', ( -1.00000000000000, 0.000000000000000, 0.000000000000000 ) );
#485 = DIRECTION( '', ( -1.00000000000000, 0.000000000000000, 0.000000000000000 ) );
#486 = DIRECTION( '', ( -1.00000000000000, 0.000000000000000, 0.000000000000000 ) );
#487 = DIRECTION( '', ( -1.00000000000000, 0.000000000000000, 0.000000000000000 ) );
ENDSEC;
END-ISO-10303-21;
