ISO-10303-21;
HEADER;
FILE_DESCRIPTION( ( 'Unknown' ), '1' );
FILE_NAME( 's:/LEAVE 2D&3D CAD/LEAVE 3D CAD (STEP)/Metric/BC-3D/BC03-3D/BC03-080100-200.stp', 'Unknown', ( 'Unknown' ), ( 'Unknown' ), 'XStep 1.0', 'Unknown', '  ' );
FILE_SCHEMA( ( 'CONFIG_CONTROL_DESIGN' ) );
ENDSEC;
DATA;
#1 = DESIGN_CONTEXT( '', #27, 'design' );
#2 = APPLICATION_PROTOCOL_DEFINITION( 'INTERNATIONAL STANDARD', 'config_control_design', 1994, #27 );
#3 = PRODUCT_CATEGORY_RELATIONSHIP( 'NONE', 'NONE', #28, #29 );
#4 = DATE_AND_TIME( #30, #31 );
#5 = DATE_TIME_ROLE( 'creation_date' );
#6 = DATE_TIME_ROLE( 'classification_date' );
#7 = PERSON_AND_ORGANIZATION_ROLE( 'creator' );
#8 = PERSON_AND_ORGANIZATION_ROLE( 'design_supplier' );
#9 = PERSON_AND_ORGANIZATION_ROLE( 'classification_officer' );
#10 = PERSON_AND_ORGANIZATION_ROLE( 'design_owner' );
#11 = APPROVAL_PERSON_ORGANIZATION( #32, #33, #34 );
#12 = APPROVAL_DATE_TIME( #4, #33 );
#13 = CC_DESIGN_APPROVAL( #33, ( #35, #36, #37 ) );
#14 = CC_DESIGN_DATE_AND_TIME_ASSIGNMENT( #4, #5, ( #37 ) );
#15 = CC_DESIGN_DATE_AND_TIME_ASSIGNMENT( #4, #6, ( #35 ) );
#16 = CC_DESIGN_PERSON_AND_ORGANIZATION_ASSIGNMENT( #32, #10, ( #38 ) );
#17 = CC_DESIGN_PERSON_AND_ORGANIZATION_ASSIGNMENT( #32, #7, ( #37 ) );
#18 = CC_DESIGN_PERSON_AND_ORGANIZATION_ASSIGNMENT( #32, #7, ( #36 ) );
#19 = CC_DESIGN_PERSON_AND_ORGANIZATION_ASSIGNMENT( #32, #8, ( #36 ) );
#20 = CC_DESIGN_SECURITY_CLASSIFICATION( #35, ( #36 ) );
#21 = CC_DESIGN_PERSON_AND_ORGANIZATION_ASSIGNMENT( #32, #9, ( #35 ) );
#22 = SHAPE_DEFINITION_REPRESENTATION( #39, #40 );
#23 =  ( GEOMETRIC_REPRESENTATION_CONTEXT( 3 )GLOBAL_UNCERTAINTY_ASSIGNED_CONTEXT( ( #43 ) )GLOBAL_UNIT_ASSIGNED_CONTEXT( ( #45, #46, #47 ) )REPRESENTATION_CONTEXT( 'NONE', 'WORKSPACE' ) );
#27 = APPLICATION_CONTEXT( 'CONFIGURATION CONTROLLED 3D DESIGNS OF MECHANICAL PARTS AND ASSEMBLIES' );
#28 = PRODUCT_CATEGORY( 'part', 'NONE' );
#29 = PRODUCT_RELATED_PRODUCT_CATEGORY( 'detail', ' ', ( #38 ) );
#30 = CALENDAR_DATE( 2007, 24, 11 );
#31 = LOCAL_TIME( 13, 13, 4.00000000000000, #49 );
#32 = PERSON_AND_ORGANIZATION( #50, #51 );
#33 = APPROVAL( #52, 'SOLID MODEL' );
#34 = APPROVAL_ROLE( 'APPROVED' );
#35 = SECURITY_CLASSIFICATION( '', '', #53 );
#36 = PRODUCT_DEFINITION_FORMATION_WITH_SPECIFIED_SOURCE( ' ', 'NONE', #38, .NOT_KNOWN. );
#37 = PRODUCT_DEFINITION( 'NONE', 'NONE', #36, #1 );
#38 = PRODUCT( '1', '1', 'PART-1-DESC', ( #54 ) );
#39 = PRODUCT_DEFINITION_SHAPE( 'NONE', 'NONE', #37 );
#40 = ADVANCED_BREP_SHAPE_REPRESENTATION( '1', ( #55, #56 ), #23 );
#43 = UNCERTAINTY_MEASURE_WITH_UNIT( LENGTH_MEASURE( 0.00100000000000000 ), #45, '', '' );
#45 =  ( CONVERSION_BASED_UNIT( 'MILLIMETRE', #59 )LENGTH_UNIT(  )NAMED_UNIT( #62 ) );
#46 =  ( NAMED_UNIT( #64 )PLANE_ANGLE_UNIT(  )SI_UNIT( $, .RADIAN. ) );
#47 =  ( NAMED_UNIT( #64 )SOLID_ANGLE_UNIT(  )SI_UNIT( $, .STERADIAN. ) );
#49 = COORDINATED_UNIVERSAL_TIME_OFFSET( 8, 0, .AHEAD. );
#50 = PERSON( '', 'UNSPECIFIED', $, $, $, $ );
#51 = ORGANIZATION( 'UNSPECIFIED', 'UNSPECIFIED', 'UNSPECIFIED' );
#52 = APPROVAL_STATUS( 'approved' );
#53 = SECURITY_CLASSIFICATION_LEVEL( 'unclassified' );
#54 = MECHANICAL_CONTEXT( '', #27, 'mechanical' );
#55 = MANIFOLD_SOLID_BREP( '1', #70 );
#56 = AXIS2_PLACEMENT_3D( '', #71, #72, #73 );
#59 = LENGTH_MEASURE_WITH_UNIT( LENGTH_MEASURE( 1.00000000000000 ), #74 );
#62 = DIMENSIONAL_EXPONENTS( 1.00000000000000, 0.000000000000000, 0.000000000000000, 0.000000000000000, 0.000000000000000, 0.000000000000000, 0.000000000000000 );
#64 = DIMENSIONAL_EXPONENTS( 0.000000000000000, 0.000000000000000, 0.000000000000000, 0.000000000000000, 0.000000000000000, 0.000000000000000, 0.000000000000000 );
#70 = CLOSED_SHELL( '', ( #75, #76, #77, #78, #79, #80, #81, #82, #83, #84, #85, #86, #87, #88 ) );
#71 = CARTESIAN_POINT( '', ( 0.000000000000000, 0.000000000000000, 0.000000000000000 ) );
#72 = DIRECTION( '', ( 0.000000000000000, 0.000000000000000, 1.00000000000000 ) );
#73 = DIRECTION( '', ( 1.00000000000000, 0.000000000000000, 0.000000000000000 ) );
#74 =  ( NAMED_UNIT( #62 )LENGTH_UNIT(  )SI_UNIT( .MILLI., .METRE. ) );
#75 = ADVANCED_FACE( '', ( #90 ), #91, .T. );
#76 = ADVANCED_FACE( '', ( #92 ), #93, .F. );
#77 = ADVANCED_FACE( '', ( #94, #95 ), #96, .T. );
#78 = ADVANCED_FACE( '', ( #97 ), #98, .F. );
#79 = ADVANCED_FACE( '', ( #99 ), #100, .T. );
#80 = ADVANCED_FACE( '', ( #101 ), #102, .F. );
#81 = ADVANCED_FACE( '', ( #103 ), #104, .T. );
#82 = ADVANCED_FACE( '', ( #105, #106 ), #107, .F. );
#83 = ADVANCED_FACE( '', ( #108 ), #109, .F. );
#84 = ADVANCED_FACE( '', ( #110 ), #111, .F. );
#85 = ADVANCED_FACE( '', ( #112 ), #113, .T. );
#86 = ADVANCED_FACE( '', ( #114 ), #115, .F. );
#87 = ADVANCED_FACE( '', ( #116 ), #117, .F. );
#88 = ADVANCED_FACE( '', ( #118 ), #119, .F. );
#90 = FACE_OUTER_BOUND( '', #120, .T. );
#91 = PLANE( '', #121 );
#92 = FACE_OUTER_BOUND( '', #122, .T. );
#93 = PLANE( '', #123 );
#94 = FACE_OUTER_BOUND( '', #124, .T. );
#95 = FACE_BOUND( '', #125, .T. );
#96 = PLANE( '', #126 );
#97 = FACE_OUTER_BOUND( '', #127, .T. );
#98 = PLANE( '', #128 );
#99 = FACE_OUTER_BOUND( '', #129, .T. );
#100 = PLANE( '', #130 );
#101 = FACE_OUTER_BOUND( '', #131, .T. );
#102 = CYLINDRICAL_SURFACE( '', #132, 5.00000000000000 );
#103 = FACE_OUTER_BOUND( '', #133, .T. );
#104 = PLANE( '', #134 );
#105 = FACE_OUTER_BOUND( '', #135, .T. );
#106 = FACE_BOUND( '', #136, .T. );
#107 = PLANE( '', #137 );
#108 = FACE_OUTER_BOUND( '', #138, .T. );
#109 = CYLINDRICAL_SURFACE( '', #139, 5.00000000000000 );
#110 = FACE_OUTER_BOUND( '', #140, .T. );
#111 = CYLINDRICAL_SURFACE( '', #141, 5.00000000000000 );
#112 = FACE_OUTER_BOUND( '', #142, .T. );
#113 = PLANE( '', #143 );
#114 = FACE_OUTER_BOUND( '', #144, .T. );
#115 = PLANE( '', #145 );
#116 = FACE_OUTER_BOUND( '', #146, .T. );
#117 = PLANE( '', #147 );
#118 = FACE_OUTER_BOUND( '', #148, .T. );
#119 = CYLINDRICAL_SURFACE( '', #149, 5.00000000000000 );
#120 = EDGE_LOOP( '', ( #150, #151, #152, #153 ) );
#121 = AXIS2_PLACEMENT_3D( '', #154, #155, #156 );
#122 = EDGE_LOOP( '', ( #157, #158, #159, #160 ) );
#123 = AXIS2_PLACEMENT_3D( '', #161, #162, #163 );
#124 = EDGE_LOOP( '', ( #164, #165, #166, #167 ) );
#125 = EDGE_LOOP( '', ( #168, #169, #170, #171, #172, #173, #174, #175 ) );
#126 = AXIS2_PLACEMENT_3D( '', #176, #177, #178 );
#127 = EDGE_LOOP( '', ( #179, #180, #181, #182 ) );
#128 = AXIS2_PLACEMENT_3D( '', #183, #184, #185 );
#129 = EDGE_LOOP( '', ( #186, #187, #188, #189 ) );
#130 = AXIS2_PLACEMENT_3D( '', #190, #191, #192 );
#131 = EDGE_LOOP( '', ( #193, #194, #195, #196 ) );
#132 = AXIS2_PLACEMENT_3D( '', #197, #198, #199 );
#133 = EDGE_LOOP( '', ( #200, #201, #202, #203 ) );
#134 = AXIS2_PLACEMENT_3D( '', #204, #205, #206 );
#135 = EDGE_LOOP( '', ( #207, #208, #209, #210 ) );
#136 = EDGE_LOOP( '', ( #211, #212, #213, #214, #215, #216, #217, #218 ) );
#137 = AXIS2_PLACEMENT_3D( '', #219, #220, #221 );
#138 = EDGE_LOOP( '', ( #222, #223, #224, #225 ) );
#139 = AXIS2_PLACEMENT_3D( '', #226, #227, #228 );
#140 = EDGE_LOOP( '', ( #229, #230, #231, #232 ) );
#141 = AXIS2_PLACEMENT_3D( '', #233, #234, #235 );
#142 = EDGE_LOOP( '', ( #236, #237, #238, #239 ) );
#143 = AXIS2_PLACEMENT_3D( '', #240, #241, #242 );
#144 = EDGE_LOOP( '', ( #243, #244, #245, #246 ) );
#145 = AXIS2_PLACEMENT_3D( '', #247, #248, #249 );
#146 = EDGE_LOOP( '', ( #250, #251, #252, #253 ) );
#147 = AXIS2_PLACEMENT_3D( '', #254, #255, #256 );
#148 = EDGE_LOOP( '', ( #257, #258, #259, #260 ) );
#149 = AXIS2_PLACEMENT_3D( '', #261, #262, #263 );
#150 = ORIENTED_EDGE( '', *, *, #264, .T. );
#151 = ORIENTED_EDGE( '', *, *, #265, .T. );
#152 = ORIENTED_EDGE( '', *, *, #266, .F. );
#153 = ORIENTED_EDGE( '', *, *, #267, .T. );
#154 = CARTESIAN_POINT( '', ( 100.000000000000, 34.0000000000000, -24.0000000000000 ) );
#155 = DIRECTION( '', ( 0.000000000000000, -1.00000000000000, 0.000000000000000 ) );
#156 = DIRECTION( '', ( 0.000000000000000, 0.000000000000000, -1.00000000000000 ) );
#157 = ORIENTED_EDGE( '', *, *, #268, .T. );
#158 = ORIENTED_EDGE( '', *, *, #269, .F. );
#159 = ORIENTED_EDGE( '', *, *, #270, .F. );
#160 = ORIENTED_EDGE( '', *, *, #271, .T. );
#161 = CARTESIAN_POINT( '', ( 100.000000000000, -50.0000000000000, 40.0000000000000 ) );
#162 = DIRECTION( '', ( 0.000000000000000, 1.00000000000000, 8.67361737988404E-017 ) );
#163 = DIRECTION( '', ( 0.000000000000000, -8.67361737988404E-017, 1.00000000000000 ) );
#164 = ORIENTED_EDGE( '', *, *, #268, .F. );
#165 = ORIENTED_EDGE( '', *, *, #272, .F. );
#166 = ORIENTED_EDGE( '', *, *, #273, .F. );
#167 = ORIENTED_EDGE( '', *, *, #274, .F. );
#168 = ORIENTED_EDGE( '', *, *, #275, .T. );
#169 = ORIENTED_EDGE( '', *, *, #276, .T. );
#170 = ORIENTED_EDGE( '', *, *, #277, .T. );
#171 = ORIENTED_EDGE( '', *, *, #278, .T. );
#172 = ORIENTED_EDGE( '', *, *, #266, .T. );
#173 = ORIENTED_EDGE( '', *, *, #279, .T. );
#174 = ORIENTED_EDGE( '', *, *, #280, .T. );
#175 = ORIENTED_EDGE( '', *, *, #281, .T. );
#176 = CARTESIAN_POINT( '', ( -100.000000000000, -50.0000000000000, 40.0000000000000 ) );
#177 = DIRECTION( '', ( -1.00000000000000, 6.12303176911189E-017, 0.000000000000000 ) );
#178 = DIRECTION( '', ( -6.12303176911189E-017, -1.00000000000000, 0.000000000000000 ) );
#179 = ORIENTED_EDGE( '', *, *, #274, .T. );
#180 = ORIENTED_EDGE( '', *, *, #282, .F. );
#181 = ORIENTED_EDGE( '', *, *, #283, .F. );
#182 = ORIENTED_EDGE( '', *, *, #269, .T. );
#183 = CARTESIAN_POINT( '', ( 100.000000000000, -50.0000000000000, -40.0000000000000 ) );
#184 = DIRECTION( '', ( 0.000000000000000, 1.38777878078145E-016, 1.00000000000000 ) );
#185 = DIRECTION( '', ( 0.000000000000000, -1.00000000000000, 1.38777878078145E-016 ) );
#186 = ORIENTED_EDGE( '', *, *, #284, .T. );
#187 = ORIENTED_EDGE( '', *, *, #285, .T. );
#188 = ORIENTED_EDGE( '', *, *, #275, .F. );
#189 = ORIENTED_EDGE( '', *, *, #286, .T. );
#190 = CARTESIAN_POINT( '', ( 100.000000000000, -34.0000000000000, 24.0000000000000 ) );
#191 = DIRECTION( '', ( 0.000000000000000, 1.00000000000000, 1.44560289664734E-016 ) );
#192 = DIRECTION( '', ( 0.000000000000000, -1.44560289664734E-016, 1.00000000000000 ) );
#193 = ORIENTED_EDGE( '', *, *, #287, .F. );
#194 = ORIENTED_EDGE( '', *, *, #286, .F. );
#195 = ORIENTED_EDGE( '', *, *, #281, .F. );
#196 = ORIENTED_EDGE( '', *, *, #288, .F. );
#197 = CARTESIAN_POINT( '', ( 100.000000000000, -29.0000000000000, 19.0000000000000 ) );
#198 = DIRECTION( '', ( -1.00000000000000, -0.000000000000000, -0.000000000000000 ) );
#199 = DIRECTION( '', ( 0.000000000000000, 0.000000000000000, -1.00000000000000 ) );
#200 = ORIENTED_EDGE( '', *, *, #280, .F. );
#201 = ORIENTED_EDGE( '', *, *, #289, .T. );
#202 = ORIENTED_EDGE( '', *, *, #290, .T. );
#203 = ORIENTED_EDGE( '', *, *, #288, .T. );
#204 = CARTESIAN_POINT( '', ( 100.000000000000, 34.0000000000000, 24.0000000000000 ) );
#205 = DIRECTION( '', ( 0.000000000000000, 1.02042557410400E-016, -1.00000000000000 ) );
#206 = DIRECTION( '', ( 0.000000000000000, 1.00000000000000, 1.02042557410400E-016 ) );
#207 = ORIENTED_EDGE( '', *, *, #270, .T. );
#208 = ORIENTED_EDGE( '', *, *, #283, .T. );
#209 = ORIENTED_EDGE( '', *, *, #291, .T. );
#210 = ORIENTED_EDGE( '', *, *, #292, .T. );
#211 = ORIENTED_EDGE( '', *, *, #264, .F. );
#212 = ORIENTED_EDGE( '', *, *, #293, .T. );
#213 = ORIENTED_EDGE( '', *, *, #294, .F. );
#214 = ORIENTED_EDGE( '', *, *, #295, .T. );
#215 = ORIENTED_EDGE( '', *, *, #284, .F. );
#216 = ORIENTED_EDGE( '', *, *, #287, .T. );
#217 = ORIENTED_EDGE( '', *, *, #290, .F. );
#218 = ORIENTED_EDGE( '', *, *, #296, .T. );
#219 = CARTESIAN_POINT( '', ( 100.000000000000, -50.0000000000000, 40.0000000000000 ) );
#220 = DIRECTION( '', ( -1.00000000000000, 6.12303176911189E-017, 0.000000000000000 ) );
#221 = DIRECTION( '', ( -6.12303176911189E-017, -1.00000000000000, 0.000000000000000 ) );
#222 = ORIENTED_EDGE( '', *, *, #295, .F. );
#223 = ORIENTED_EDGE( '', *, *, #297, .F. );
#224 = ORIENTED_EDGE( '', *, *, #276, .F. );
#225 = ORIENTED_EDGE( '', *, *, #285, .F. );
#226 = CARTESIAN_POINT( '', ( 100.000000000000, -29.0000000000000, -19.0000000000000 ) );
#227 = DIRECTION( '', ( -1.00000000000000, -0.000000000000000, -0.000000000000000 ) );
#228 = DIRECTION( '', ( 0.000000000000000, 0.000000000000000, -1.00000000000000 ) );
#229 = ORIENTED_EDGE( '', *, *, #296, .F. );
#230 = ORIENTED_EDGE( '', *, *, #289, .F. );
#231 = ORIENTED_EDGE( '', *, *, #279, .F. );
#232 = ORIENTED_EDGE( '', *, *, #265, .F. );
#233 = CARTESIAN_POINT( '', ( 100.000000000000, 29.0000000000000, 19.0000000000000 ) );
#234 = DIRECTION( '', ( -1.00000000000000, -0.000000000000000, -0.000000000000000 ) );
#235 = DIRECTION( '', ( 0.000000000000000, 0.000000000000000, -1.00000000000000 ) );
#236 = ORIENTED_EDGE( '', *, *, #277, .F. );
#237 = ORIENTED_EDGE( '', *, *, #297, .T. );
#238 = ORIENTED_EDGE( '', *, *, #294, .T. );
#239 = ORIENTED_EDGE( '', *, *, #298, .T. );
#240 = CARTESIAN_POINT( '', ( 100.000000000000, -34.0000000000000, -24.0000000000000 ) );
#241 = DIRECTION( '', ( 0.000000000000000, 0.000000000000000, 1.00000000000000 ) );
#242 = DIRECTION( '', ( 1.00000000000000, 0.000000000000000, 0.000000000000000 ) );
#243 = ORIENTED_EDGE( '', *, *, #272, .T. );
#244 = ORIENTED_EDGE( '', *, *, #271, .F. );
#245 = ORIENTED_EDGE( '', *, *, #292, .F. );
#246 = ORIENTED_EDGE( '', *, *, #299, .T. );
#247 = CARTESIAN_POINT( '', ( 100.000000000000, 50.0000000000000, 40.0000000000000 ) );
#248 = DIRECTION( '', ( 0.000000000000000, 2.77555756156289E-016, -1.00000000000000 ) );
#249 = DIRECTION( '', ( 0.000000000000000, 1.00000000000000, 2.77555756156289E-016 ) );
#250 = ORIENTED_EDGE( '', *, *, #273, .T. );
#251 = ORIENTED_EDGE( '', *, *, #299, .F. );
#252 = ORIENTED_EDGE( '', *, *, #291, .F. );
#253 = ORIENTED_EDGE( '', *, *, #282, .T. );
#254 = CARTESIAN_POINT( '', ( 100.000000000000, 50.0000000000000, -40.0000000000000 ) );
#255 = DIRECTION( '', ( 0.000000000000000, -1.00000000000000, -8.67361737988403E-017 ) );
#256 = DIRECTION( '', ( 0.000000000000000, 8.67361737988403E-017, -1.00000000000000 ) );
#257 = ORIENTED_EDGE( '', *, *, #293, .F. );
#258 = ORIENTED_EDGE( '', *, *, #267, .F. );
#259 = ORIENTED_EDGE( '', *, *, #278, .F. );
#260 = ORIENTED_EDGE( '', *, *, #298, .F. );
#261 = CARTESIAN_POINT( '', ( 100.000000000000, 29.0000000000000, -19.0000000000000 ) );
#262 = DIRECTION( '', ( -1.00000000000000, -0.000000000000000, -0.000000000000000 ) );
#263 = DIRECTION( '', ( 0.000000000000000, 0.000000000000000, -1.00000000000000 ) );
#264 = EDGE_CURVE( '', #300, #301, #302, .T. );
#265 = EDGE_CURVE( '', #301, #303, #304, .T. );
#266 = EDGE_CURVE( '', #305, #303, #306, .T. );
#267 = EDGE_CURVE( '', #305, #300, #307, .F. );
#268 = EDGE_CURVE( '', #308, #309, #310, .T. );
#269 = EDGE_CURVE( '', #311, #309, #312, .T. );
#270 = EDGE_CURVE( '', #313, #311, #314, .T. );
#271 = EDGE_CURVE( '', #313, #308, #315, .T. );
#272 = EDGE_CURVE( '', #316, #308, #317, .T. );
#273 = EDGE_CURVE( '', #318, #316, #319, .T. );
#274 = EDGE_CURVE( '', #309, #318, #320, .T. );
#275 = EDGE_CURVE( '', #321, #322, #323, .T. );
#276 = EDGE_CURVE( '', #322, #324, #325, .F. );
#277 = EDGE_CURVE( '', #324, #326, #327, .T. );
#278 = EDGE_CURVE( '', #326, #305, #328, .F. );
#279 = EDGE_CURVE( '', #303, #329, #330, .F. );
#280 = EDGE_CURVE( '', #329, #331, #332, .T. );
#281 = EDGE_CURVE( '', #331, #321, #333, .F. );
#282 = EDGE_CURVE( '', #334, #318, #335, .T. );
#283 = EDGE_CURVE( '', #311, #334, #336, .T. );
#284 = EDGE_CURVE( '', #337, #338, #339, .T. );
#285 = EDGE_CURVE( '', #338, #322, #340, .T. );
#286 = EDGE_CURVE( '', #321, #337, #341, .F. );
#287 = EDGE_CURVE( '', #337, #342, #343, .T. );
#288 = EDGE_CURVE( '', #342, #331, #344, .T. );
#289 = EDGE_CURVE( '', #329, #345, #346, .F. );
#290 = EDGE_CURVE( '', #345, #342, #347, .T. );
#291 = EDGE_CURVE( '', #334, #348, #349, .T. );
#292 = EDGE_CURVE( '', #348, #313, #350, .T. );
#293 = EDGE_CURVE( '', #300, #351, #352, .T. );
#294 = EDGE_CURVE( '', #353, #351, #354, .T. );
#295 = EDGE_CURVE( '', #353, #338, #355, .T. );
#296 = EDGE_CURVE( '', #345, #301, #356, .T. );
#297 = EDGE_CURVE( '', #324, #353, #357, .F. );
#298 = EDGE_CURVE( '', #351, #326, #358, .T. );
#299 = EDGE_CURVE( '', #348, #316, #359, .T. );
#300 = VERTEX_POINT( '', #360 );
#301 = VERTEX_POINT( '', #361 );
#302 = LINE( '', #362, #363 );
#303 = VERTEX_POINT( '', #364 );
#304 = LINE( '', #365, #366 );
#305 = VERTEX_POINT( '', #367 );
#306 = LINE( '', #368, #369 );
#307 = LINE( '', #370, #371 );
#308 = VERTEX_POINT( '', #372 );
#309 = VERTEX_POINT( '', #373 );
#310 = LINE( '', #374, #375 );
#311 = VERTEX_POINT( '', #376 );
#312 = LINE( '', #377, #378 );
#313 = VERTEX_POINT( '', #379 );
#314 = LINE( '', #380, #381 );
#315 = LINE( '', #382, #383 );
#316 = VERTEX_POINT( '', #384 );
#317 = LINE( '', #385, #386 );
#318 = VERTEX_POINT( '', #387 );
#319 = LINE( '', #388, #389 );
#320 = LINE( '', #390, #391 );
#321 = VERTEX_POINT( '', #392 );
#322 = VERTEX_POINT( '', #393 );
#323 = LINE( '', #394, #395 );
#324 = VERTEX_POINT( '', #396 );
#325 = CIRCLE( '', #397, 5.00000000000000 );
#326 = VERTEX_POINT( '', #398 );
#327 = LINE( '', #399, #400 );
#328 = CIRCLE( '', #401, 5.00000000000000 );
#329 = VERTEX_POINT( '', #402 );
#330 = CIRCLE( '', #403, 5.00000000000000 );
#331 = VERTEX_POINT( '', #404 );
#332 = LINE( '', #405, #406 );
#333 = CIRCLE( '', #407, 5.00000000000000 );
#334 = VERTEX_POINT( '', #408 );
#335 = LINE( '', #409, #410 );
#336 = LINE( '', #411, #412 );
#337 = VERTEX_POINT( '', #413 );
#338 = VERTEX_POINT( '', #414 );
#339 = LINE( '', #415, #416 );
#340 = LINE( '', #417, #418 );
#341 = LINE( '', #419, #420 );
#342 = VERTEX_POINT( '', #421 );
#343 = CIRCLE( '', #422, 5.00000000000000 );
#344 = LINE( '', #423, #424 );
#345 = VERTEX_POINT( '', #425 );
#346 = LINE( '', #426, #427 );
#347 = LINE( '', #428, #429 );
#348 = VERTEX_POINT( '', #430 );
#349 = LINE( '', #431, #432 );
#350 = LINE( '', #433, #434 );
#351 = VERTEX_POINT( '', #435 );
#352 = CIRCLE( '', #436, 5.00000000000000 );
#353 = VERTEX_POINT( '', #437 );
#354 = LINE( '', #438, #439 );
#355 = CIRCLE( '', #440, 5.00000000000000 );
#356 = CIRCLE( '', #441, 5.00000000000000 );
#357 = LINE( '', #442, #443 );
#358 = LINE( '', #444, #445 );
#359 = LINE( '', #446, #447 );
#360 = CARTESIAN_POINT( '', ( 100.000000000000, 34.0000000000000, -19.0000000000000 ) );
#361 = CARTESIAN_POINT( '', ( 100.000000000000, 34.0000000000000, 19.0000000000000 ) );
#362 = CARTESIAN_POINT( '', ( 100.000000000000, 34.0000000000000, -24.0000000000000 ) );
#363 = VECTOR( '', #448, 1000.00000000000 );
#364 = CARTESIAN_POINT( '', ( -100.000000000000, 34.0000000000000, 19.0000000000000 ) );
#365 = CARTESIAN_POINT( '', ( -100.000000000000, 34.0000000000000, 19.0000000000000 ) );
#366 = VECTOR( '', #449, 1000.00000000000 );
#367 = CARTESIAN_POINT( '', ( -100.000000000000, 34.0000000000000, -19.0000000000000 ) );
#368 = CARTESIAN_POINT( '', ( -100.000000000000, 34.0000000000000, -24.0000000000000 ) );
#369 = VECTOR( '', #450, 1000.00000000000 );
#370 = CARTESIAN_POINT( '', ( 100.000000000000, 34.0000000000000, -19.0000000000000 ) );
#371 = VECTOR( '', #451, 1000.00000000000 );
#372 = CARTESIAN_POINT( '', ( -100.000000000000, -50.0000000000000, 40.0000000000000 ) );
#373 = CARTESIAN_POINT( '', ( -100.000000000000, -50.0000000000000, -40.0000000000000 ) );
#374 = CARTESIAN_POINT( '', ( -100.000000000000, -50.0000000000000, 40.0000000000000 ) );
#375 = VECTOR( '', #452, 1000.00000000000 );
#376 = CARTESIAN_POINT( '', ( 100.000000000000, -50.0000000000000, -40.0000000000000 ) );
#377 = CARTESIAN_POINT( '', ( 100.000000000000, -50.0000000000000, -40.0000000000000 ) );
#378 = VECTOR( '', #453, 1000.00000000000 );
#379 = CARTESIAN_POINT( '', ( 100.000000000000, -50.0000000000000, 40.0000000000000 ) );
#380 = CARTESIAN_POINT( '', ( 100.000000000000, -50.0000000000000, 40.0000000000000 ) );
#381 = VECTOR( '', #454, 1000.00000000000 );
#382 = CARTESIAN_POINT( '', ( 100.000000000000, -50.0000000000000, 40.0000000000000 ) );
#383 = VECTOR( '', #455, 1000.00000000000 );
#384 = CARTESIAN_POINT( '', ( -100.000000000000, 50.0000000000000, 40.0000000000000 ) );
#385 = CARTESIAN_POINT( '', ( -100.000000000000, 50.0000000000000, 40.0000000000000 ) );
#386 = VECTOR( '', #456, 1000.00000000000 );
#387 = CARTESIAN_POINT( '', ( -100.000000000000, 50.0000000000000, -40.0000000000000 ) );
#388 = CARTESIAN_POINT( '', ( -100.000000000000, 50.0000000000000, -40.0000000000000 ) );
#389 = VECTOR( '', #457, 1000.00000000000 );
#390 = CARTESIAN_POINT( '', ( -100.000000000000, -50.0000000000000, -40.0000000000000 ) );
#391 = VECTOR( '', #458, 1000.00000000000 );
#392 = CARTESIAN_POINT( '', ( -100.000000000000, -34.0000000000000, 19.0000000000000 ) );
#393 = CARTESIAN_POINT( '', ( -100.000000000000, -34.0000000000000, -19.0000000000000 ) );
#394 = CARTESIAN_POINT( '', ( -100.000000000000, -34.0000000000000, 24.0000000000000 ) );
#395 = VECTOR( '', #459, 1000.00000000000 );
#396 = CARTESIAN_POINT( '', ( -100.000000000000, -29.0000000000000, -24.0000000000000 ) );
#397 = AXIS2_PLACEMENT_3D( '', #460, #461, #462 );
#398 = CARTESIAN_POINT( '', ( -100.000000000000, 29.0000000000000, -24.0000000000000 ) );
#399 = CARTESIAN_POINT( '', ( -100.000000000000, -34.0000000000000, -24.0000000000000 ) );
#400 = VECTOR( '', #463, 1000.00000000000 );
#401 = AXIS2_PLACEMENT_3D( '', #464, #465, #466 );
#402 = CARTESIAN_POINT( '', ( -100.000000000000, 29.0000000000000, 24.0000000000000 ) );
#403 = AXIS2_PLACEMENT_3D( '', #467, #468, #469 );
#404 = CARTESIAN_POINT( '', ( -100.000000000000, -29.0000000000000, 24.0000000000000 ) );
#405 = CARTESIAN_POINT( '', ( -100.000000000000, 34.0000000000000, 24.0000000000000 ) );
#406 = VECTOR( '', #470, 1000.00000000000 );
#407 = AXIS2_PLACEMENT_3D( '', #471, #472, #473 );
#408 = CARTESIAN_POINT( '', ( 100.000000000000, 50.0000000000000, -40.0000000000000 ) );
#409 = CARTESIAN_POINT( '', ( 100.000000000000, 50.0000000000000, -40.0000000000000 ) );
#410 = VECTOR( '', #474, 1000.00000000000 );
#411 = CARTESIAN_POINT( '', ( 100.000000000000, -50.0000000000000, -40.0000000000000 ) );
#412 = VECTOR( '', #475, 1000.00000000000 );
#413 = CARTESIAN_POINT( '', ( 100.000000000000, -34.0000000000000, 19.0000000000000 ) );
#414 = CARTESIAN_POINT( '', ( 100.000000000000, -34.0000000000000, -19.0000000000000 ) );
#415 = CARTESIAN_POINT( '', ( 100.000000000000, -34.0000000000000, 24.0000000000000 ) );
#416 = VECTOR( '', #476, 1000.00000000000 );
#417 = CARTESIAN_POINT( '', ( -100.000000000000, -34.0000000000000, -19.0000000000000 ) );
#418 = VECTOR( '', #477, 1000.00000000000 );
#419 = CARTESIAN_POINT( '', ( 100.000000000000, -34.0000000000000, 19.0000000000000 ) );
#420 = VECTOR( '', #478, 1000.00000000000 );
#421 = CARTESIAN_POINT( '', ( 100.000000000000, -29.0000000000000, 24.0000000000000 ) );
#422 = AXIS2_PLACEMENT_3D( '', #479, #480, #481 );
#423 = CARTESIAN_POINT( '', ( -100.000000000000, -29.0000000000000, 24.0000000000000 ) );
#424 = VECTOR( '', #482, 1000.00000000000 );
#425 = CARTESIAN_POINT( '', ( 100.000000000000, 29.0000000000000, 24.0000000000000 ) );
#426 = CARTESIAN_POINT( '', ( 100.000000000000, 29.0000000000000, 24.0000000000000 ) );
#427 = VECTOR( '', #483, 1000.00000000000 );
#428 = CARTESIAN_POINT( '', ( 100.000000000000, 34.0000000000000, 24.0000000000000 ) );
#429 = VECTOR( '', #484, 1000.00000000000 );
#430 = CARTESIAN_POINT( '', ( 100.000000000000, 50.0000000000000, 40.0000000000000 ) );
#431 = CARTESIAN_POINT( '', ( 100.000000000000, 50.0000000000000, -40.0000000000000 ) );
#432 = VECTOR( '', #485, 1000.00000000000 );
#433 = CARTESIAN_POINT( '', ( 100.000000000000, 50.0000000000000, 40.0000000000000 ) );
#434 = VECTOR( '', #486, 1000.00000000000 );
#435 = CARTESIAN_POINT( '', ( 100.000000000000, 29.0000000000000, -24.0000000000000 ) );
#436 = AXIS2_PLACEMENT_3D( '', #487, #488, #489 );
#437 = CARTESIAN_POINT( '', ( 100.000000000000, -29.0000000000000, -24.0000000000000 ) );
#438 = CARTESIAN_POINT( '', ( 100.000000000000, -34.0000000000000, -24.0000000000000 ) );
#439 = VECTOR( '', #490, 1000.00000000000 );
#440 = AXIS2_PLACEMENT_3D( '', #491, #492, #493 );
#441 = AXIS2_PLACEMENT_3D( '', #494, #495, #496 );
#442 = CARTESIAN_POINT( '', ( 100.000000000000, -29.0000000000000, -24.0000000000000 ) );
#443 = VECTOR( '', #497, 1000.00000000000 );
#444 = CARTESIAN_POINT( '', ( -100.000000000000, 29.0000000000000, -24.0000000000000 ) );
#445 = VECTOR( '', #498, 1000.00000000000 );
#446 = CARTESIAN_POINT( '', ( 100.000000000000, 50.0000000000000, 40.0000000000000 ) );
#447 = VECTOR( '', #499, 1000.00000000000 );
#448 = DIRECTION( '', ( 0.000000000000000, 0.000000000000000, 1.00000000000000 ) );
#449 = DIRECTION( '', ( -1.00000000000000, 0.000000000000000, 0.000000000000000 ) );
#450 = DIRECTION( '', ( 0.000000000000000, 0.000000000000000, 1.00000000000000 ) );
#451 = DIRECTION( '', ( -1.00000000000000, 0.000000000000000, 0.000000000000000 ) );
#452 = DIRECTION( '', ( 5.31088347701510E-033, 8.67361737988404E-017, -1.00000000000000 ) );
#453 = DIRECTION( '', ( -1.00000000000000, 0.000000000000000, 0.000000000000000 ) );
#454 = DIRECTION( '', ( 5.31088347701510E-033, 8.67361737988404E-017, -1.00000000000000 ) );
#455 = DIRECTION( '', ( -1.00000000000000, 0.000000000000000, 0.000000000000000 ) );
#456 = DIRECTION( '', ( -6.12303176911189E-017, -1.00000000000000, -2.77555756156289E-016 ) );
#457 = DIRECTION( '', ( -5.31088347701509E-033, -8.67361737988403E-017, 1.00000000000000 ) );
#458 = DIRECTION( '', ( 6.12303176911189E-017, 1.00000000000000, -1.38777878078145E-016 ) );
#459 = DIRECTION( '', ( 8.85147246169183E-033, 1.44560289664734E-016, -1.00000000000000 ) );
#460 = CARTESIAN_POINT( '', ( -100.000000000000, -29.0000000000000, -19.0000000000000 ) );
#461 = DIRECTION( '', ( -1.00000000000000, 6.12303176911189E-017, 0.000000000000000 ) );
#462 = DIRECTION( '', ( -6.12303176911189E-017, -1.00000000000000, 0.000000000000000 ) );
#463 = DIRECTION( '', ( 6.12303176911189E-017, 1.00000000000000, 0.000000000000000 ) );
#464 = CARTESIAN_POINT( '', ( -100.000000000000, 29.0000000000000, -19.0000000000000 ) );
#465 = DIRECTION( '', ( -1.00000000000000, 6.12303176911189E-017, 0.000000000000000 ) );
#466 = DIRECTION( '', ( -6.12303176911189E-017, -1.00000000000000, 0.000000000000000 ) );
#467 = CARTESIAN_POINT( '', ( -100.000000000000, 29.0000000000000, 19.0000000000000 ) );
#468 = DIRECTION( '', ( -1.00000000000000, 6.12303176911189E-017, 0.000000000000000 ) );
#469 = DIRECTION( '', ( -6.12303176911189E-017, -1.00000000000000, 0.000000000000000 ) );
#470 = DIRECTION( '', ( -6.12303176911189E-017, -1.00000000000000, -1.02042557410400E-016 ) );
#471 = CARTESIAN_POINT( '', ( -100.000000000000, -29.0000000000000, 19.0000000000000 ) );
#472 = DIRECTION( '', ( -1.00000000000000, 6.12303176911189E-017, 0.000000000000000 ) );
#473 = DIRECTION( '', ( -6.12303176911189E-017, -1.00000000000000, 0.000000000000000 ) );
#474 = DIRECTION( '', ( -1.00000000000000, 0.000000000000000, 0.000000000000000 ) );
#475 = DIRECTION( '', ( 6.12303176911189E-017, 1.00000000000000, -1.38777878078145E-016 ) );
#476 = DIRECTION( '', ( 8.85147246169183E-033, 1.44560289664734E-016, -1.00000000000000 ) );
#477 = DIRECTION( '', ( -1.00000000000000, 0.000000000000000, 0.000000000000000 ) );
#478 = DIRECTION( '', ( -1.00000000000000, 0.000000000000000, 0.000000000000000 ) );
#479 = CARTESIAN_POINT( '', ( 100.000000000000, -29.0000000000000, 19.0000000000000 ) );
#480 = DIRECTION( '', ( -1.00000000000000, 6.12303176911189E-017, 0.000000000000000 ) );
#481 = DIRECTION( '', ( -6.12303176911189E-017, -1.00000000000000, 0.000000000000000 ) );
#482 = DIRECTION( '', ( -1.00000000000000, 0.000000000000000, 0.000000000000000 ) );
#483 = DIRECTION( '', ( -1.00000000000000, 0.000000000000000, 0.000000000000000 ) );
#484 = DIRECTION( '', ( -6.12303176911189E-017, -1.00000000000000, -1.02042557410400E-016 ) );
#485 = DIRECTION( '', ( -5.31088347701509E-033, -8.67361737988403E-017, 1.00000000000000 ) );
#486 = DIRECTION( '', ( -6.12303176911189E-017, -1.00000000000000, -2.77555756156289E-016 ) );
#487 = CARTESIAN_POINT( '', ( 100.000000000000, 29.0000000000000, -19.0000000000000 ) );
#488 = DIRECTION( '', ( -1.00000000000000, 6.12303176911189E-017, 0.000000000000000 ) );
#489 = DIRECTION( '', ( -6.12303176911189E-017, -1.00000000000000, 0.000000000000000 ) );
#490 = DIRECTION( '', ( 6.12303176911189E-017, 1.00000000000000, 0.000000000000000 ) );
#491 = CARTESIAN_POINT( '', ( 100.000000000000, -29.0000000000000, -19.0000000000000 ) );
#492 = DIRECTION( '', ( -1.00000000000000, 6.12303176911189E-017, 0.000000000000000 ) );
#493 = DIRECTION( '', ( -6.12303176911189E-017, -1.00000000000000, 0.000000000000000 ) );
#494 = CARTESIAN_POINT( '', ( 100.000000000000, 29.0000000000000, 19.0000000000000 ) );
#495 = DIRECTION( '', ( -1.00000000000000, 6.12303176911189E-017, 0.000000000000000 ) );
#496 = DIRECTION( '', ( -6.12303176911189E-017, -1.00000000000000, 0.000000000000000 ) );
#497 = DIRECTION( '', ( -1.00000000000000, 0.000000000000000, 0.000000000000000 ) );
#498 = DIRECTION( '', ( -1.00000000000000, 0.000000000000000, 0.000000000000000 ) );
#499 = DIRECTION( '', ( -1.00000000000000, 0.000000000000000, 0.000000000000000 ) );
ENDSEC;
END-ISO-10303-21;
