ISO-10303-21;
HEADER;
FILE_DESCRIPTION( ( 'Unknown' ), '1' );
FILE_NAME( 's:/LEAVE 2D&3D CAD/LEAVE 3D CAD (STEP)/Metric/BC-3D/BC04-3D/BC04-063100-200.stp', 'Unknown', ( 'Unknown' ), ( 'Unknown' ), 'XStep 1.0', 'Unknown', '  ' );
FILE_SCHEMA( ( 'CONFIG_CONTROL_DESIGN' ) );
ENDSEC;
DATA;
#1 = DESIGN_CONTEXT( '', #27, 'design' );
#2 = APPLICATION_PROTOCOL_DEFINITION( 'INTERNATIONAL STANDARD', 'config_control_design', 1994, #27 );
#3 = PRODUCT_CATEGORY_RELATIONSHIP( 'NONE', 'NONE', #28, #29 );
#4 = DATE_AND_TIME( #30, #31 );
#5 = DATE_TIME_ROLE( 'creation_date' );
#6 = DATE_TIME_ROLE( 'classification_date' );
#7 = PERSON_AND_ORGANIZATION_ROLE( 'creator' );
#8 = PERSON_AND_ORGANIZATION_ROLE( 'design_supplier' );
#9 = PERSON_AND_ORGANIZATION_ROLE( 'classification_officer' );
#10 = PERSON_AND_ORGANIZATION_ROLE( 'design_owner' );
#11 = APPROVAL_PERSON_ORGANIZATION( #32, #33, #34 );
#12 = APPROVAL_DATE_TIME( #4, #33 );
#13 = CC_DESIGN_APPROVAL( #33, ( #35, #36, #37 ) );
#14 = CC_DESIGN_DATE_AND_TIME_ASSIGNMENT( #4, #5, ( #37 ) );
#15 = CC_DESIGN_DATE_AND_TIME_ASSIGNMENT( #4, #6, ( #35 ) );
#16 = CC_DESIGN_PERSON_AND_ORGANIZATION_ASSIGNMENT( #32, #10, ( #38 ) );
#17 = CC_DESIGN_PERSON_AND_ORGANIZATION_ASSIGNMENT( #32, #7, ( #37 ) );
#18 = CC_DESIGN_PERSON_AND_ORGANIZATION_ASSIGNMENT( #32, #7, ( #36 ) );
#19 = CC_DESIGN_PERSON_AND_ORGANIZATION_ASSIGNMENT( #32, #8, ( #36 ) );
#20 = CC_DESIGN_SECURITY_CLASSIFICATION( #35, ( #36 ) );
#21 = CC_DESIGN_PERSON_AND_ORGANIZATION_ASSIGNMENT( #32, #9, ( #35 ) );
#22 = SHAPE_DEFINITION_REPRESENTATION( #39, #40 );
#23 =  ( GEOMETRIC_REPRESENTATION_CONTEXT( 3 )GLOBAL_UNCERTAINTY_ASSIGNED_CONTEXT( ( #43 ) )GLOBAL_UNIT_ASSIGNED_CONTEXT( ( #45, #46, #47 ) )REPRESENTATION_CONTEXT( 'NONE', 'WORKSPACE' ) );
#27 = APPLICATION_CONTEXT( 'CONFIGURATION CONTROLLED 3D DESIGNS OF MECHANICAL PARTS AND ASSEMBLIES' );
#28 = PRODUCT_CATEGORY( 'part', 'NONE' );
#29 = PRODUCT_RELATED_PRODUCT_CATEGORY( 'detail', ' ', ( #38 ) );
#30 = CALENDAR_DATE( 2007, 24, 11 );
#31 = LOCAL_TIME( 13, 13, 10.0000000000000, #49 );
#32 = PERSON_AND_ORGANIZATION( #50, #51 );
#33 = APPROVAL( #52, 'SOLID MODEL' );
#34 = APPROVAL_ROLE( 'APPROVED' );
#35 = SECURITY_CLASSIFICATION( '', '', #53 );
#36 = PRODUCT_DEFINITION_FORMATION_WITH_SPECIFIED_SOURCE( ' ', 'NONE', #38, .NOT_KNOWN. );
#37 = PRODUCT_DEFINITION( 'NONE', 'NONE', #36, #1 );
#38 = PRODUCT( '1', '1', 'PART-1-DESC', ( #54 ) );
#39 = PRODUCT_DEFINITION_SHAPE( 'NONE', 'NONE', #37 );
#40 = ADVANCED_BREP_SHAPE_REPRESENTATION( '1', ( #55, #56 ), #23 );
#43 = UNCERTAINTY_MEASURE_WITH_UNIT( LENGTH_MEASURE( 0.00100000000000000 ), #45, '', '' );
#45 =  ( CONVERSION_BASED_UNIT( 'MILLIMETRE', #59 )LENGTH_UNIT(  )NAMED_UNIT( #62 ) );
#46 =  ( NAMED_UNIT( #64 )PLANE_ANGLE_UNIT(  )SI_UNIT( $, .RADIAN. ) );
#47 =  ( NAMED_UNIT( #64 )SOLID_ANGLE_UNIT(  )SI_UNIT( $, .STERADIAN. ) );
#49 = COORDINATED_UNIVERSAL_TIME_OFFSET( 8, 0, .AHEAD. );
#50 = PERSON( '', 'UNSPECIFIED', $, $, $, $ );
#51 = ORGANIZATION( 'UNSPECIFIED', 'UNSPECIFIED', 'UNSPECIFIED' );
#52 = APPROVAL_STATUS( 'approved' );
#53 = SECURITY_CLASSIFICATION_LEVEL( 'unclassified' );
#54 = MECHANICAL_CONTEXT( '', #27, 'mechanical' );
#55 = MANIFOLD_SOLID_BREP( '1', #70 );
#56 = AXIS2_PLACEMENT_3D( '', #71, #72, #73 );
#59 = LENGTH_MEASURE_WITH_UNIT( LENGTH_MEASURE( 1.00000000000000 ), #74 );
#62 = DIMENSIONAL_EXPONENTS( 1.00000000000000, 0.000000000000000, 0.000000000000000, 0.000000000000000, 0.000000000000000, 0.000000000000000, 0.000000000000000 );
#64 = DIMENSIONAL_EXPONENTS( 0.000000000000000, 0.000000000000000, 0.000000000000000, 0.000000000000000, 0.000000000000000, 0.000000000000000, 0.000000000000000 );
#70 = CLOSED_SHELL( '', ( #75, #76, #77, #78, #79, #80, #81, #82, #83, #84 ) );
#71 = CARTESIAN_POINT( '', ( 0.000000000000000, 0.000000000000000, 0.000000000000000 ) );
#72 = DIRECTION( '', ( 0.000000000000000, 0.000000000000000, 1.00000000000000 ) );
#73 = DIRECTION( '', ( 1.00000000000000, 0.000000000000000, 0.000000000000000 ) );
#74 =  ( NAMED_UNIT( #62 )LENGTH_UNIT(  )SI_UNIT( .MILLI., .METRE. ) );
#75 = ADVANCED_FACE( '', ( #86 ), #87, .F. );
#76 = ADVANCED_FACE( '', ( #88 ), #89, .F. );
#77 = ADVANCED_FACE( '', ( #90 ), #91, .F. );
#78 = ADVANCED_FACE( '', ( #92 ), #93, .F. );
#79 = ADVANCED_FACE( '', ( #94 ), #95, .T. );
#80 = ADVANCED_FACE( '', ( #96 ), #97, .F. );
#81 = ADVANCED_FACE( '', ( #98 ), #99, .F. );
#82 = ADVANCED_FACE( '', ( #100 ), #101, .F. );
#83 = ADVANCED_FACE( '', ( #102 ), #103, .F. );
#84 = ADVANCED_FACE( '', ( #104 ), #105, .F. );
#86 = FACE_OUTER_BOUND( '', #106, .T. );
#87 = PLANE( '', #107 );
#88 = FACE_OUTER_BOUND( '', #108, .T. );
#89 = PLANE( '', #109 );
#90 = FACE_OUTER_BOUND( '', #110, .T. );
#91 = PLANE( '', #111 );
#92 = FACE_OUTER_BOUND( '', #112, .T. );
#93 = PLANE( '', #113 );
#94 = FACE_OUTER_BOUND( '', #114, .T. );
#95 = PLANE( '', #115 );
#96 = FACE_OUTER_BOUND( '', #116, .T. );
#97 = PLANE( '', #117 );
#98 = FACE_OUTER_BOUND( '', #118, .T. );
#99 = PLANE( '', #119 );
#100 = FACE_OUTER_BOUND( '', #120, .T. );
#101 = PLANE( '', #121 );
#102 = FACE_OUTER_BOUND( '', #122, .T. );
#103 = PLANE( '', #123 );
#104 = FACE_OUTER_BOUND( '', #124, .T. );
#105 = PLANE( '', #125 );
#106 = EDGE_LOOP( '', ( #126, #127, #128, #129 ) );
#107 = AXIS2_PLACEMENT_3D( '', #130, #131, #132 );
#108 = EDGE_LOOP( '', ( #133, #134, #135, #136, #137, #138, #139, #140 ) );
#109 = AXIS2_PLACEMENT_3D( '', #141, #142, #143 );
#110 = EDGE_LOOP( '', ( #144, #145, #146, #147 ) );
#111 = AXIS2_PLACEMENT_3D( '', #148, #149, #150 );
#112 = EDGE_LOOP( '', ( #151, #152, #153, #154 ) );
#113 = AXIS2_PLACEMENT_3D( '', #155, #156, #157 );
#114 = EDGE_LOOP( '', ( #158, #159, #160, #161, #162, #163, #164, #165 ) );
#115 = AXIS2_PLACEMENT_3D( '', #166, #167, #168 );
#116 = EDGE_LOOP( '', ( #169, #170, #171, #172 ) );
#117 = AXIS2_PLACEMENT_3D( '', #173, #174, #175 );
#118 = EDGE_LOOP( '', ( #176, #177, #178, #179 ) );
#119 = AXIS2_PLACEMENT_3D( '', #180, #181, #182 );
#120 = EDGE_LOOP( '', ( #183, #184, #185, #186 ) );
#121 = AXIS2_PLACEMENT_3D( '', #187, #188, #189 );
#122 = EDGE_LOOP( '', ( #190, #191, #192, #193 ) );
#123 = AXIS2_PLACEMENT_3D( '', #194, #195, #196 );
#124 = EDGE_LOOP( '', ( #197, #198, #199, #200 ) );
#125 = AXIS2_PLACEMENT_3D( '', #201, #202, #203 );
#126 = ORIENTED_EDGE( '', *, *, #204, .T. );
#127 = ORIENTED_EDGE( '', *, *, #205, .F. );
#128 = ORIENTED_EDGE( '', *, *, #206, .F. );
#129 = ORIENTED_EDGE( '', *, *, #207, .T. );
#130 = CARTESIAN_POINT( '', ( -34.0000000000000, -100.000000000000, 31.5000000000000 ) );
#131 = DIRECTION( '', ( 8.67361737988406E-016, 0.000000000000000, -1.00000000000000 ) );
#132 = DIRECTION( '', ( -1.00000000000000, 0.000000000000000, -8.67361737988406E-016 ) );
#133 = ORIENTED_EDGE( '', *, *, #204, .F. );
#134 = ORIENTED_EDGE( '', *, *, #208, .F. );
#135 = ORIENTED_EDGE( '', *, *, #209, .F. );
#136 = ORIENTED_EDGE( '', *, *, #210, .F. );
#137 = ORIENTED_EDGE( '', *, *, #211, .F. );
#138 = ORIENTED_EDGE( '', *, *, #212, .F. );
#139 = ORIENTED_EDGE( '', *, *, #213, .F. );
#140 = ORIENTED_EDGE( '', *, *, #214, .F. );
#141 = CARTESIAN_POINT( '', ( 34.0000000000000, 100.000000000000, 31.5000000000000 ) );
#142 = DIRECTION( '', ( 0.000000000000000, -1.00000000000000, 0.000000000000000 ) );
#143 = DIRECTION( '', ( 0.000000000000000, 0.000000000000000, -1.00000000000000 ) );
#144 = ORIENTED_EDGE( '', *, *, #214, .T. );
#145 = ORIENTED_EDGE( '', *, *, #215, .F. );
#146 = ORIENTED_EDGE( '', *, *, #216, .F. );
#147 = ORIENTED_EDGE( '', *, *, #205, .T. );
#148 = CARTESIAN_POINT( '', ( -50.0000000000000, -100.000000000000, 31.5000000000000 ) );
#149 = DIRECTION( '', ( 1.00000000000000, 0.000000000000000, 0.000000000000000 ) );
#150 = DIRECTION( '', ( 0.000000000000000, 0.000000000000000, -1.00000000000000 ) );
#151 = ORIENTED_EDGE( '', *, *, #213, .T. );
#152 = ORIENTED_EDGE( '', *, *, #217, .F. );
#153 = ORIENTED_EDGE( '', *, *, #218, .F. );
#154 = ORIENTED_EDGE( '', *, *, #215, .T. );
#155 = CARTESIAN_POINT( '', ( -50.0000000000000, -100.000000000000, -31.5000000000000 ) );
#156 = DIRECTION( '', ( 0.000000000000000, 0.000000000000000, 1.00000000000000 ) );
#157 = DIRECTION( '', ( 1.00000000000000, 0.000000000000000, 0.000000000000000 ) );
#158 = ORIENTED_EDGE( '', *, *, #206, .T. );
#159 = ORIENTED_EDGE( '', *, *, #216, .T. );
#160 = ORIENTED_EDGE( '', *, *, #218, .T. );
#161 = ORIENTED_EDGE( '', *, *, #219, .T. );
#162 = ORIENTED_EDGE( '', *, *, #220, .T. );
#163 = ORIENTED_EDGE( '', *, *, #221, .T. );
#164 = ORIENTED_EDGE( '', *, *, #222, .T. );
#165 = ORIENTED_EDGE( '', *, *, #223, .T. );
#166 = CARTESIAN_POINT( '', ( 34.0000000000000, -100.000000000000, 31.5000000000000 ) );
#167 = DIRECTION( '', ( 0.000000000000000, -1.00000000000000, 0.000000000000000 ) );
#168 = DIRECTION( '', ( 0.000000000000000, 0.000000000000000, -1.00000000000000 ) );
#169 = ORIENTED_EDGE( '', *, *, #212, .T. );
#170 = ORIENTED_EDGE( '', *, *, #224, .F. );
#171 = ORIENTED_EDGE( '', *, *, #219, .F. );
#172 = ORIENTED_EDGE( '', *, *, #217, .T. );
#173 = CARTESIAN_POINT( '', ( 50.0000000000000, -100.000000000000, -31.5000000000000 ) );
#174 = DIRECTION( '', ( -1.00000000000000, 0.000000000000000, 0.000000000000000 ) );
#175 = DIRECTION( '', ( 0.000000000000000, 0.000000000000000, 1.00000000000000 ) );
#176 = ORIENTED_EDGE( '', *, *, #211, .T. );
#177 = ORIENTED_EDGE( '', *, *, #225, .F. );
#178 = ORIENTED_EDGE( '', *, *, #220, .F. );
#179 = ORIENTED_EDGE( '', *, *, #224, .T. );
#180 = CARTESIAN_POINT( '', ( 50.0000000000000, -100.000000000000, 31.5000000000000 ) );
#181 = DIRECTION( '', ( 0.000000000000000, 0.000000000000000, -1.00000000000000 ) );
#182 = DIRECTION( '', ( -1.00000000000000, 0.000000000000000, 0.000000000000000 ) );
#183 = ORIENTED_EDGE( '', *, *, #210, .T. );
#184 = ORIENTED_EDGE( '', *, *, #226, .F. );
#185 = ORIENTED_EDGE( '', *, *, #221, .F. );
#186 = ORIENTED_EDGE( '', *, *, #225, .T. );
#187 = CARTESIAN_POINT( '', ( 34.0000000000000, -100.000000000000, 31.5000000000000 ) );
#188 = DIRECTION( '', ( 1.00000000000000, 0.000000000000000, 4.42908121525994E-016 ) );
#189 = DIRECTION( '', ( 4.42908121525994E-016, 0.000000000000000, -1.00000000000000 ) );
#190 = ORIENTED_EDGE( '', *, *, #209, .T. );
#191 = ORIENTED_EDGE( '', *, *, #227, .F. );
#192 = ORIENTED_EDGE( '', *, *, #222, .F. );
#193 = ORIENTED_EDGE( '', *, *, #226, .T. );
#194 = CARTESIAN_POINT( '', ( 34.0000000000000, -100.000000000000, -15.5000000000000 ) );
#195 = DIRECTION( '', ( 1.27553196763000E-016, 0.000000000000000, -1.00000000000000 ) );
#196 = DIRECTION( '', ( -1.00000000000000, 0.000000000000000, -1.27553196763000E-016 ) );
#197 = ORIENTED_EDGE( '', *, *, #208, .T. );
#198 = ORIENTED_EDGE( '', *, *, #207, .F. );
#199 = ORIENTED_EDGE( '', *, *, #223, .F. );
#200 = ORIENTED_EDGE( '', *, *, #227, .T. );
#201 = CARTESIAN_POINT( '', ( -34.0000000000000, -100.000000000000, -15.5000000000000 ) );
#202 = DIRECTION( '', ( -1.00000000000000, 0.000000000000000, -1.47636040508664E-016 ) );
#203 = DIRECTION( '', ( -1.47636040508664E-016, 0.000000000000000, 1.00000000000000 ) );
#204 = EDGE_CURVE( '', #228, #229, #230, .T. );
#205 = EDGE_CURVE( '', #231, #229, #232, .T. );
#206 = EDGE_CURVE( '', #233, #231, #234, .T. );
#207 = EDGE_CURVE( '', #233, #228, #235, .T. );
#208 = EDGE_CURVE( '', #236, #228, #237, .T. );
#209 = EDGE_CURVE( '', #238, #236, #239, .T. );
#210 = EDGE_CURVE( '', #240, #238, #241, .T. );
#211 = EDGE_CURVE( '', #242, #240, #243, .T. );
#212 = EDGE_CURVE( '', #244, #242, #245, .T. );
#213 = EDGE_CURVE( '', #246, #244, #247, .T. );
#214 = EDGE_CURVE( '', #229, #246, #248, .T. );
#215 = EDGE_CURVE( '', #249, #246, #250, .T. );
#216 = EDGE_CURVE( '', #231, #249, #251, .T. );
#217 = EDGE_CURVE( '', #252, #244, #253, .T. );
#218 = EDGE_CURVE( '', #249, #252, #254, .T. );
#219 = EDGE_CURVE( '', #252, #255, #256, .T. );
#220 = EDGE_CURVE( '', #255, #257, #258, .T. );
#221 = EDGE_CURVE( '', #257, #259, #260, .T. );
#222 = EDGE_CURVE( '', #259, #261, #262, .T. );
#223 = EDGE_CURVE( '', #261, #233, #263, .T. );
#224 = EDGE_CURVE( '', #255, #242, #264, .T. );
#225 = EDGE_CURVE( '', #257, #240, #265, .T. );
#226 = EDGE_CURVE( '', #259, #238, #266, .T. );
#227 = EDGE_CURVE( '', #261, #236, #267, .T. );
#228 = VERTEX_POINT( '', #268 );
#229 = VERTEX_POINT( '', #269 );
#230 = LINE( '', #270, #271 );
#231 = VERTEX_POINT( '', #272 );
#232 = LINE( '', #273, #274 );
#233 = VERTEX_POINT( '', #275 );
#234 = LINE( '', #276, #277 );
#235 = LINE( '', #278, #279 );
#236 = VERTEX_POINT( '', #280 );
#237 = LINE( '', #281, #282 );
#238 = VERTEX_POINT( '', #283 );
#239 = LINE( '', #284, #285 );
#240 = VERTEX_POINT( '', #286 );
#241 = LINE( '', #287, #288 );
#242 = VERTEX_POINT( '', #289 );
#243 = LINE( '', #290, #291 );
#244 = VERTEX_POINT( '', #292 );
#245 = LINE( '', #293, #294 );
#246 = VERTEX_POINT( '', #295 );
#247 = LINE( '', #296, #297 );
#248 = LINE( '', #298, #299 );
#249 = VERTEX_POINT( '', #300 );
#250 = LINE( '', #301, #302 );
#251 = LINE( '', #303, #304 );
#252 = VERTEX_POINT( '', #305 );
#253 = LINE( '', #306, #307 );
#254 = LINE( '', #308, #309 );
#255 = VERTEX_POINT( '', #310 );
#256 = LINE( '', #311, #312 );
#257 = VERTEX_POINT( '', #313 );
#258 = LINE( '', #314, #315 );
#259 = VERTEX_POINT( '', #316 );
#260 = LINE( '', #317, #318 );
#261 = VERTEX_POINT( '', #319 );
#262 = LINE( '', #320, #321 );
#263 = LINE( '', #322, #323 );
#264 = LINE( '', #324, #325 );
#265 = LINE( '', #326, #327 );
#266 = LINE( '', #328, #329 );
#267 = LINE( '', #330, #331 );
#268 = CARTESIAN_POINT( '', ( -34.0000000000000, 100.000000000000, 31.5000000000000 ) );
#269 = CARTESIAN_POINT( '', ( -50.0000000000000, 100.000000000000, 31.5000000000000 ) );
#270 = CARTESIAN_POINT( '', ( -34.0000000000000, 100.000000000000, 31.5000000000000 ) );
#271 = VECTOR( '', #332, 1000.00000000000 );
#272 = CARTESIAN_POINT( '', ( -50.0000000000000, -100.000000000000, 31.5000000000000 ) );
#273 = CARTESIAN_POINT( '', ( -50.0000000000000, -100.000000000000, 31.5000000000000 ) );
#274 = VECTOR( '', #333, 1000.00000000000 );
#275 = CARTESIAN_POINT( '', ( -34.0000000000000, -100.000000000000, 31.5000000000000 ) );
#276 = CARTESIAN_POINT( '', ( -34.0000000000000, -100.000000000000, 31.5000000000000 ) );
#277 = VECTOR( '', #334, 1000.00000000000 );
#278 = CARTESIAN_POINT( '', ( -34.0000000000000, -100.000000000000, 31.5000000000000 ) );
#279 = VECTOR( '', #335, 1000.00000000000 );
#280 = CARTESIAN_POINT( '', ( -34.0000000000000, 100.000000000000, -15.5000000000000 ) );
#281 = CARTESIAN_POINT( '', ( -34.0000000000000, 100.000000000000, -15.5000000000000 ) );
#282 = VECTOR( '', #336, 1000.00000000000 );
#283 = CARTESIAN_POINT( '', ( 34.0000000000000, 100.000000000000, -15.5000000000000 ) );
#284 = CARTESIAN_POINT( '', ( 34.0000000000000, 100.000000000000, -15.5000000000000 ) );
#285 = VECTOR( '', #337, 1000.00000000000 );
#286 = CARTESIAN_POINT( '', ( 34.0000000000000, 100.000000000000, 31.5000000000000 ) );
#287 = CARTESIAN_POINT( '', ( 34.0000000000000, 100.000000000000, 31.5000000000000 ) );
#288 = VECTOR( '', #338, 1000.00000000000 );
#289 = CARTESIAN_POINT( '', ( 50.0000000000000, 100.000000000000, 31.5000000000000 ) );
#290 = CARTESIAN_POINT( '', ( 50.0000000000000, 100.000000000000, 31.5000000000000 ) );
#291 = VECTOR( '', #339, 1000.00000000000 );
#292 = CARTESIAN_POINT( '', ( 50.0000000000000, 100.000000000000, -31.5000000000000 ) );
#293 = CARTESIAN_POINT( '', ( 50.0000000000000, 100.000000000000, -31.5000000000000 ) );
#294 = VECTOR( '', #340, 1000.00000000000 );
#295 = CARTESIAN_POINT( '', ( -50.0000000000000, 100.000000000000, -31.5000000000000 ) );
#296 = CARTESIAN_POINT( '', ( -50.0000000000000, 100.000000000000, -31.5000000000000 ) );
#297 = VECTOR( '', #341, 1000.00000000000 );
#298 = CARTESIAN_POINT( '', ( -50.0000000000000, 100.000000000000, 31.5000000000000 ) );
#299 = VECTOR( '', #342, 1000.00000000000 );
#300 = CARTESIAN_POINT( '', ( -50.0000000000000, -100.000000000000, -31.5000000000000 ) );
#301 = CARTESIAN_POINT( '', ( -50.0000000000000, -100.000000000000, -31.5000000000000 ) );
#302 = VECTOR( '', #343, 1000.00000000000 );
#303 = CARTESIAN_POINT( '', ( -50.0000000000000, -100.000000000000, 31.5000000000000 ) );
#304 = VECTOR( '', #344, 1000.00000000000 );
#305 = CARTESIAN_POINT( '', ( 50.0000000000000, -100.000000000000, -31.5000000000000 ) );
#306 = CARTESIAN_POINT( '', ( 50.0000000000000, -100.000000000000, -31.5000000000000 ) );
#307 = VECTOR( '', #345, 1000.00000000000 );
#308 = CARTESIAN_POINT( '', ( -50.0000000000000, -100.000000000000, -31.5000000000000 ) );
#309 = VECTOR( '', #346, 1000.00000000000 );
#310 = CARTESIAN_POINT( '', ( 50.0000000000000, -100.000000000000, 31.5000000000000 ) );
#311 = CARTESIAN_POINT( '', ( 50.0000000000000, -100.000000000000, -31.5000000000000 ) );
#312 = VECTOR( '', #347, 1000.00000000000 );
#313 = CARTESIAN_POINT( '', ( 34.0000000000000, -100.000000000000, 31.5000000000000 ) );
#314 = CARTESIAN_POINT( '', ( 50.0000000000000, -100.000000000000, 31.5000000000000 ) );
#315 = VECTOR( '', #348, 1000.00000000000 );
#316 = CARTESIAN_POINT( '', ( 34.0000000000000, -100.000000000000, -15.5000000000000 ) );
#317 = CARTESIAN_POINT( '', ( 34.0000000000000, -100.000000000000, 31.5000000000000 ) );
#318 = VECTOR( '', #349, 1000.00000000000 );
#319 = CARTESIAN_POINT( '', ( -34.0000000000000, -100.000000000000, -15.5000000000000 ) );
#320 = CARTESIAN_POINT( '', ( 34.0000000000000, -100.000000000000, -15.5000000000000 ) );
#321 = VECTOR( '', #350, 1000.00000000000 );
#322 = CARTESIAN_POINT( '', ( -34.0000000000000, -100.000000000000, -15.5000000000000 ) );
#323 = VECTOR( '', #351, 1000.00000000000 );
#324 = CARTESIAN_POINT( '', ( 50.0000000000000, -100.000000000000, 31.5000000000000 ) );
#325 = VECTOR( '', #352, 1000.00000000000 );
#326 = CARTESIAN_POINT( '', ( 34.0000000000000, -100.000000000000, 31.5000000000000 ) );
#327 = VECTOR( '', #353, 1000.00000000000 );
#328 = CARTESIAN_POINT( '', ( 34.0000000000000, -100.000000000000, -15.5000000000000 ) );
#329 = VECTOR( '', #354, 1000.00000000000 );
#330 = CARTESIAN_POINT( '', ( -34.0000000000000, -100.000000000000, -15.5000000000000 ) );
#331 = VECTOR( '', #355, 1000.00000000000 );
#332 = DIRECTION( '', ( -1.00000000000000, 0.000000000000000, -8.67361737988406E-016 ) );
#333 = DIRECTION( '', ( 0.000000000000000, 1.00000000000000, 0.000000000000000 ) );
#334 = DIRECTION( '', ( -1.00000000000000, 0.000000000000000, -8.67361737988406E-016 ) );
#335 = DIRECTION( '', ( 0.000000000000000, 1.00000000000000, 0.000000000000000 ) );
#336 = DIRECTION( '', ( -1.47636040508664E-016, 0.000000000000000, 1.00000000000000 ) );
#337 = DIRECTION( '', ( -1.00000000000000, 0.000000000000000, -1.27553196763000E-016 ) );
#338 = DIRECTION( '', ( 4.42908121525994E-016, 0.000000000000000, -1.00000000000000 ) );
#339 = DIRECTION( '', ( -1.00000000000000, 0.000000000000000, 0.000000000000000 ) );
#340 = DIRECTION( '', ( 0.000000000000000, 0.000000000000000, 1.00000000000000 ) );
#341 = DIRECTION( '', ( 1.00000000000000, 0.000000000000000, 0.000000000000000 ) );
#342 = DIRECTION( '', ( 0.000000000000000, 0.000000000000000, -1.00000000000000 ) );
#343 = DIRECTION( '', ( 0.000000000000000, 1.00000000000000, 0.000000000000000 ) );
#344 = DIRECTION( '', ( 0.000000000000000, 0.000000000000000, -1.00000000000000 ) );
#345 = DIRECTION( '', ( 0.000000000000000, 1.00000000000000, 0.000000000000000 ) );
#346 = DIRECTION( '', ( 1.00000000000000, 0.000000000000000, 0.000000000000000 ) );
#347 = DIRECTION( '', ( 0.000000000000000, 0.000000000000000, 1.00000000000000 ) );
#348 = DIRECTION( '', ( -1.00000000000000, 0.000000000000000, 0.000000000000000 ) );
#349 = DIRECTION( '', ( 4.42908121525994E-016, 0.000000000000000, -1.00000000000000 ) );
#350 = DIRECTION( '', ( -1.00000000000000, 0.000000000000000, -1.27553196763000E-016 ) );
#351 = DIRECTION( '', ( -1.47636040508664E-016, 0.000000000000000, 1.00000000000000 ) );
#352 = DIRECTION( '', ( 0.000000000000000, 1.00000000000000, 0.000000000000000 ) );
#353 = DIRECTION( '', ( 0.000000000000000, 1.00000000000000, 0.000000000000000 ) );
#354 = DIRECTION( '', ( 0.000000000000000, 1.00000000000000, 0.000000000000000 ) );
#355 = DIRECTION( '', ( 0.000000000000000, 1.00000000000000, 0.000000000000000 ) );
ENDSEC;
END-ISO-10303-21;
