ISO-10303-21;
HEADER;
FILE_DESCRIPTION( ( 'Unknown' ), '1' );
FILE_NAME( 's:/LEAVE 2D&3D CAD/LEAVE 3D CAD (STEP)/Metric/BC-3D/BC07-3D/BC07-100100-400.stp', 'Unknown', ( 'Unknown' ), ( 'Unknown' ), 'XStep 1.0', 'Unknown', '  ' );
FILE_SCHEMA( ( 'CONFIG_CONTROL_DESIGN' ) );
ENDSEC;
DATA;
#1 = DESIGN_CONTEXT( '', #27, 'design' );
#2 = APPLICATION_PROTOCOL_DEFINITION( 'INTERNATIONAL STANDARD', 'config_control_design', 1994, #27 );
#3 = PRODUCT_CATEGORY_RELATIONSHIP( 'NONE', 'NONE', #28, #29 );
#4 = DATE_AND_TIME( #30, #31 );
#5 = DATE_TIME_ROLE( 'creation_date' );
#6 = DATE_TIME_ROLE( 'classification_date' );
#7 = PERSON_AND_ORGANIZATION_ROLE( 'creator' );
#8 = PERSON_AND_ORGANIZATION_ROLE( 'design_supplier' );
#9 = PERSON_AND_ORGANIZATION_ROLE( 'classification_officer' );
#10 = PERSON_AND_ORGANIZATION_ROLE( 'design_owner' );
#11 = APPROVAL_PERSON_ORGANIZATION( #32, #33, #34 );
#12 = APPROVAL_DATE_TIME( #4, #33 );
#13 = CC_DESIGN_APPROVAL( #33, ( #35, #36, #37 ) );
#14 = CC_DESIGN_DATE_AND_TIME_ASSIGNMENT( #4, #5, ( #37 ) );
#15 = CC_DESIGN_DATE_AND_TIME_ASSIGNMENT( #4, #6, ( #35 ) );
#16 = CC_DESIGN_PERSON_AND_ORGANIZATION_ASSIGNMENT( #32, #10, ( #38 ) );
#17 = CC_DESIGN_PERSON_AND_ORGANIZATION_ASSIGNMENT( #32, #7, ( #37 ) );
#18 = CC_DESIGN_PERSON_AND_ORGANIZATION_ASSIGNMENT( #32, #7, ( #36 ) );
#19 = CC_DESIGN_PERSON_AND_ORGANIZATION_ASSIGNMENT( #32, #8, ( #36 ) );
#20 = CC_DESIGN_SECURITY_CLASSIFICATION( #35, ( #36 ) );
#21 = CC_DESIGN_PERSON_AND_ORGANIZATION_ASSIGNMENT( #32, #9, ( #35 ) );
#22 = SHAPE_DEFINITION_REPRESENTATION( #39, #40 );
#23 =  ( GEOMETRIC_REPRESENTATION_CONTEXT( 3 )GLOBAL_UNCERTAINTY_ASSIGNED_CONTEXT( ( #43 ) )GLOBAL_UNIT_ASSIGNED_CONTEXT( ( #45, #46, #47 ) )REPRESENTATION_CONTEXT( 'NONE', 'WORKSPACE' ) );
#27 = APPLICATION_CONTEXT( 'CONFIGURATION CONTROLLED 3D DESIGNS OF MECHANICAL PARTS AND ASSEMBLIES' );
#28 = PRODUCT_CATEGORY( 'part', 'NONE' );
#29 = PRODUCT_RELATED_PRODUCT_CATEGORY( 'detail', ' ', ( #38 ) );
#30 = CALENDAR_DATE( 2007, 24, 11 );
#31 = LOCAL_TIME( 13, 13, 36.0000000000000, #49 );
#32 = PERSON_AND_ORGANIZATION( #50, #51 );
#33 = APPROVAL( #52, 'SOLID MODEL' );
#34 = APPROVAL_ROLE( 'APPROVED' );
#35 = SECURITY_CLASSIFICATION( '', '', #53 );
#36 = PRODUCT_DEFINITION_FORMATION_WITH_SPECIFIED_SOURCE( ' ', 'NONE', #38, .NOT_KNOWN. );
#37 = PRODUCT_DEFINITION( 'NONE', 'NONE', #36, #1 );
#38 = PRODUCT( '1', '1', 'PART-1-DESC', ( #54 ) );
#39 = PRODUCT_DEFINITION_SHAPE( 'NONE', 'NONE', #37 );
#40 = ADVANCED_BREP_SHAPE_REPRESENTATION( '1', ( #55, #56 ), #23 );
#43 = UNCERTAINTY_MEASURE_WITH_UNIT( LENGTH_MEASURE( 0.00100000000000000 ), #45, '', '' );
#45 =  ( CONVERSION_BASED_UNIT( 'MILLIMETRE', #59 )LENGTH_UNIT(  )NAMED_UNIT( #62 ) );
#46 =  ( NAMED_UNIT( #64 )PLANE_ANGLE_UNIT(  )SI_UNIT( $, .RADIAN. ) );
#47 =  ( NAMED_UNIT( #64 )SOLID_ANGLE_UNIT(  )SI_UNIT( $, .STERADIAN. ) );
#49 = COORDINATED_UNIVERSAL_TIME_OFFSET( 8, 0, .AHEAD. );
#50 = PERSON( '', 'UNSPECIFIED', $, $, $, $ );
#51 = ORGANIZATION( 'UNSPECIFIED', 'UNSPECIFIED', 'UNSPECIFIED' );
#52 = APPROVAL_STATUS( 'approved' );
#53 = SECURITY_CLASSIFICATION_LEVEL( 'unclassified' );
#54 = MECHANICAL_CONTEXT( '', #27, 'mechanical' );
#55 = MANIFOLD_SOLID_BREP( '1', #70 );
#56 = AXIS2_PLACEMENT_3D( '', #71, #72, #73 );
#59 = LENGTH_MEASURE_WITH_UNIT( LENGTH_MEASURE( 1.00000000000000 ), #74 );
#62 = DIMENSIONAL_EXPONENTS( 1.00000000000000, 0.000000000000000, 0.000000000000000, 0.000000000000000, 0.000000000000000, 0.000000000000000, 0.000000000000000 );
#64 = DIMENSIONAL_EXPONENTS( 0.000000000000000, 0.000000000000000, 0.000000000000000, 0.000000000000000, 0.000000000000000, 0.000000000000000, 0.000000000000000 );
#70 = CLOSED_SHELL( '', ( #75, #76, #77, #78, #79, #80, #81, #82 ) );
#71 = CARTESIAN_POINT( '', ( 0.000000000000000, 0.000000000000000, 0.000000000000000 ) );
#72 = DIRECTION( '', ( 0.000000000000000, 0.000000000000000, 1.00000000000000 ) );
#73 = DIRECTION( '', ( 1.00000000000000, 0.000000000000000, 0.000000000000000 ) );
#74 =  ( NAMED_UNIT( #62 )LENGTH_UNIT(  )SI_UNIT( .MILLI., .METRE. ) );
#75 = ADVANCED_FACE( '', ( #84 ), #85, .T. );
#76 = ADVANCED_FACE( '', ( #86 ), #87, .T. );
#77 = ADVANCED_FACE( '', ( #88 ), #89, .F. );
#78 = ADVANCED_FACE( '', ( #90 ), #91, .T. );
#79 = ADVANCED_FACE( '', ( #92 ), #93, .T. );
#80 = ADVANCED_FACE( '', ( #94 ), #95, .T. );
#81 = ADVANCED_FACE( '', ( #96 ), #97, .T. );
#82 = ADVANCED_FACE( '', ( #98 ), #99, .T. );
#84 = FACE_OUTER_BOUND( '', #100, .T. );
#85 = PLANE( '', #101 );
#86 = FACE_OUTER_BOUND( '', #102, .T. );
#87 = PLANE( '', #103 );
#88 = FACE_OUTER_BOUND( '', #104, .T. );
#89 = PLANE( '', #105 );
#90 = FACE_OUTER_BOUND( '', #106, .T. );
#91 = PLANE( '', #107 );
#92 = FACE_OUTER_BOUND( '', #108, .T. );
#93 = PLANE( '', #109 );
#94 = FACE_OUTER_BOUND( '', #110, .T. );
#95 = PLANE( '', #111 );
#96 = FACE_OUTER_BOUND( '', #112, .T. );
#97 = PLANE( '', #113 );
#98 = FACE_OUTER_BOUND( '', #114, .T. );
#99 = PLANE( '', #115 );
#100 = EDGE_LOOP( '', ( #116, #117, #118, #119 ) );
#101 = AXIS2_PLACEMENT_3D( '', #120, #121, #122 );
#102 = EDGE_LOOP( '', ( #123, #124, #125, #126 ) );
#103 = AXIS2_PLACEMENT_3D( '', #127, #128, #129 );
#104 = EDGE_LOOP( '', ( #130, #131, #132, #133, #134, #135 ) );
#105 = AXIS2_PLACEMENT_3D( '', #136, #137, #138 );
#106 = EDGE_LOOP( '', ( #139, #140, #141, #142 ) );
#107 = AXIS2_PLACEMENT_3D( '', #143, #144, #145 );
#108 = EDGE_LOOP( '', ( #146, #147, #148, #149 ) );
#109 = AXIS2_PLACEMENT_3D( '', #150, #151, #152 );
#110 = EDGE_LOOP( '', ( #153, #154, #155, #156 ) );
#111 = AXIS2_PLACEMENT_3D( '', #157, #158, #159 );
#112 = EDGE_LOOP( '', ( #160, #161, #162, #163 ) );
#113 = AXIS2_PLACEMENT_3D( '', #164, #165, #166 );
#114 = EDGE_LOOP( '', ( #167, #168, #169, #170, #171, #172 ) );
#115 = AXIS2_PLACEMENT_3D( '', #173, #174, #175 );
#116 = ORIENTED_EDGE( '', *, *, #176, .F. );
#117 = ORIENTED_EDGE( '', *, *, #177, .F. );
#118 = ORIENTED_EDGE( '', *, *, #178, .T. );
#119 = ORIENTED_EDGE( '', *, *, #179, .T. );
#120 = CARTESIAN_POINT( '', ( 200.000000000000, 30.0000000000000, 50.0000000000000 ) );
#121 = DIRECTION( '', ( 0.000000000000000, 6.93889390390722E-016, 1.00000000000000 ) );
#122 = DIRECTION( '', ( 0.000000000000000, -1.00000000000000, 6.93889390390722E-016 ) );
#123 = ORIENTED_EDGE( '', *, *, #180, .F. );
#124 = ORIENTED_EDGE( '', *, *, #179, .F. );
#125 = ORIENTED_EDGE( '', *, *, #181, .T. );
#126 = ORIENTED_EDGE( '', *, *, #182, .T. );
#127 = CARTESIAN_POINT( '', ( 200.000000000000, 50.0000000000000, 50.0000000000000 ) );
#128 = DIRECTION( '', ( 0.000000000000000, 1.00000000000000, 6.93889390390723E-017 ) );
#129 = DIRECTION( '', ( 0.000000000000000, -6.93889390390723E-017, 1.00000000000000 ) );
#130 = ORIENTED_EDGE( '', *, *, #176, .T. );
#131 = ORIENTED_EDGE( '', *, *, #180, .T. );
#132 = ORIENTED_EDGE( '', *, *, #183, .T. );
#133 = ORIENTED_EDGE( '', *, *, #184, .T. );
#134 = ORIENTED_EDGE( '', *, *, #185, .T. );
#135 = ORIENTED_EDGE( '', *, *, #186, .T. );
#136 = CARTESIAN_POINT( '', ( -200.000000000000, 30.0000000000000, 50.0000000000000 ) );
#137 = DIRECTION( '', ( 1.00000000000000, -6.12303176911189E-017, 0.000000000000000 ) );
#138 = DIRECTION( '', ( 6.12303176911189E-017, 1.00000000000000, 0.000000000000000 ) );
#139 = ORIENTED_EDGE( '', *, *, #183, .F. );
#140 = ORIENTED_EDGE( '', *, *, #182, .F. );
#141 = ORIENTED_EDGE( '', *, *, #187, .T. );
#142 = ORIENTED_EDGE( '', *, *, #188, .T. );
#143 = CARTESIAN_POINT( '', ( 200.000000000000, 50.0000000000000, -50.0000000000000 ) );
#144 = DIRECTION( '', ( 0.000000000000000, 2.77555756156289E-016, -1.00000000000000 ) );
#145 = DIRECTION( '', ( 0.000000000000000, 1.00000000000000, 2.77555756156289E-016 ) );
#146 = ORIENTED_EDGE( '', *, *, #184, .F. );
#147 = ORIENTED_EDGE( '', *, *, #188, .F. );
#148 = ORIENTED_EDGE( '', *, *, #189, .T. );
#149 = ORIENTED_EDGE( '', *, *, #190, .T. );
#150 = CARTESIAN_POINT( '', ( 200.000000000000, -50.0000000000000, -50.0000000000000 ) );
#151 = DIRECTION( '', ( 0.000000000000000, -1.00000000000000, 0.000000000000000 ) );
#152 = DIRECTION( '', ( 0.000000000000000, 0.000000000000000, -1.00000000000000 ) );
#153 = ORIENTED_EDGE( '', *, *, #185, .F. );
#154 = ORIENTED_EDGE( '', *, *, #190, .F. );
#155 = ORIENTED_EDGE( '', *, *, #191, .T. );
#156 = ORIENTED_EDGE( '', *, *, #192, .T. );
#157 = CARTESIAN_POINT( '', ( 200.000000000000, -50.0000000000000, -30.0000000000000 ) );
#158 = DIRECTION( '', ( 0.000000000000000, 0.000000000000000, 1.00000000000000 ) );
#159 = DIRECTION( '', ( 1.00000000000000, 0.000000000000000, 0.000000000000000 ) );
#160 = ORIENTED_EDGE( '', *, *, #186, .F. );
#161 = ORIENTED_EDGE( '', *, *, #192, .F. );
#162 = ORIENTED_EDGE( '', *, *, #193, .T. );
#163 = ORIENTED_EDGE( '', *, *, #177, .T. );
#164 = CARTESIAN_POINT( '', ( 200.000000000000, 30.0000000000000, -30.0000000000000 ) );
#165 = DIRECTION( '', ( 0.000000000000000, -1.00000000000000, 1.30104260698260E-016 ) );
#166 = DIRECTION( '', ( 0.000000000000000, -1.30104260698260E-016, -1.00000000000000 ) );
#167 = ORIENTED_EDGE( '', *, *, #178, .F. );
#168 = ORIENTED_EDGE( '', *, *, #193, .F. );
#169 = ORIENTED_EDGE( '', *, *, #191, .F. );
#170 = ORIENTED_EDGE( '', *, *, #189, .F. );
#171 = ORIENTED_EDGE( '', *, *, #187, .F. );
#172 = ORIENTED_EDGE( '', *, *, #181, .F. );
#173 = CARTESIAN_POINT( '', ( 200.000000000000, 30.0000000000000, 50.0000000000000 ) );
#174 = DIRECTION( '', ( 1.00000000000000, -6.12303176911189E-017, 0.000000000000000 ) );
#175 = DIRECTION( '', ( 6.12303176911189E-017, 1.00000000000000, 0.000000000000000 ) );
#176 = EDGE_CURVE( '', #194, #195, #196, .T. );
#177 = EDGE_CURVE( '', #197, #194, #198, .T. );
#178 = EDGE_CURVE( '', #197, #199, #200, .T. );
#179 = EDGE_CURVE( '', #199, #195, #201, .T. );
#180 = EDGE_CURVE( '', #195, #202, #203, .T. );
#181 = EDGE_CURVE( '', #199, #204, #205, .T. );
#182 = EDGE_CURVE( '', #204, #202, #206, .T. );
#183 = EDGE_CURVE( '', #202, #207, #208, .T. );
#184 = EDGE_CURVE( '', #207, #209, #210, .T. );
#185 = EDGE_CURVE( '', #209, #211, #212, .T. );
#186 = EDGE_CURVE( '', #211, #194, #213, .T. );
#187 = EDGE_CURVE( '', #204, #214, #215, .T. );
#188 = EDGE_CURVE( '', #214, #207, #216, .T. );
#189 = EDGE_CURVE( '', #214, #217, #218, .T. );
#190 = EDGE_CURVE( '', #217, #209, #219, .T. );
#191 = EDGE_CURVE( '', #217, #220, #221, .T. );
#192 = EDGE_CURVE( '', #220, #211, #222, .T. );
#193 = EDGE_CURVE( '', #220, #197, #223, .T. );
#194 = VERTEX_POINT( '', #224 );
#195 = VERTEX_POINT( '', #225 );
#196 = LINE( '', #226, #227 );
#197 = VERTEX_POINT( '', #228 );
#198 = LINE( '', #229, #230 );
#199 = VERTEX_POINT( '', #231 );
#200 = LINE( '', #232, #233 );
#201 = LINE( '', #234, #235 );
#202 = VERTEX_POINT( '', #236 );
#203 = LINE( '', #237, #238 );
#204 = VERTEX_POINT( '', #239 );
#205 = LINE( '', #240, #241 );
#206 = LINE( '', #242, #243 );
#207 = VERTEX_POINT( '', #244 );
#208 = LINE( '', #245, #246 );
#209 = VERTEX_POINT( '', #247 );
#210 = LINE( '', #248, #249 );
#211 = VERTEX_POINT( '', #250 );
#212 = LINE( '', #251, #252 );
#213 = LINE( '', #253, #254 );
#214 = VERTEX_POINT( '', #255 );
#215 = LINE( '', #256, #257 );
#216 = LINE( '', #258, #259 );
#217 = VERTEX_POINT( '', #260 );
#218 = LINE( '', #261, #262 );
#219 = LINE( '', #263, #264 );
#220 = VERTEX_POINT( '', #265 );
#221 = LINE( '', #266, #267 );
#222 = LINE( '', #268, #269 );
#223 = LINE( '', #270, #271 );
#224 = CARTESIAN_POINT( '', ( -200.000000000000, 30.0000000000000, 50.0000000000000 ) );
#225 = CARTESIAN_POINT( '', ( -200.000000000000, 50.0000000000000, 50.0000000000000 ) );
#226 = CARTESIAN_POINT( '', ( -200.000000000000, 30.0000000000000, 50.0000000000000 ) );
#227 = VECTOR( '', #272, 1000.00000000000 );
#228 = CARTESIAN_POINT( '', ( 200.000000000000, 30.0000000000000, 50.0000000000000 ) );
#229 = CARTESIAN_POINT( '', ( 200.000000000000, 30.0000000000000, 50.0000000000000 ) );
#230 = VECTOR( '', #273, 1000.00000000000 );
#231 = CARTESIAN_POINT( '', ( 200.000000000000, 50.0000000000000, 50.0000000000000 ) );
#232 = CARTESIAN_POINT( '', ( 200.000000000000, 30.0000000000000, 50.0000000000000 ) );
#233 = VECTOR( '', #274, 1000.00000000000 );
#234 = CARTESIAN_POINT( '', ( 200.000000000000, 50.0000000000000, 50.0000000000000 ) );
#235 = VECTOR( '', #275, 1000.00000000000 );
#236 = CARTESIAN_POINT( '', ( -200.000000000000, 50.0000000000000, -50.0000000000000 ) );
#237 = CARTESIAN_POINT( '', ( -200.000000000000, 50.0000000000000, 50.0000000000000 ) );
#238 = VECTOR( '', #276, 1000.00000000000 );
#239 = CARTESIAN_POINT( '', ( 200.000000000000, 50.0000000000000, -50.0000000000000 ) );
#240 = CARTESIAN_POINT( '', ( 200.000000000000, 50.0000000000000, 50.0000000000000 ) );
#241 = VECTOR( '', #277, 1000.00000000000 );
#242 = CARTESIAN_POINT( '', ( 200.000000000000, 50.0000000000000, -50.0000000000000 ) );
#243 = VECTOR( '', #278, 1000.00000000000 );
#244 = CARTESIAN_POINT( '', ( -200.000000000000, -50.0000000000000, -50.0000000000000 ) );
#245 = CARTESIAN_POINT( '', ( -200.000000000000, 50.0000000000000, -50.0000000000000 ) );
#246 = VECTOR( '', #279, 1000.00000000000 );
#247 = CARTESIAN_POINT( '', ( -200.000000000000, -50.0000000000000, -30.0000000000000 ) );
#248 = CARTESIAN_POINT( '', ( -200.000000000000, -50.0000000000000, -50.0000000000000 ) );
#249 = VECTOR( '', #280, 1000.00000000000 );
#250 = CARTESIAN_POINT( '', ( -200.000000000000, 30.0000000000000, -30.0000000000000 ) );
#251 = CARTESIAN_POINT( '', ( -200.000000000000, -50.0000000000000, -30.0000000000000 ) );
#252 = VECTOR( '', #281, 1000.00000000000 );
#253 = CARTESIAN_POINT( '', ( -200.000000000000, 30.0000000000000, -30.0000000000000 ) );
#254 = VECTOR( '', #282, 1000.00000000000 );
#255 = CARTESIAN_POINT( '', ( 200.000000000000, -50.0000000000000, -50.0000000000000 ) );
#256 = CARTESIAN_POINT( '', ( 200.000000000000, 50.0000000000000, -50.0000000000000 ) );
#257 = VECTOR( '', #283, 1000.00000000000 );
#258 = CARTESIAN_POINT( '', ( 200.000000000000, -50.0000000000000, -50.0000000000000 ) );
#259 = VECTOR( '', #284, 1000.00000000000 );
#260 = CARTESIAN_POINT( '', ( 200.000000000000, -50.0000000000000, -30.0000000000000 ) );
#261 = CARTESIAN_POINT( '', ( 200.000000000000, -50.0000000000000, -50.0000000000000 ) );
#262 = VECTOR( '', #285, 1000.00000000000 );
#263 = CARTESIAN_POINT( '', ( 200.000000000000, -50.0000000000000, -30.0000000000000 ) );
#264 = VECTOR( '', #286, 1000.00000000000 );
#265 = CARTESIAN_POINT( '', ( 200.000000000000, 30.0000000000000, -30.0000000000000 ) );
#266 = CARTESIAN_POINT( '', ( 200.000000000000, -50.0000000000000, -30.0000000000000 ) );
#267 = VECTOR( '', #287, 1000.00000000000 );
#268 = CARTESIAN_POINT( '', ( 200.000000000000, 30.0000000000000, -30.0000000000000 ) );
#269 = VECTOR( '', #288, 1000.00000000000 );
#270 = CARTESIAN_POINT( '', ( 200.000000000000, 30.0000000000000, -30.0000000000000 ) );
#271 = VECTOR( '', #289, 1000.00000000000 );
#272 = DIRECTION( '', ( 6.12303176911189E-017, 1.00000000000000, -6.93889390390722E-016 ) );
#273 = DIRECTION( '', ( -1.00000000000000, 0.000000000000000, 0.000000000000000 ) );
#274 = DIRECTION( '', ( 6.12303176911189E-017, 1.00000000000000, -6.93889390390722E-016 ) );
#275 = DIRECTION( '', ( -1.00000000000000, 0.000000000000000, 0.000000000000000 ) );
#276 = DIRECTION( '', ( 4.24870678161207E-033, 6.93889390390723E-017, -1.00000000000000 ) );
#277 = DIRECTION( '', ( 4.24870678161207E-033, 6.93889390390723E-017, -1.00000000000000 ) );
#278 = DIRECTION( '', ( -1.00000000000000, 0.000000000000000, 0.000000000000000 ) );
#279 = DIRECTION( '', ( -6.12303176911189E-017, -1.00000000000000, -2.77555756156289E-016 ) );
#280 = DIRECTION( '', ( 0.000000000000000, 0.000000000000000, 1.00000000000000 ) );
#281 = DIRECTION( '', ( 6.12303176911189E-017, 1.00000000000000, 0.000000000000000 ) );
#282 = DIRECTION( '', ( 7.96632521552264E-033, 1.30104260698260E-016, 1.00000000000000 ) );
#283 = DIRECTION( '', ( -6.12303176911189E-017, -1.00000000000000, -2.77555756156289E-016 ) );
#284 = DIRECTION( '', ( -1.00000000000000, 0.000000000000000, 0.000000000000000 ) );
#285 = DIRECTION( '', ( 0.000000000000000, 0.000000000000000, 1.00000000000000 ) );
#286 = DIRECTION( '', ( -1.00000000000000, 0.000000000000000, 0.000000000000000 ) );
#287 = DIRECTION( '', ( 6.12303176911189E-017, 1.00000000000000, 0.000000000000000 ) );
#288 = DIRECTION( '', ( -1.00000000000000, 0.000000000000000, 0.000000000000000 ) );
#289 = DIRECTION( '', ( 7.96632521552264E-033, 1.30104260698260E-016, 1.00000000000000 ) );
ENDSEC;
END-ISO-10303-21;
