ISO-10303-21;
HEADER;
FILE_DESCRIPTION( ( 'Unknown' ), '1' );
FILE_NAME( 's:/LEAVE 2D&3D CAD/LEAVE 3D CAD (STEP)/Metric/BC-3D/BC13-3D/BC13-100100-150.stp', 'Unknown', ( 'Unknown' ), ( 'Unknown' ), 'XStep 1.0', 'Unknown', '  ' );
FILE_SCHEMA( ( 'CONFIG_CONTROL_DESIGN' ) );
ENDSEC;
DATA;
#1 = DESIGN_CONTEXT( '', #27, 'design' );
#2 = APPLICATION_PROTOCOL_DEFINITION( 'INTERNATIONAL STANDARD', 'config_control_design', 1994, #27 );
#3 = PRODUCT_CATEGORY_RELATIONSHIP( 'NONE', 'NONE', #28, #29 );
#4 = DATE_AND_TIME( #30, #31 );
#5 = DATE_TIME_ROLE( 'creation_date' );
#6 = DATE_TIME_ROLE( 'classification_date' );
#7 = PERSON_AND_ORGANIZATION_ROLE( 'creator' );
#8 = PERSON_AND_ORGANIZATION_ROLE( 'design_supplier' );
#9 = PERSON_AND_ORGANIZATION_ROLE( 'classification_officer' );
#10 = PERSON_AND_ORGANIZATION_ROLE( 'design_owner' );
#11 = APPROVAL_PERSON_ORGANIZATION( #32, #33, #34 );
#12 = APPROVAL_DATE_TIME( #4, #33 );
#13 = CC_DESIGN_APPROVAL( #33, ( #35, #36, #37 ) );
#14 = CC_DESIGN_DATE_AND_TIME_ASSIGNMENT( #4, #5, ( #37 ) );
#15 = CC_DESIGN_DATE_AND_TIME_ASSIGNMENT( #4, #6, ( #35 ) );
#16 = CC_DESIGN_PERSON_AND_ORGANIZATION_ASSIGNMENT( #32, #10, ( #38 ) );
#17 = CC_DESIGN_PERSON_AND_ORGANIZATION_ASSIGNMENT( #32, #7, ( #37 ) );
#18 = CC_DESIGN_PERSON_AND_ORGANIZATION_ASSIGNMENT( #32, #7, ( #36 ) );
#19 = CC_DESIGN_PERSON_AND_ORGANIZATION_ASSIGNMENT( #32, #8, ( #36 ) );
#20 = CC_DESIGN_SECURITY_CLASSIFICATION( #35, ( #36 ) );
#21 = CC_DESIGN_PERSON_AND_ORGANIZATION_ASSIGNMENT( #32, #9, ( #35 ) );
#22 = SHAPE_DEFINITION_REPRESENTATION( #39, #40 );
#23 =  ( GEOMETRIC_REPRESENTATION_CONTEXT( 3 )GLOBAL_UNCERTAINTY_ASSIGNED_CONTEXT( ( #43 ) )GLOBAL_UNIT_ASSIGNED_CONTEXT( ( #45, #46, #47 ) )REPRESENTATION_CONTEXT( 'NONE', 'WORKSPACE' ) );
#27 = APPLICATION_CONTEXT( 'CONFIGURATION CONTROLLED 3D DESIGNS OF MECHANICAL PARTS AND ASSEMBLIES' );
#28 = PRODUCT_CATEGORY( 'part', 'NONE' );
#29 = PRODUCT_RELATED_PRODUCT_CATEGORY( 'detail', ' ', ( #38 ) );
#30 = CALENDAR_DATE( 2007, 24, 11 );
#31 = LOCAL_TIME( 13, 13, 59.0000000000000, #49 );
#32 = PERSON_AND_ORGANIZATION( #50, #51 );
#33 = APPROVAL( #52, 'SOLID MODEL' );
#34 = APPROVAL_ROLE( 'APPROVED' );
#35 = SECURITY_CLASSIFICATION( '', '', #53 );
#36 = PRODUCT_DEFINITION_FORMATION_WITH_SPECIFIED_SOURCE( ' ', 'NONE', #38, .NOT_KNOWN. );
#37 = PRODUCT_DEFINITION( 'NONE', 'NONE', #36, #1 );
#38 = PRODUCT( '1', '1', 'PART-1-DESC', ( #54 ) );
#39 = PRODUCT_DEFINITION_SHAPE( 'NONE', 'NONE', #37 );
#40 = ADVANCED_BREP_SHAPE_REPRESENTATION( '1', ( #55, #56 ), #23 );
#43 = UNCERTAINTY_MEASURE_WITH_UNIT( LENGTH_MEASURE( 0.00100000000000000 ), #45, '', '' );
#45 =  ( CONVERSION_BASED_UNIT( 'MILLIMETRE', #59 )LENGTH_UNIT(  )NAMED_UNIT( #62 ) );
#46 =  ( NAMED_UNIT( #64 )PLANE_ANGLE_UNIT(  )SI_UNIT( $, .RADIAN. ) );
#47 =  ( NAMED_UNIT( #64 )SOLID_ANGLE_UNIT(  )SI_UNIT( $, .STERADIAN. ) );
#49 = COORDINATED_UNIVERSAL_TIME_OFFSET( 8, 0, .AHEAD. );
#50 = PERSON( '', 'UNSPECIFIED', $, $, $, $ );
#51 = ORGANIZATION( 'UNSPECIFIED', 'UNSPECIFIED', 'UNSPECIFIED' );
#52 = APPROVAL_STATUS( 'approved' );
#53 = SECURITY_CLASSIFICATION_LEVEL( 'unclassified' );
#54 = MECHANICAL_CONTEXT( '', #27, 'mechanical' );
#55 = MANIFOLD_SOLID_BREP( '1', #70 );
#56 = AXIS2_PLACEMENT_3D( '', #71, #72, #73 );
#59 = LENGTH_MEASURE_WITH_UNIT( LENGTH_MEASURE( 1.00000000000000 ), #74 );
#62 = DIMENSIONAL_EXPONENTS( 1.00000000000000, 0.000000000000000, 0.000000000000000, 0.000000000000000, 0.000000000000000, 0.000000000000000, 0.000000000000000 );
#64 = DIMENSIONAL_EXPONENTS( 0.000000000000000, 0.000000000000000, 0.000000000000000, 0.000000000000000, 0.000000000000000, 0.000000000000000, 0.000000000000000 );
#70 = CLOSED_SHELL( '', ( #75, #76, #77, #78, #79, #80, #81, #82, #83, #84, #85, #86, #87 ) );
#71 = CARTESIAN_POINT( '', ( 0.000000000000000, 0.000000000000000, 0.000000000000000 ) );
#72 = DIRECTION( '', ( 0.000000000000000, 0.000000000000000, 1.00000000000000 ) );
#73 = DIRECTION( '', ( 1.00000000000000, 0.000000000000000, 0.000000000000000 ) );
#74 =  ( NAMED_UNIT( #62 )LENGTH_UNIT(  )SI_UNIT( .MILLI., .METRE. ) );
#75 = ADVANCED_FACE( '', ( #89 ), #90, .F. );
#76 = ADVANCED_FACE( '', ( #91 ), #92, .F. );
#77 = ADVANCED_FACE( '', ( #93 ), #94, .T. );
#78 = ADVANCED_FACE( '', ( #95, #96 ), #97, .T. );
#79 = ADVANCED_FACE( '', ( #98 ), #99, .T. );
#80 = ADVANCED_FACE( '', ( #100, #101 ), #102, .F. );
#81 = ADVANCED_FACE( '', ( #103 ), #104, .F. );
#82 = ADVANCED_FACE( '', ( #105 ), #106, .F. );
#83 = ADVANCED_FACE( '', ( #107 ), #108, .F. );
#84 = ADVANCED_FACE( '', ( #109 ), #110, .F. );
#85 = ADVANCED_FACE( '', ( #111 ), #112, .T. );
#86 = ADVANCED_FACE( '', ( #113 ), #114, .T. );
#87 = ADVANCED_FACE( '', ( #115 ), #116, .T. );
#89 = FACE_OUTER_BOUND( '', #117, .T. );
#90 = PLANE( '', #118 );
#91 = FACE_OUTER_BOUND( '', #119, .T. );
#92 = CYLINDRICAL_SURFACE( '', #120, 5.00000000000000 );
#93 = FACE_OUTER_BOUND( '', #121, .T. );
#94 = PLANE( '', #122 );
#95 = FACE_OUTER_BOUND( '', #123, .T. );
#96 = FACE_BOUND( '', #124, .T. );
#97 = PLANE( '', #125 );
#98 = FACE_OUTER_BOUND( '', #126, .T. );
#99 = PLANE( '', #127 );
#100 = FACE_OUTER_BOUND( '', #128, .T. );
#101 = FACE_BOUND( '', #129, .T. );
#102 = PLANE( '', #130 );
#103 = FACE_OUTER_BOUND( '', #131, .T. );
#104 = CYLINDRICAL_SURFACE( '', #132, 5.00000000000000 );
#105 = FACE_OUTER_BOUND( '', #133, .T. );
#106 = PLANE( '', #134 );
#107 = FACE_OUTER_BOUND( '', #135, .T. );
#108 = CYLINDRICAL_SURFACE( '', #136, 5.00000000000000 );
#109 = FACE_OUTER_BOUND( '', #137, .T. );
#110 = PLANE( '', #138 );
#111 = FACE_OUTER_BOUND( '', #139, .T. );
#112 = PLANE( '', #140 );
#113 = FACE_OUTER_BOUND( '', #141, .T. );
#114 = PLANE( '', #142 );
#115 = FACE_OUTER_BOUND( '', #143, .T. );
#116 = PLANE( '', #144 );
#117 = EDGE_LOOP( '', ( #145, #146, #147, #148 ) );
#118 = AXIS2_PLACEMENT_3D( '', #149, #150, #151 );
#119 = EDGE_LOOP( '', ( #152, #153, #154, #155 ) );
#120 = AXIS2_PLACEMENT_3D( '', #156, #157, #158 );
#121 = EDGE_LOOP( '', ( #159, #160, #161, #162 ) );
#122 = AXIS2_PLACEMENT_3D( '', #163, #164, #165 );
#123 = EDGE_LOOP( '', ( #166, #167, #168, #169, #170 ) );
#124 = EDGE_LOOP( '', ( #171, #172, #173, #174, #175, #176 ) );
#125 = AXIS2_PLACEMENT_3D( '', #177, #178, #179 );
#126 = EDGE_LOOP( '', ( #180, #181, #182, #183 ) );
#127 = AXIS2_PLACEMENT_3D( '', #184, #185, #186 );
#128 = EDGE_LOOP( '', ( #187, #188, #189, #190, #191 ) );
#129 = EDGE_LOOP( '', ( #192, #193, #194, #195, #196, #197 ) );
#130 = AXIS2_PLACEMENT_3D( '', #198, #199, #200 );
#131 = EDGE_LOOP( '', ( #201, #202, #203, #204 ) );
#132 = AXIS2_PLACEMENT_3D( '', #205, #206, #207 );
#133 = EDGE_LOOP( '', ( #208, #209, #210, #211 ) );
#134 = AXIS2_PLACEMENT_3D( '', #212, #213, #214 );
#135 = EDGE_LOOP( '', ( #215, #216, #217, #218 ) );
#136 = AXIS2_PLACEMENT_3D( '', #219, #220, #221 );
#137 = EDGE_LOOP( '', ( #222, #223, #224, #225 ) );
#138 = AXIS2_PLACEMENT_3D( '', #226, #227, #228 );
#139 = EDGE_LOOP( '', ( #229, #230, #231, #232 ) );
#140 = AXIS2_PLACEMENT_3D( '', #233, #234, #235 );
#141 = EDGE_LOOP( '', ( #236, #237, #238, #239 ) );
#142 = AXIS2_PLACEMENT_3D( '', #240, #241, #242 );
#143 = EDGE_LOOP( '', ( #243, #244, #245, #246 ) );
#144 = AXIS2_PLACEMENT_3D( '', #247, #248, #249 );
#145 = ORIENTED_EDGE( '', *, *, #250, .F. );
#146 = ORIENTED_EDGE( '', *, *, #251, .T. );
#147 = ORIENTED_EDGE( '', *, *, #252, .T. );
#148 = ORIENTED_EDGE( '', *, *, #253, .T. );
#149 = CARTESIAN_POINT( '', ( -35.9999999999901, -75.0000000000000, -35.9999999999901 ) );
#150 = DIRECTION( '', ( -1.00000000000000, 0.000000000000000, 0.000000000000000 ) );
#151 = DIRECTION( '', ( 0.000000000000000, 0.000000000000000, 1.00000000000000 ) );
#152 = ORIENTED_EDGE( '', *, *, #254, .F. );
#153 = ORIENTED_EDGE( '', *, *, #255, .F. );
#154 = ORIENTED_EDGE( '', *, *, #256, .F. );
#155 = ORIENTED_EDGE( '', *, *, #251, .F. );
#156 = CARTESIAN_POINT( '', ( -30.9999999999901, -75.0000000000000, -30.9999999999901 ) );
#157 = DIRECTION( '', ( -0.000000000000000, 1.00000000000000, -0.000000000000000 ) );
#158 = DIRECTION( '', ( 0.000000000000000, 0.000000000000000, -1.00000000000000 ) );
#159 = ORIENTED_EDGE( '', *, *, #257, .F. );
#160 = ORIENTED_EDGE( '', *, *, #258, .F. );
#161 = ORIENTED_EDGE( '', *, *, #259, .T. );
#162 = ORIENTED_EDGE( '', *, *, #260, .T. );
#163 = CARTESIAN_POINT( '', ( -50.0000000000000, -75.0000000000000, 50.0000000000000 ) );
#164 = DIRECTION( '', ( 1.38777878078145E-015, 0.000000000000000, 1.00000000000000 ) );
#165 = DIRECTION( '', ( 1.00000000000000, 0.000000000000000, -1.38777878078145E-015 ) );
#166 = ORIENTED_EDGE( '', *, *, #261, .F. );
#167 = ORIENTED_EDGE( '', *, *, #262, .F. );
#168 = ORIENTED_EDGE( '', *, *, #263, .F. );
#169 = ORIENTED_EDGE( '', *, *, #264, .F. );
#170 = ORIENTED_EDGE( '', *, *, #259, .F. );
#171 = ORIENTED_EDGE( '', *, *, #265, .T. );
#172 = ORIENTED_EDGE( '', *, *, #254, .T. );
#173 = ORIENTED_EDGE( '', *, *, #250, .T. );
#174 = ORIENTED_EDGE( '', *, *, #266, .T. );
#175 = ORIENTED_EDGE( '', *, *, #267, .T. );
#176 = ORIENTED_EDGE( '', *, *, #268, .T. );
#177 = CARTESIAN_POINT( '', ( -50.0000000000000, -75.0000000000000, -50.0000000000000 ) );
#178 = DIRECTION( '', ( 0.000000000000000, -1.00000000000000, 0.000000000000000 ) );
#179 = DIRECTION( '', ( 0.000000000000000, 0.000000000000000, -1.00000000000000 ) );
#180 = ORIENTED_EDGE( '', *, *, #269, .F. );
#181 = ORIENTED_EDGE( '', *, *, #270, .F. );
#182 = ORIENTED_EDGE( '', *, *, #261, .T. );
#183 = ORIENTED_EDGE( '', *, *, #258, .T. );
#184 = CARTESIAN_POINT( '', ( -50.0000000000000, -75.0000000000000, -50.0000000000000 ) );
#185 = DIRECTION( '', ( -1.00000000000000, 0.000000000000000, 0.000000000000000 ) );
#186 = DIRECTION( '', ( 0.000000000000000, 0.000000000000000, 1.00000000000000 ) );
#187 = ORIENTED_EDGE( '', *, *, #269, .T. );
#188 = ORIENTED_EDGE( '', *, *, #257, .T. );
#189 = ORIENTED_EDGE( '', *, *, #271, .T. );
#190 = ORIENTED_EDGE( '', *, *, #272, .T. );
#191 = ORIENTED_EDGE( '', *, *, #273, .T. );
#192 = ORIENTED_EDGE( '', *, *, #252, .F. );
#193 = ORIENTED_EDGE( '', *, *, #256, .T. );
#194 = ORIENTED_EDGE( '', *, *, #274, .F. );
#195 = ORIENTED_EDGE( '', *, *, #275, .T. );
#196 = ORIENTED_EDGE( '', *, *, #276, .F. );
#197 = ORIENTED_EDGE( '', *, *, #277, .T. );
#198 = CARTESIAN_POINT( '', ( -50.0000000000000, 75.0000000000000, -50.0000000000000 ) );
#199 = DIRECTION( '', ( 0.000000000000000, -1.00000000000000, 0.000000000000000 ) );
#200 = DIRECTION( '', ( 0.000000000000000, 0.000000000000000, -1.00000000000000 ) );
#201 = ORIENTED_EDGE( '', *, *, #266, .F. );
#202 = ORIENTED_EDGE( '', *, *, #253, .F. );
#203 = ORIENTED_EDGE( '', *, *, #277, .F. );
#204 = ORIENTED_EDGE( '', *, *, #278, .F. );
#205 = CARTESIAN_POINT( '', ( -30.9999999999901, -75.0000000000000, 14.1299423148872 ) );
#206 = DIRECTION( '', ( -0.000000000000000, 1.00000000000000, -0.000000000000000 ) );
#207 = DIRECTION( '', ( 0.000000000000000, 0.000000000000000, -1.00000000000000 ) );
#208 = ORIENTED_EDGE( '', *, *, #276, .T. );
#209 = ORIENTED_EDGE( '', *, *, #279, .T. );
#210 = ORIENTED_EDGE( '', *, *, #267, .F. );
#211 = ORIENTED_EDGE( '', *, *, #278, .T. );
#212 = CARTESIAN_POINT( '', ( -35.9999999999901, -75.0000000000000, 26.2010101267528 ) );
#213 = DIRECTION( '', ( 0.707106781186548, 0.000000000000000, 0.707106781186547 ) );
#214 = DIRECTION( '', ( 0.707106781186547, 0.000000000000000, -0.707106781186548 ) );
#215 = ORIENTED_EDGE( '', *, *, #268, .F. );
#216 = ORIENTED_EDGE( '', *, *, #279, .F. );
#217 = ORIENTED_EDGE( '', *, *, #275, .F. );
#218 = ORIENTED_EDGE( '', *, *, #280, .F. );
#219 = CARTESIAN_POINT( '', ( 14.1299423148872, -75.0000000000000, -30.9999999999901 ) );
#220 = DIRECTION( '', ( -0.000000000000000, 1.00000000000000, -0.000000000000000 ) );
#221 = DIRECTION( '', ( 0.000000000000000, 0.000000000000000, -1.00000000000000 ) );
#222 = ORIENTED_EDGE( '', *, *, #274, .T. );
#223 = ORIENTED_EDGE( '', *, *, #255, .T. );
#224 = ORIENTED_EDGE( '', *, *, #265, .F. );
#225 = ORIENTED_EDGE( '', *, *, #280, .T. );
#226 = CARTESIAN_POINT( '', ( 26.2010101267527, -75.0000000000000, -35.9999999999901 ) );
#227 = DIRECTION( '', ( 1.11555968138915E-016, 0.000000000000000, -1.00000000000000 ) );
#228 = DIRECTION( '', ( -1.00000000000000, 0.000000000000000, -1.11555968138915E-016 ) );
#229 = ORIENTED_EDGE( '', *, *, #273, .F. );
#230 = ORIENTED_EDGE( '', *, *, #281, .F. );
#231 = ORIENTED_EDGE( '', *, *, #262, .T. );
#232 = ORIENTED_EDGE( '', *, *, #270, .T. );
#233 = CARTESIAN_POINT( '', ( 50.0000000000000, -75.0000000000000, -50.0000000000000 ) );
#234 = DIRECTION( '', ( 0.000000000000000, 0.000000000000000, -1.00000000000000 ) );
#235 = DIRECTION( '', ( -1.00000000000000, 0.000000000000000, 0.000000000000000 ) );
#236 = ORIENTED_EDGE( '', *, *, #272, .F. );
#237 = ORIENTED_EDGE( '', *, *, #282, .F. );
#238 = ORIENTED_EDGE( '', *, *, #263, .T. );
#239 = ORIENTED_EDGE( '', *, *, #281, .T. );
#240 = CARTESIAN_POINT( '', ( 50.0000000000000, -75.0000000000000, -40.0000000000000 ) );
#241 = DIRECTION( '', ( 1.00000000000000, 0.000000000000000, 6.93889390390723E-016 ) );
#242 = DIRECTION( '', ( 6.93889390390723E-016, 0.000000000000000, -1.00000000000000 ) );
#243 = ORIENTED_EDGE( '', *, *, #271, .F. );
#244 = ORIENTED_EDGE( '', *, *, #260, .F. );
#245 = ORIENTED_EDGE( '', *, *, #264, .T. );
#246 = ORIENTED_EDGE( '', *, *, #282, .T. );
#247 = CARTESIAN_POINT( '', ( -40.0000000000000, -75.0000000000000, 50.0000000000000 ) );
#248 = DIRECTION( '', ( 0.707106781186548, 0.000000000000000, 0.707106781186548 ) );
#249 = DIRECTION( '', ( 0.707106781186548, 0.000000000000000, -0.707106781186548 ) );
#250 = EDGE_CURVE( '', #283, #284, #285, .T. );
#251 = EDGE_CURVE( '', #283, #286, #287, .T. );
#252 = EDGE_CURVE( '', #286, #288, #289, .T. );
#253 = EDGE_CURVE( '', #288, #284, #290, .F. );
#254 = EDGE_CURVE( '', #291, #283, #292, .F. );
#255 = EDGE_CURVE( '', #293, #291, #294, .F. );
#256 = EDGE_CURVE( '', #286, #293, #295, .T. );
#257 = EDGE_CURVE( '', #296, #297, #298, .T. );
#258 = EDGE_CURVE( '', #299, #296, #300, .T. );
#259 = EDGE_CURVE( '', #299, #301, #302, .T. );
#260 = EDGE_CURVE( '', #301, #297, #303, .T. );
#261 = EDGE_CURVE( '', #304, #299, #305, .T. );
#262 = EDGE_CURVE( '', #306, #304, #307, .T. );
#263 = EDGE_CURVE( '', #308, #306, #309, .T. );
#264 = EDGE_CURVE( '', #301, #308, #310, .T. );
#265 = EDGE_CURVE( '', #311, #291, #312, .T. );
#266 = EDGE_CURVE( '', #284, #313, #314, .F. );
#267 = EDGE_CURVE( '', #313, #315, #316, .T. );
#268 = EDGE_CURVE( '', #315, #311, #317, .F. );
#269 = EDGE_CURVE( '', #318, #296, #319, .T. );
#270 = EDGE_CURVE( '', #304, #318, #320, .T. );
#271 = EDGE_CURVE( '', #297, #321, #322, .T. );
#272 = EDGE_CURVE( '', #321, #323, #324, .T. );
#273 = EDGE_CURVE( '', #323, #318, #325, .T. );
#274 = EDGE_CURVE( '', #326, #293, #327, .T. );
#275 = EDGE_CURVE( '', #326, #328, #329, .T. );
#276 = EDGE_CURVE( '', #330, #328, #331, .T. );
#277 = EDGE_CURVE( '', #330, #288, #332, .T. );
#278 = EDGE_CURVE( '', #313, #330, #333, .T. );
#279 = EDGE_CURVE( '', #328, #315, #334, .F. );
#280 = EDGE_CURVE( '', #311, #326, #335, .T. );
#281 = EDGE_CURVE( '', #306, #323, #336, .T. );
#282 = EDGE_CURVE( '', #308, #321, #337, .T. );
#283 = VERTEX_POINT( '', #338 );
#284 = VERTEX_POINT( '', #339 );
#285 = LINE( '', #340, #341 );
#286 = VERTEX_POINT( '', #342 );
#287 = LINE( '', #343, #344 );
#288 = VERTEX_POINT( '', #345 );
#289 = LINE( '', #346, #347 );
#290 = LINE( '', #348, #349 );
#291 = VERTEX_POINT( '', #350 );
#292 = CIRCLE( '', #351, 5.00000000000000 );
#293 = VERTEX_POINT( '', #352 );
#294 = LINE( '', #353, #354 );
#295 = CIRCLE( '', #355, 5.00000000000000 );
#296 = VERTEX_POINT( '', #356 );
#297 = VERTEX_POINT( '', #357 );
#298 = LINE( '', #358, #359 );
#299 = VERTEX_POINT( '', #360 );
#300 = LINE( '', #361, #362 );
#301 = VERTEX_POINT( '', #363 );
#302 = LINE( '', #364, #365 );
#303 = LINE( '', #366, #367 );
#304 = VERTEX_POINT( '', #368 );
#305 = LINE( '', #369, #370 );
#306 = VERTEX_POINT( '', #371 );
#307 = LINE( '', #372, #373 );
#308 = VERTEX_POINT( '', #374 );
#309 = LINE( '', #375, #376 );
#310 = LINE( '', #377, #378 );
#311 = VERTEX_POINT( '', #379 );
#312 = LINE( '', #380, #381 );
#313 = VERTEX_POINT( '', #382 );
#314 = CIRCLE( '', #383, 5.00000000000000 );
#315 = VERTEX_POINT( '', #384 );
#316 = LINE( '', #385, #386 );
#317 = CIRCLE( '', #387, 5.00000000000000 );
#318 = VERTEX_POINT( '', #388 );
#319 = LINE( '', #389, #390 );
#320 = LINE( '', #391, #392 );
#321 = VERTEX_POINT( '', #393 );
#322 = LINE( '', #394, #395 );
#323 = VERTEX_POINT( '', #396 );
#324 = LINE( '', #397, #398 );
#325 = LINE( '', #399, #400 );
#326 = VERTEX_POINT( '', #401 );
#327 = LINE( '', #402, #403 );
#328 = VERTEX_POINT( '', #404 );
#329 = CIRCLE( '', #405, 5.00000000000000 );
#330 = VERTEX_POINT( '', #406 );
#331 = LINE( '', #407, #408 );
#332 = CIRCLE( '', #409, 5.00000000000000 );
#333 = LINE( '', #410, #411 );
#334 = LINE( '', #412, #413 );
#335 = LINE( '', #414, #415 );
#336 = LINE( '', #416, #417 );
#337 = LINE( '', #418, #419 );
#338 = CARTESIAN_POINT( '', ( -35.9999999999901, -75.0000000000000, -30.9999999999901 ) );
#339 = CARTESIAN_POINT( '', ( -35.9999999999901, -75.0000000000000, 14.1299423148872 ) );
#340 = CARTESIAN_POINT( '', ( -35.9999999999901, -75.0000000000000, -35.9999999999901 ) );
#341 = VECTOR( '', #420, 1000.00000000000 );
#342 = CARTESIAN_POINT( '', ( -35.9999999999901, 75.0000000000000, -30.9999999999901 ) );
#343 = CARTESIAN_POINT( '', ( -35.9999999999901, 75.0000000000000, -30.9999999999901 ) );
#344 = VECTOR( '', #421, 1000.00000000000 );
#345 = CARTESIAN_POINT( '', ( -35.9999999999901, 75.0000000000000, 14.1299423148872 ) );
#346 = CARTESIAN_POINT( '', ( -35.9999999999901, 75.0000000000000, -35.9999999999901 ) );
#347 = VECTOR( '', #422, 1000.00000000000 );
#348 = CARTESIAN_POINT( '', ( -35.9999999999901, -75.0000000000000, 14.1299423148872 ) );
#349 = VECTOR( '', #423, 1000.00000000000 );
#350 = CARTESIAN_POINT( '', ( -30.9999999999901, -75.0000000000000, -35.9999999999901 ) );
#351 = AXIS2_PLACEMENT_3D( '', #424, #425, #426 );
#352 = CARTESIAN_POINT( '', ( -30.9999999999901, 75.0000000000000, -35.9999999999901 ) );
#353 = CARTESIAN_POINT( '', ( -30.9999999999901, -75.0000000000000, -35.9999999999901 ) );
#354 = VECTOR( '', #427, 1000.00000000000 );
#355 = AXIS2_PLACEMENT_3D( '', #428, #429, #430 );
#356 = CARTESIAN_POINT( '', ( -50.0000000000000, 75.0000000000000, 50.0000000000000 ) );
#357 = CARTESIAN_POINT( '', ( -40.0000000000000, 75.0000000000000, 50.0000000000000 ) );
#358 = CARTESIAN_POINT( '', ( -50.0000000000000, 75.0000000000000, 50.0000000000000 ) );
#359 = VECTOR( '', #431, 1000.00000000000 );
#360 = CARTESIAN_POINT( '', ( -50.0000000000000, -75.0000000000000, 50.0000000000000 ) );
#361 = CARTESIAN_POINT( '', ( -50.0000000000000, -75.0000000000000, 50.0000000000000 ) );
#362 = VECTOR( '', #432, 1000.00000000000 );
#363 = CARTESIAN_POINT( '', ( -40.0000000000000, -75.0000000000000, 50.0000000000000 ) );
#364 = CARTESIAN_POINT( '', ( -50.0000000000000, -75.0000000000000, 50.0000000000000 ) );
#365 = VECTOR( '', #433, 1000.00000000000 );
#366 = CARTESIAN_POINT( '', ( -40.0000000000000, -75.0000000000000, 50.0000000000000 ) );
#367 = VECTOR( '', #434, 1000.00000000000 );
#368 = CARTESIAN_POINT( '', ( -50.0000000000000, -75.0000000000000, -50.0000000000000 ) );
#369 = CARTESIAN_POINT( '', ( -50.0000000000000, -75.0000000000000, -50.0000000000000 ) );
#370 = VECTOR( '', #435, 1000.00000000000 );
#371 = CARTESIAN_POINT( '', ( 50.0000000000000, -75.0000000000000, -50.0000000000000 ) );
#372 = CARTESIAN_POINT( '', ( 50.0000000000000, -75.0000000000000, -50.0000000000000 ) );
#373 = VECTOR( '', #436, 1000.00000000000 );
#374 = CARTESIAN_POINT( '', ( 50.0000000000000, -75.0000000000000, -40.0000000000000 ) );
#375 = CARTESIAN_POINT( '', ( 50.0000000000000, -75.0000000000000, -40.0000000000000 ) );
#376 = VECTOR( '', #437, 1000.00000000000 );
#377 = CARTESIAN_POINT( '', ( -40.0000000000000, -75.0000000000000, 50.0000000000000 ) );
#378 = VECTOR( '', #438, 1000.00000000000 );
#379 = CARTESIAN_POINT( '', ( 14.1299423148872, -75.0000000000000, -35.9999999999901 ) );
#380 = CARTESIAN_POINT( '', ( 26.2010101267527, -75.0000000000000, -35.9999999999901 ) );
#381 = VECTOR( '', #439, 1000.00000000000 );
#382 = CARTESIAN_POINT( '', ( -27.4644660940574, -75.0000000000000, 17.6654762208200 ) );
#383 = AXIS2_PLACEMENT_3D( '', #440, #441, #442 );
#384 = CARTESIAN_POINT( '', ( 17.6654762208199, -75.0000000000000, -27.4644660940574 ) );
#385 = CARTESIAN_POINT( '', ( -35.9999999999901, -75.0000000000000, 26.2010101267528 ) );
#386 = VECTOR( '', #443, 1000.00000000000 );
#387 = AXIS2_PLACEMENT_3D( '', #444, #445, #446 );
#388 = CARTESIAN_POINT( '', ( -50.0000000000000, 75.0000000000000, -50.0000000000000 ) );
#389 = CARTESIAN_POINT( '', ( -50.0000000000000, 75.0000000000000, -50.0000000000000 ) );
#390 = VECTOR( '', #447, 1000.00000000000 );
#391 = CARTESIAN_POINT( '', ( -50.0000000000000, -75.0000000000000, -50.0000000000000 ) );
#392 = VECTOR( '', #448, 1000.00000000000 );
#393 = CARTESIAN_POINT( '', ( 50.0000000000000, 75.0000000000000, -40.0000000000000 ) );
#394 = CARTESIAN_POINT( '', ( -40.0000000000000, 75.0000000000000, 50.0000000000000 ) );
#395 = VECTOR( '', #449, 1000.00000000000 );
#396 = CARTESIAN_POINT( '', ( 50.0000000000000, 75.0000000000000, -50.0000000000000 ) );
#397 = CARTESIAN_POINT( '', ( 50.0000000000000, 75.0000000000000, -40.0000000000000 ) );
#398 = VECTOR( '', #450, 1000.00000000000 );
#399 = CARTESIAN_POINT( '', ( 50.0000000000000, 75.0000000000000, -50.0000000000000 ) );
#400 = VECTOR( '', #451, 1000.00000000000 );
#401 = CARTESIAN_POINT( '', ( 14.1299423148872, 75.0000000000000, -35.9999999999901 ) );
#402 = CARTESIAN_POINT( '', ( 26.2010101267527, 75.0000000000000, -35.9999999999901 ) );
#403 = VECTOR( '', #452, 1000.00000000000 );
#404 = CARTESIAN_POINT( '', ( 17.6654762208199, 75.0000000000000, -27.4644660940574 ) );
#405 = AXIS2_PLACEMENT_3D( '', #453, #454, #455 );
#406 = CARTESIAN_POINT( '', ( -27.4644660940574, 75.0000000000000, 17.6654762208200 ) );
#407 = CARTESIAN_POINT( '', ( -35.9999999999901, 75.0000000000000, 26.2010101267528 ) );
#408 = VECTOR( '', #456, 1000.00000000000 );
#409 = AXIS2_PLACEMENT_3D( '', #457, #458, #459 );
#410 = CARTESIAN_POINT( '', ( -27.4644660940574, 75.0000000000000, 17.6654762208200 ) );
#411 = VECTOR( '', #460, 1000.00000000000 );
#412 = CARTESIAN_POINT( '', ( 17.6654762208199, -75.0000000000000, -27.4644660940574 ) );
#413 = VECTOR( '', #461, 1000.00000000000 );
#414 = CARTESIAN_POINT( '', ( 14.1299423148872, 75.0000000000000, -35.9999999999901 ) );
#415 = VECTOR( '', #462, 1000.00000000000 );
#416 = CARTESIAN_POINT( '', ( 50.0000000000000, -75.0000000000000, -50.0000000000000 ) );
#417 = VECTOR( '', #463, 1000.00000000000 );
#418 = CARTESIAN_POINT( '', ( 50.0000000000000, -75.0000000000000, -40.0000000000000 ) );
#419 = VECTOR( '', #464, 1000.00000000000 );
#420 = DIRECTION( '', ( 0.000000000000000, 0.000000000000000, 1.00000000000000 ) );
#421 = DIRECTION( '', ( 0.000000000000000, 1.00000000000000, 0.000000000000000 ) );
#422 = DIRECTION( '', ( 0.000000000000000, 0.000000000000000, 1.00000000000000 ) );
#423 = DIRECTION( '', ( 0.000000000000000, 1.00000000000000, 0.000000000000000 ) );
#424 = CARTESIAN_POINT( '', ( -30.9999999999901, -75.0000000000000, -30.9999999999901 ) );
#425 = DIRECTION( '', ( 0.000000000000000, -1.00000000000000, 0.000000000000000 ) );
#426 = DIRECTION( '', ( 0.000000000000000, 0.000000000000000, -1.00000000000000 ) );
#427 = DIRECTION( '', ( 0.000000000000000, 1.00000000000000, 0.000000000000000 ) );
#428 = CARTESIAN_POINT( '', ( -30.9999999999901, 75.0000000000000, -30.9999999999901 ) );
#429 = DIRECTION( '', ( 0.000000000000000, -1.00000000000000, 0.000000000000000 ) );
#430 = DIRECTION( '', ( 0.000000000000000, 0.000000000000000, -1.00000000000000 ) );
#431 = DIRECTION( '', ( 1.00000000000000, 0.000000000000000, -1.38777878078145E-015 ) );
#432 = DIRECTION( '', ( 0.000000000000000, 1.00000000000000, 0.000000000000000 ) );
#433 = DIRECTION( '', ( 1.00000000000000, 0.000000000000000, -1.38777878078145E-015 ) );
#434 = DIRECTION( '', ( 0.000000000000000, 1.00000000000000, 0.000000000000000 ) );
#435 = DIRECTION( '', ( 0.000000000000000, 0.000000000000000, 1.00000000000000 ) );
#436 = DIRECTION( '', ( -1.00000000000000, 0.000000000000000, 0.000000000000000 ) );
#437 = DIRECTION( '', ( 6.93889390390723E-016, 0.000000000000000, -1.00000000000000 ) );
#438 = DIRECTION( '', ( 0.707106781186548, 0.000000000000000, -0.707106781186548 ) );
#439 = DIRECTION( '', ( -1.00000000000000, 0.000000000000000, -1.11555968138915E-016 ) );
#440 = CARTESIAN_POINT( '', ( -30.9999999999901, -75.0000000000000, 14.1299423148872 ) );
#441 = DIRECTION( '', ( 0.000000000000000, -1.00000000000000, 0.000000000000000 ) );
#442 = DIRECTION( '', ( 0.000000000000000, 0.000000000000000, -1.00000000000000 ) );
#443 = DIRECTION( '', ( 0.707106781186548, 0.000000000000000, -0.707106781186548 ) );
#444 = CARTESIAN_POINT( '', ( 14.1299423148872, -75.0000000000000, -30.9999999999901 ) );
#445 = DIRECTION( '', ( 0.000000000000000, -1.00000000000000, 0.000000000000000 ) );
#446 = DIRECTION( '', ( 0.000000000000000, 0.000000000000000, -1.00000000000000 ) );
#447 = DIRECTION( '', ( 0.000000000000000, 0.000000000000000, 1.00000000000000 ) );
#448 = DIRECTION( '', ( 0.000000000000000, 1.00000000000000, 0.000000000000000 ) );
#449 = DIRECTION( '', ( 0.707106781186548, 0.000000000000000, -0.707106781186548 ) );
#450 = DIRECTION( '', ( 6.93889390390723E-016, 0.000000000000000, -1.00000000000000 ) );
#451 = DIRECTION( '', ( -1.00000000000000, 0.000000000000000, 0.000000000000000 ) );
#452 = DIRECTION( '', ( -1.00000000000000, 0.000000000000000, -1.11555968138915E-016 ) );
#453 = CARTESIAN_POINT( '', ( 14.1299423148872, 75.0000000000000, -30.9999999999901 ) );
#454 = DIRECTION( '', ( 0.000000000000000, -1.00000000000000, 0.000000000000000 ) );
#455 = DIRECTION( '', ( 0.000000000000000, 0.000000000000000, -1.00000000000000 ) );
#456 = DIRECTION( '', ( 0.707106781186548, 0.000000000000000, -0.707106781186548 ) );
#457 = CARTESIAN_POINT( '', ( -30.9999999999901, 75.0000000000000, 14.1299423148872 ) );
#458 = DIRECTION( '', ( 0.000000000000000, -1.00000000000000, 0.000000000000000 ) );
#459 = DIRECTION( '', ( 0.000000000000000, 0.000000000000000, -1.00000000000000 ) );
#460 = DIRECTION( '', ( 0.000000000000000, 1.00000000000000, 0.000000000000000 ) );
#461 = DIRECTION( '', ( 0.000000000000000, 1.00000000000000, 0.000000000000000 ) );
#462 = DIRECTION( '', ( 0.000000000000000, 1.00000000000000, 0.000000000000000 ) );
#463 = DIRECTION( '', ( 0.000000000000000, 1.00000000000000, 0.000000000000000 ) );
#464 = DIRECTION( '', ( 0.000000000000000, 1.00000000000000, 0.000000000000000 ) );
ENDSEC;
END-ISO-10303-21;
