  0
SECTION
  2
HEADER
  9
$ACADVER
  1
AC1015
  9
$ACADMAINTVER
 70
     6
  9
$DWGCODEPAGE
  3
ANSI_1252
  9
$INSBASE
 10
0.0
 20
0.0
 30
0.0
  9
$EXTMIN
 10
0.0
 20
0.0
 30
0.0
  9
$EXTMAX
 10
594.0
 20
420.0
 30
0.0
  9
$LIMMIN
 10
0.0
 20
0.0
  9
$LIMMAX
 10
594.0
 20
420.0
  9
$ORTHOMODE
 70
     0
  9
$REGENMODE
 70
     1
  9
$FILLMODE
 70
     1
  9
$QTEXTMODE
 70
     0
  9
$MIRRTEXT
 70
     1
  9
$LTSCALE
 40
1.0
  9
$ATTMODE
 70
     1
  9
$TEXTSIZE
 40
0.2
  9
$TRACEWID
 40
0.05
  9
$TEXTSTYLE
  7
Standard
  9
$CLAYER
  8
0
  9
$CELTYPE
  6
ByLayer
  9
$CECOLOR
 62
   256
  9
$CELTSCALE
 40
25.4
  9
$DISPSILH
 70
     0
  9
$DIMSCALE
 40
1.0
  9
$DIMASZ
 40
0.18
  9
$DIMEXO
 40
0.0625
  9
$DIMDLI
 40
0.38
  9
$DIMRND
 40
0.0
  9
$DIMDLE
 40
0.0
  9
$DIMEXE
 40
0.18
  9
$DIMTP
 40
0.0
  9
$DIMTM
 40
0.0
  9
$DIMTXT
 40
0.18
  9
$DIMCEN
 40
0.09
  9
$DIMTSZ
 40
0.0
  9
$DIMTOL
 70
     0
  9
$DIMLIM
 70
     0
  9
$DIMTIH
 70
     1
  9
$DIMTOH
 70
     1
  9
$DIMSE1
 70
     0
  9
$DIMSE2
 70
     0
  9
$DIMTAD
 70
     0
  9
$DIMZIN
 70
     0
  9
$DIMBLK
  1

  9
$DIMASO
 70
     1
  9
$DIMSHO
 70
     1
  9
$DIMPOST
  1

  9
$DIMAPOST
  1

  9
$DIMALT
 70
     0
  9
$DIMALTD
 70
     2
  9
$DIMALTF
 40
25.4
  9
$DIMLFAC
 40
1.0
  9
$DIMTOFL
 70
     0
  9
$DIMTVP
 40
0.0
  9
$DIMTIX
 70
     0
  9
$DIMSOXD
 70
     0
  9
$DIMSAH
 70
     0
  9
$DIMBLK1
  1

  9
$DIMBLK2
  1

  9
$DIMSTYLE
  2
Standard
  9
$DIMCLRD
 70
     0
  9
$DIMCLRE
 70
     0
  9
$DIMCLRT
 70
     0
  9
$DIMTFAC
 40
1.0
  9
$DIMGAP
 40
0.09
  9
$DIMJUST
 70
     0
  9
$DIMSD1
 70
     0
  9
$DIMSD2
 70
     0
  9
$DIMTOLJ
 70
     1
  9
$DIMTZIN
 70
     0
  9
$DIMALTZ
 70
     0
  9
$DIMALTTZ
 70
     0
  9
$DIMUPT
 70
     0
  9
$DIMDEC
 70
     4
  9
$DIMTDEC
 70
     4
  9
$DIMALTU
 70
     2
  9
$DIMALTTD
 70
     2
  9
$DIMTXSTY
  7
Standard
  9
$DIMAUNIT
 70
     0
  9
$DIMADEC
 70
     0
  9
$DIMALTRND
 40
0.0
  9
$DIMAZIN
 70
     0
  9
$DIMDSEP
 70
    46
  9
$DIMATFIT
 70
     3
  9
$DIMFRAC
 70
     0
  9
$DIMLDRBLK
  1

  9
$DIMLUNIT
 70
     2
  9
$DIMLWD
 70
    -2
  9
$DIMLWE
 70
    -2
  9
$DIMTMOVE
 70
     0
  9
$LUNITS
 70
     2
  9
$LUPREC
 70
     4
  9
$SKETCHINC
 40
0.1
  9
$FILLETRAD
 40
0.5
  9
$AUNITS
 70
     0
  9
$AUPREC
 70
     0
  9
$MENU
  1
.
  9
$ELEVATION
 40
0.0
  9
$PELEVATION
 40
0.0
  9
$THICKNESS
 40
0.0
  9
$LIMCHECK
 70
     0
  9
$CHAMFERA
 40
0.5
  9
$CHAMFERB
 40
0.5
  9
$CHAMFERC
 40
1.0
  9
$CHAMFERD
 40
0.0
  9
$SKPOLY
 70
     0
  9
$TDCREATE
 40
2454936.347836875
  9
$TDUCREATE
 40
2454936.306170208
  9
$TDUPDATE
 40
2454936.347836887
  9
$TDUUPDATE
 40
2454936.30617022
  9
$TDINDWG
 40
0.0000000116
  9
$TDUSRTIMER
 40
0.0000000116
  9
$USRTIMER
 70
     1
  9
$ANGBASE
 50
0.0
  9
$ANGDIR
 70
     0
  9
$PDMODE
 70
     0
  9
$PDSIZE
 40
0.0
  9
$PLINEWID
 40
0.0
  9
$SPLFRAME
 70
     0
  9
$SPLINETYPE
 70
     6
  9
$SPLINESEGS
 70
     8
  9
$HANDSEED
  5
4E2
  9
$SURFTAB1
 70
     6
  9
$SURFTAB2
 70
     6
  9
$SURFTYPE
 70
     6
  9
$SURFU
 70
     6
  9
$SURFV
 70
     6
  9
$UCSBASE
  2

  9
$UCSNAME
  2

  9
$UCSORG
 10
0.0
 20
0.0
 30
0.0
  9
$UCSXDIR
 10
1.0
 20
0.0
 30
0.0
  9
$UCSYDIR
 10
0.0
 20
1.0
 30
0.0
  9
$UCSORTHOREF
  2

  9
$UCSORTHOVIEW
 70
     0
  9
$UCSORGTOP
 10
0.0
 20
0.0
 30
0.0
  9
$UCSORGBOTTOM
 10
0.0
 20
0.0
 30
0.0
  9
$UCSORGLEFT
 10
0.0
 20
0.0
 30
0.0
  9
$UCSORGRIGHT
 10
0.0
 20
0.0
 30
0.0
  9
$UCSORGFRONT
 10
0.0
 20
0.0
 30
0.0
  9
$UCSORGBACK
 10
0.0
 20
0.0
 30
0.0
  9
$PUCSBASE
  2

  9
$PUCSNAME
  2

  9
$PUCSORG
 10
0.0
 20
0.0
 30
0.0
  9
$PUCSXDIR
 10
1.0
 20
0.0
 30
0.0
  9
$PUCSYDIR
 10
0.0
 20
1.0
 30
0.0
  9
$PUCSORTHOREF
  2

  9
$PUCSORTHOVIEW
 70
     0
  9
$PUCSORGTOP
 10
0.0
 20
0.0
 30
0.0
  9
$PUCSORGBOTTOM
 10
0.0
 20
0.0
 30
0.0
  9
$PUCSORGLEFT
 10
0.0
 20
0.0
 30
0.0
  9
$PUCSORGRIGHT
 10
0.0
 20
0.0
 30
0.0
  9
$PUCSORGFRONT
 10
0.0
 20
0.0
 30
0.0
  9
$PUCSORGBACK
 10
0.0
 20
0.0
 30
0.0
  9
$USERI1
 70
     0
  9
$USERI2
 70
     0
  9
$USERI3
 70
     0
  9
$USERI4
 70
     0
  9
$USERI5
 70
     0
  9
$USERR1
 40
0.0
  9
$USERR2
 40
0.0
  9
$USERR3
 40
0.0
  9
$USERR4
 40
0.0
  9
$USERR5
 40
0.0
  9
$WORLDVIEW
 70
     1
  9
$SHADEDGE
 70
     3
  9
$SHADEDIF
 70
    70
  9
$TILEMODE
 70
     1
  9
$MAXACTVP
 70
    64
  9
$PINSBASE
 10
0.0
 20
0.0
 30
0.0
  9
$PLIMCHECK
 70
     0
  9
$PEXTMIN
 10
0.0
 20
0.0
 30
0.0
  9
$PEXTMAX
 10
594.0
 20
420.0
 30
0.0
  9
$PLIMMIN
 10
0.0
 20
0.0
  9
$PLIMMAX
 10
594.0
 20
420.0
  9
$UNITMODE
 70
     0
  9
$VISRETAIN
 70
     1
  9
$PLINEGEN
 70
     0
  9
$PSLTSCALE
 70
     1
  9
$TREEDEPTH
 70
  3020
  9
$CMLSTYLE
  2
Standard
  9
$CMLJUST
 70
     0
  9
$CMLSCALE
 40
1.0
  9
$PROXYGRAPHICS
 70
     1
  9
$MEASUREMENT
 70
     1
  9
$CELWEIGHT
370
    -1
  9
$ENDCAPS
280
     0
  9
$JOINSTYLE
280
     0
  9
$LWDISPLAY
290
     0
  9
$INSUNITS
 70
     1
  9
$HYPERLINKBASE
  1

  9
$STYLESHEET
  1

  9
$XEDIT
290
     1
  9
$CEPSNTYPE
380
     0
  9
$PSTYLEMODE
290
     1
  9
$FINGERPRINTGUID
  2
{E51E344C-6DFE-4C23-9CB3-5F878F65A770}
  9
$VERSIONGUID
  2
{FAEB1C32-E019-11D5-929B-00C0DF256EC4}
  9
$EXTNAMES
290
     1
  9
$PSVPSCALE
 40
0.0
  9
$OLESTARTUP
290
     0
  0
ENDSEC
  0
SECTION
  2
CLASSES
  0
CLASS
  1
ACDBDICTIONARYWDFLT
  2
AcDbDictionaryWithDefault
  3
ObjectDBX Classes
 90
        0
280
     0
281
     0
  0
CLASS
  1
ACDBPLACEHOLDER
  2
AcDbPlaceHolder
  3
ObjectDBX Classes
 90
        0
280
     0
281
     0
  0
CLASS
  1
LAYOUT
  2
AcDbLayout
  3
ObjectDBX Classes
 90
        0
280
     0
281
     0
  0
ENDSEC
  0
SECTION
  2
TABLES
  0
TABLE
  2
VPORT
  5
8
330
0
100
AcDbSymbolTable
 70
     1
  0
VPORT
  5
29
330
8
100
AcDbSymbolTableRecord
100
AcDbViewportTableRecord
  2
*Active
 70
     0
 10
0.0
 20
0.0
 11
1.0
 21
1.0
 12
10.4299065421
 22
4.5
 13
0.0
 23
0.0
 14
0.5
 24
0.5
 15
0.5
 25
0.5
 16
0.0
 26
0.0
 36
1.0
 17
0.0
 27
0.0
 37
0.0
 40
9.0
 41
1.9729729729
 42
50.0
 43
0.0
 44
0.0
 50
0.0
 51
0.0
 71
     0
 72
   100
 73
     1
 74
     3
 75
     0
 76
     0
 77
     0
 78
     0
281
     0
 65
     1
110
0.0
120
0.0
130
0.0
111
1.0
121
0.0
131
0.0
112
0.0
122
1.0
132
0.0
 79
     0
146
0.0
  0
ENDTAB
  0
TABLE
  2
LTYPE
  5
5
330
0
100
AcDbSymbolTable
 70
     3
  0
LTYPE
  5
14
330
5
100
AcDbSymbolTableRecord
100
AcDbLinetypeTableRecord
  2
ByBlock
 70
     0
  3

 72
    65
 73
     0
 40
0.0
  0
LTYPE
  5
15
330
5
100
AcDbSymbolTableRecord
100
AcDbLinetypeTableRecord
  2
ByLayer
 70
     0
  3

 72
    65
 73
     0
 40
0.0
  0
LTYPE
  5
16
330
5
100
AcDbSymbolTableRecord
100
AcDbLinetypeTableRecord
  2
Continuous
 70
     0
  3
Solid line
 72
    65
 73
     0
 40
0.0
  0
LTYPE
  5
54
330
5
100
AcDbSymbolTableRecord
100
AcDbLinetypeTableRecord
  2
CENTER2
 70
     0
  3
___ _ ___ _ ___ _ ___ _ ___ _ ___ _ ___ _ ___ _
 72
    65
 73
     4
 40
1.125
 49
0.75
 74
     4
 75
     0
340
0
 46
0.0
 50
0.0
 44
0.0
 45
0.0
 49
-0.125
 74
     4
 75
     0
340
0
 46
0.0
 50
0.0
 44
0.0
 45
0.0
 49
0.125
 74
     4
 75
     0
340
0
 46
0.0
 50
0.0
 44
0.0
 45
0.0
 49
-0.125
 74
     4
 75
     0
340
0
 46
0.0
 50
0.0
 44
0.0
 45
0.0
  0
LTYPE
  5
F4
330
5
100
AcDbSymbolTableRecord
100
AcDbLinetypeTableRecord
  2
HIDDEN2
 70
     0
  3
_ _ _ _ _ _ _ _ _ _ _ _ _ _ _ _ _ _ _ _ _ _ _ _
 72
    65
 73
     2
 40
0.1875
 49
0.125
 74
     4
 75
     0
340
0
 46
0.0
 50
0.0
 44
0.0
 45
0.0
 49
-0.0625
 74
     4
 75
     0
340
0
 46
0.0
 50
0.0
 44
0.0
 45
0.0
  0
ENDTAB
  0
TABLE
  2
LAYER
  5
2
330
0
100
AcDbSymbolTable
 70
     7
  0
LAYER
  5
10
330
2
100
AcDbSymbolTableRecord
100
AcDbLayerTableRecord
  2
0
 70
     0
 62
     7
  6
Continuous
370
    -3
390
F
  0
LAYER
  5
2A
330
2
100
AcDbSymbolTableRecord
100
AcDbLayerTableRecord
  2
Default
 70
     0
 62
     7
  6
Continuous
370
    -3
390
F
  0
LAYER
  5
53
330
2
100
AcDbSymbolTableRecord
100
AcDbLayerTableRecord
  2
DV1_Default
 70
     0
 62
     7
  6
Continuous
370
    -3
390
F
  0
LAYER
  5
107
330
2
100
AcDbSymbolTableRecord
100
AcDbLayerTableRecord
  2
DV2_Default
 70
     0
 62
     7
  6
Continuous
370
    -3
390
F
  0
LAYER
  5
1C7
330
2
100
AcDbSymbolTableRecord
100
AcDbLayerTableRecord
  2
DV3_Default
 70
     0
 62
     7
  6
Continuous
370
    -3
390
F
  0
LAYER
  5
411
330
2
100
AcDbSymbolTableRecord
100
AcDbLayerTableRecord
  2
DV4_Default
 70
     0
 62
     7
  6
Continuous
370
    -3
390
F
  0
LAYER
  5
4D1
330
2
100
AcDbSymbolTableRecord
100
AcDbLayerTableRecord
  2
BORDER
 70
     0
 62
     7
  6
Continuous
370
    -3
390
F
  0
ENDTAB
  0
TABLE
  2
STYLE
  5
3
330
0
100
AcDbSymbolTable
 70
     3
  0
STYLE
  5
11
330
3
100
AcDbSymbolTableRecord
100
AcDbTextStyleTableRecord
  2
Standard
 70
     0
 40
0.0
 41
1.0
 50
0.0
 71
     0
 42
0.2
  3
txt
  4

  0
STYLE
  5
31
330
3
100
AcDbSymbolTableRecord
100
AcDbTextStyleTableRecord
  2
SEACAD_arial_ttf
 70
     0
 40
0.2
 41
1.0
 50
0.0
 71
     0
 42
0.2
  3
arial.ttf
  4

  0
STYLE
  5
39F
330
3
100
AcDbSymbolTableRecord
100
AcDbTextStyleTableRecord
  2
SEACAD_semeca1_ttf
 70
     0
 40
0.2
 41
1.0
 50
0.0
 71
     0
 42
0.2
  3
semeca1.ttf
  4

  0
ENDTAB
  0
TABLE
  2
VIEW
  5
6
330
0
100
AcDbSymbolTable
 70
     0
  0
ENDTAB
  0
TABLE
  2
UCS
  5
7
330
0
100
AcDbSymbolTable
 70
     0
  0
ENDTAB
  0
TABLE
  2
APPID
  5
9
330
0
100
AcDbSymbolTable
 70
     1
  0
APPID
  5
12
330
9
100
AcDbSymbolTableRecord
100
AcDbRegAppTableRecord
  2
ACAD
 70
     0
  0
ENDTAB
  0
TABLE
  2
DIMSTYLE
  5
A
330
0
100
AcDbSymbolTable
 70
     1
100
AcDbDimStyleTable
  0
DIMSTYLE
105
27
330
A
100
AcDbSymbolTableRecord
100
AcDbDimStyleTableRecord
  2
Standard
 70
     0
340
11
  0
ENDTAB
  0
TABLE
  2
BLOCK_RECORD
  5
1
330
0
100
AcDbSymbolTable
 70
    42
  0
BLOCK_RECORD
  5
1F
330
1
100
AcDbSymbolTableRecord
100
AcDbBlockTableRecord
  2
*Model_Space
340
22
  0
BLOCK_RECORD
  5
1B
330
1
100
AcDbSymbolTableRecord
100
AcDbBlockTableRecord
  2
*Paper_Space
340
1E
  0
BLOCK_RECORD
  5
2B
330
1
100
AcDbSymbolTableRecord
100
AcDbBlockTableRecord
  2
SEANNOT_GROUP
340
0
102
{BLKREFS
331
2C
102
}
  0
BLOCK_RECORD
  5
35
330
1
100
AcDbSymbolTableRecord
100
AcDbBlockTableRecord
  2
SEANNOT_GROUP1
340
0
102
{BLKREFS
331
36
102
}
  0
BLOCK_RECORD
  5
3F
330
1
100
AcDbSymbolTableRecord
100
AcDbBlockTableRecord
  2
SEANNOT_GROUP2
340
0
102
{BLKREFS
331
40
102
}
  0
BLOCK_RECORD
  5
48
330
1
100
AcDbSymbolTableRecord
100
AcDbBlockTableRecord
  2
SEANNOT_GROUP3
340
0
102
{BLKREFS
331
49
102
}
  0
BLOCK_RECORD
  5
51
330
1
100
AcDbSymbolTableRecord
100
AcDbBlockTableRecord
  2
SE
340
0
102
{BLKREFS
331
52
102
}
  0
BLOCK_RECORD
  5
105
330
1
100
AcDbSymbolTableRecord
100
AcDbBlockTableRecord
  2
SE1
340
0
102
{BLKREFS
331
106
102
}
  0
BLOCK_RECORD
  5
137
330
1
100
AcDbSymbolTableRecord
100
AcDbBlockTableRecord
  2
GDimGGroup
340
0
102
{BLKREFS
331
138
102
}
  0
BLOCK_RECORD
  5
143
330
1
100
AcDbSymbolTableRecord
100
AcDbBlockTableRecord
  2
GDimGGroup1
340
0
102
{BLKREFS
331
144
102
}
  0
BLOCK_RECORD
  5
14F
330
1
100
AcDbSymbolTableRecord
100
AcDbBlockTableRecord
  2
GDimGGroup2
340
0
102
{BLKREFS
331
150
102
}
  0
BLOCK_RECORD
  5
15C
330
1
100
AcDbSymbolTableRecord
100
AcDbBlockTableRecord
  2
GDimGGroup3
340
0
102
{BLKREFS
331
15D
102
}
  0
BLOCK_RECORD
  5
168
330
1
100
AcDbSymbolTableRecord
100
AcDbBlockTableRecord
  2
GDimGGroup4
340
0
102
{BLKREFS
331
169
102
}
  0
BLOCK_RECORD
  5
174
330
1
100
AcDbSymbolTableRecord
100
AcDbBlockTableRecord
  2
GDimGGroup5
340
0
102
{BLKREFS
331
175
102
}
  0
BLOCK_RECORD
  5
180
330
1
100
AcDbSymbolTableRecord
100
AcDbBlockTableRecord
  2
GDimGGroup6
340
0
102
{BLKREFS
331
181
102
}
  0
BLOCK_RECORD
  5
18C
330
1
100
AcDbSymbolTableRecord
100
AcDbBlockTableRecord
  2
GDimGGroup7
340
0
102
{BLKREFS
331
18D
102
}
  0
BLOCK_RECORD
  5
198
330
1
100
AcDbSymbolTableRecord
100
AcDbBlockTableRecord
  2
GDimGGroup8
340
0
102
{BLKREFS
331
199
102
}
  0
BLOCK_RECORD
  5
1A4
330
1
100
AcDbSymbolTableRecord
100
AcDbBlockTableRecord
  2
GDimGGroup9
340
0
102
{BLKREFS
331
1A5
102
}
  0
BLOCK_RECORD
  5
1B0
330
1
100
AcDbSymbolTableRecord
100
AcDbBlockTableRecord
  2
GDimGGroup10
340
0
102
{BLKREFS
331
1B1
102
}
  0
BLOCK_RECORD
  5
1BA
330
1
100
AcDbSymbolTableRecord
100
AcDbBlockTableRecord
  2
GDimGGroup11
340
0
102
{BLKREFS
331
1BB
102
}
  0
BLOCK_RECORD
  5
1C5
330
1
100
AcDbSymbolTableRecord
100
AcDbBlockTableRecord
  2
SE2
340
0
102
{BLKREFS
331
1C6
102
}
  0
BLOCK_RECORD
  5
363
330
1
100
AcDbSymbolTableRecord
100
AcDbBlockTableRecord
  2
GDimGGroup12
340
0
102
{BLKREFS
331
364
102
}
  0
BLOCK_RECORD
  5
36F
330
1
100
AcDbSymbolTableRecord
100
AcDbBlockTableRecord
  2
GDimGGroup13
340
0
102
{BLKREFS
331
370
102
}
  0
BLOCK_RECORD
  5
37B
330
1
100
AcDbSymbolTableRecord
100
AcDbBlockTableRecord
  2
GDimGGroup14
340
0
102
{BLKREFS
331
37C
102
}
  0
BLOCK_RECORD
  5
389
330
1
100
AcDbSymbolTableRecord
100
AcDbBlockTableRecord
  2
GDimGGroup15
340
0
102
{BLKREFS
331
38A
102
}
  0
BLOCK_RECORD
  5
397
330
1
100
AcDbSymbolTableRecord
100
AcDbBlockTableRecord
  2
GDimGGroup16
340
0
102
{BLKREFS
331
398
102
}
  0
BLOCK_RECORD
  5
3A3
330
1
100
AcDbSymbolTableRecord
100
AcDbBlockTableRecord
  2
GDimGGroup17
340
0
102
{BLKREFS
331
3A4
102
}
  0
BLOCK_RECORD
  5
3B0
330
1
100
AcDbSymbolTableRecord
100
AcDbBlockTableRecord
  2
GDimGGroup18
340
0
102
{BLKREFS
331
3B1
102
}
  0
BLOCK_RECORD
  5
3BB
330
1
100
AcDbSymbolTableRecord
100
AcDbBlockTableRecord
  2
GDimGGroup19
340
0
102
{BLKREFS
331
3BC
102
}
  0
BLOCK_RECORD
  5
3C7
330
1
100
AcDbSymbolTableRecord
100
AcDbBlockTableRecord
  2
GDimGGroup20
340
0
102
{BLKREFS
331
3C8
102
}
  0
BLOCK_RECORD
  5
3D3
330
1
100
AcDbSymbolTableRecord
100
AcDbBlockTableRecord
  2
GDimGGroup21
340
0
102
{BLKREFS
331
3D4
102
}
  0
BLOCK_RECORD
  5
3DF
330
1
100
AcDbSymbolTableRecord
100
AcDbBlockTableRecord
  2
GDimGGroup22
340
0
102
{BLKREFS
331
3E0
102
}
  0
BLOCK_RECORD
  5
3EA
330
1
100
AcDbSymbolTableRecord
100
AcDbBlockTableRecord
  2
GDimGGroup23
340
0
102
{BLKREFS
331
3EB
102
}
  0
BLOCK_RECORD
  5
3F7
330
1
100
AcDbSymbolTableRecord
100
AcDbBlockTableRecord
  2
GDimGGroup24
340
0
102
{BLKREFS
331
3F8
102
}
  0
BLOCK_RECORD
  5
403
330
1
100
AcDbSymbolTableRecord
100
AcDbBlockTableRecord
  2
GDimGGroup25
340
0
102
{BLKREFS
331
404
102
}
  0
BLOCK_RECORD
  5
40F
330
1
100
AcDbSymbolTableRecord
100
AcDbBlockTableRecord
  2
SE3
340
0
102
{BLKREFS
331
410
102
}
  0
BLOCK_RECORD
  5
481
330
1
100
AcDbSymbolTableRecord
100
AcDbBlockTableRecord
  2
GDimGGroup26
340
0
102
{BLKREFS
331
482
102
}
  0
BLOCK_RECORD
  5
48D
330
1
100
AcDbSymbolTableRecord
100
AcDbBlockTableRecord
  2
GDimGGroup27
340
0
102
{BLKREFS
331
48E
102
}
  0
BLOCK_RECORD
  5
499
330
1
100
AcDbSymbolTableRecord
100
AcDbBlockTableRecord
  2
GDimGGroup28
340
0
102
{BLKREFS
331
49A
102
}
  0
BLOCK_RECORD
  5
4A3
330
1
100
AcDbSymbolTableRecord
100
AcDbBlockTableRecord
  2
GDimGGroup29
340
0
102
{BLKREFS
331
4A4
102
}
  0
BLOCK_RECORD
  5
4AE
330
1
100
AcDbSymbolTableRecord
100
AcDbBlockTableRecord
  2
GDimGGroup30
340
0
102
{BLKREFS
331
4AF
102
}
  0
BLOCK_RECORD
  5
4B8
330
1
100
AcDbSymbolTableRecord
100
AcDbBlockTableRecord
  2
GDimGGroup31
340
0
102
{BLKREFS
331
4B9
102
}
  0
BLOCK_RECORD
  5
4C5
330
1
100
AcDbSymbolTableRecord
100
AcDbBlockTableRecord
  2
GDimGGroup32
340
0
102
{BLKREFS
331
4C6
102
}
  0
ENDTAB
  0
ENDSEC
  0
SECTION
  2
BLOCKS
  0
BLOCK
  5
20
330
1F
100
AcDbEntity
  8
0
100
AcDbBlockBegin
  2
*Model_Space
 70
     0
 71
     0
 10
0.0
 20
0.0
 30
0.0
  3
*Model_Space
  1

  0
ENDBLK
  5
21
330
1F
100
AcDbEntity
  8
0
100
AcDbBlockEnd
  0
BLOCK
  5
1C
330
1B
100
AcDbEntity
 67
     1
  8
0
100
AcDbBlockBegin
  2
*Paper_Space
 70
     0
 71
     0
 10
0.0
 20
0.0
 30
0.0
  3
*Paper_Space
  1

  0
ENDBLK
  5
1D
330
1B
100
AcDbEntity
 67
     1
  8
0
100
AcDbBlockEnd
  0
BLOCK
  5
33
330
2B
100
AcDbEntity
  8
0
100
AcDbBlockBegin
  2
SEANNOT_GROUP
 70
     0
 71
     0
 10
0.0
 20
0.0
 30
0.0
  3
SEANNOT_GROUP
  1

  0
LWPOLYLINE
  5
2D
330
2B
100
AcDbEntity
  8
Default
  6
Continuous
 62
     7
 48
25.4
100
AcDbPolyline
 90
        2
 70
     0
 43
0.0
 10
408.0921918257
 20
375.3295244082
 10
432.2132198695
 20
349.286052784
  0
HATCH
  5
2E
330
2B
100
AcDbEntity
  8
Default
  6
Continuous
 62
     7
 48
25.4
100
AcDbHatch
 10
0.0
 20
0.0
 30
0.0
210
0.0
220
0.0
230
1.0
  2
SOLID
 70
     1
 71
     0
 91
        1
 92
        1
 93
        3
 72
     1
 10
429.0060699577524
 20
351.7677126015986
 11
432.213219869517
 21
349.2860527840468
 72
     1
 10
432.213219869517
 20
349.2860527840468
 11
429.9842920559727
 21
352.6737255558167
 72
     1
 10
429.9842920559727
 20
352.6737255558167
 11
429.0060699577525
 21
351.7677126015986
 97
        0
 75
     0
 76
     1
 98
        0
  0
LWPOLYLINE
  5
2F
330
2B
100
AcDbEntity
  8
Default
  6
Continuous
 62
     7
 48
25.4
370
    30
100
AcDbPolyline
 90
        4
 70
     1
 43
0.00035
 10
429.0060699578
 20
351.7677126016
 10
432.2132198695
 20
349.286052784
 10
429.984292056
 20
352.6737255558
 10
429.0060699578
 20
351.7677126016
  0
LINE
  5
30
330
2B
100
AcDbEntity
  8
Default
  6
Continuous
 62
     7
 48
25.4
100
AcDbLine
 10
408.0921918257
 20
375.3295244082
 30
0.0
 11
395.3965396518
 21
375.3295244082
 31
0.0
  0
TEXT
  5
32
330
2B
100
AcDbEntity
  8
Default
  6
Continuous
 62
     7
 48
25.4
100
AcDbText
 10
395.3965396518
 20
376.3295244082
 30
0.0
 40
4.0
  1
3-M6
  7
SEACAD_arial_ttf
 11
395.3965396518
 21
380.3295244082
 31
0.0
100
AcDbText
 73
     3
  0
ENDBLK
  5
34
330
2B
100
AcDbEntity
  8
0
100
AcDbBlockEnd
  0
BLOCK
  5
3D
330
35
100
AcDbEntity
  8
0
100
AcDbBlockBegin
  2
SEANNOT_GROUP1
 70
     0
 71
     0
 10
0.0
 20
0.0
 30
0.0
  3
SEANNOT_GROUP1
  1

  0
LWPOLYLINE
  5
37
330
35
100
AcDbEntity
  8
Default
  6
Continuous
 62
     7
 48
25.4
100
AcDbPolyline
 90
        2
 70
     0
 43
0.0
 10
279.1309325967
 20
386.8302920506
 10
241.4013686188
 20
371.9787428548
  0
HATCH
  5
38
330
35
100
AcDbEntity
  8
Default
  6
Continuous
 62
     7
 48
25.4
100
AcDbHatch
 10
0.0
 20
0.0
 30
0.0
210
0.0
220
0.0
230
1.0
  2
SOLID
 70
     1
 71
     0
 91
        1
 92
        1
 93
        3
 72
     1
 10
244.8792084869695
 20
374.0641866583421
 11
241.401368618751
 21
371.9787428548286
 72
     1
 10
241.401368618751
 20
371.9787428548286
 11
245.3675772952323
 21
372.8235119008922
 72
     1
 10
245.3675772952323
 20
372.8235119008922
 11
244.8792084869695
 21
374.0641866583421
 97
        0
 75
     0
 76
     1
 98
        0
  0
LWPOLYLINE
  5
39
330
35
100
AcDbEntity
  8
Default
  6
Continuous
 62
     7
 48
25.4
370
    30
100
AcDbPolyline
 90
        4
 70
     1
 43
0.00035
 10
244.879208487
 20
374.0641866583
 10
241.4013686188
 20
371.9787428548
 10
245.3675772952
 20
372.8235119009
 10
244.879208487
 20
374.0641866583
  0
LINE
  5
3A
330
35
100
AcDbEntity
  8
Default
  6
Continuous
 62
     7
 48
25.4
100
AcDbLine
 10
279.1309325967
 20
386.8302920506
 30
0.0
 11
350.9715123069
 21
386.8302920506
 31
0.0
  0
TEXT
  5
3B
330
35
100
AcDbEntity
  8
Default
  6
Continuous
 62
     7
 48
25.4
100
AcDbText
 10
279.1309325967
 20
387.8302920506
 30
0.0
 40
4.0
  1
SERRATION PITCH 1.5X60
  7
SEACAD_arial_ttf
 11
279.1309325967
 21
391.8302920506
 31
0.0
100
AcDbText
 73
     3
  0
TEXT
  5
3C
330
35
100
AcDbEntity
  8
Default
  6
Continuous
 62
     7
 48
25.4
100
AcDbText
 10
349.3048456402
 20
387.8302920506
 30
0.0
 40
4.0
  1
°
  7
SEACAD_arial_ttf
 11
349.3048456402
 21
391.8302920506
 31
0.0
100
AcDbText
 73
     3
  0
ENDBLK
  5
3E
330
35
100
AcDbEntity
  8
0
100
AcDbBlockEnd
  0
BLOCK
  5
46
330
3F
100
AcDbEntity
  8
0
100
AcDbBlockBegin
  2
SEANNOT_GROUP2
 70
     0
 71
     0
 10
0.0
 20
0.0
 30
0.0
  3
SEANNOT_GROUP2
  1

  0
LWPOLYLINE
  5
41
330
3F
100
AcDbEntity
  8
Default
  6
Continuous
 62
     7
 48
25.4
100
AcDbPolyline
 90
        2
 70
     0
 43
0.0
 10
132.4996754262
 20
213.9437807591
 10
143.7306698122
 20
235.0595766712
  0
HATCH
  5
42
330
3F
100
AcDbEntity
  8
Default
  6
Continuous
 62
     7
 48
25.4
100
AcDbHatch
 10
0.0
 20
0.0
 30
0.0
210
0.0
220
0.0
230
1.0
  2
SOLID
 70
     1
 71
     0
 91
        1
 92
        1
 93
        3
 72
     1
 10
142.4409146841387
 20
231.2149729574471
 11
143.730669812238
 21
235.0595766712419
 72
     1
 10
143.730669812238
 20
235.0595766712419
 11
141.2637326757782
 21
231.8410883348736
 72
     1
 10
141.2637326757782
 20
231.8410883348736
 11
142.4409146841387
 21
231.2149729574471
 97
        0
 75
     0
 76
     1
 98
        0
  0
LWPOLYLINE
  5
43
330
3F
100
AcDbEntity
  8
Default
  6
Continuous
 62
     7
 48
25.4
370
    30
100
AcDbPolyline
 90
        4
 70
     1
 43
0.00035
 10
142.4409146841
 20
231.2149729574
 10
143.7306698122
 20
235.0595766712
 10
141.2637326758
 20
231.8410883349
 10
142.4409146841
 20
231.2149729574
  0
LINE
  5
44
330
3F
100
AcDbEntity
  8
Default
  6
Continuous
 62
     7
 48
25.4
100
AcDbLine
 10
132.4996754262
 20
213.9437807591
 30
0.0
 11
116.6735884697
 21
213.9437807591
 31
0.0
  0
TEXT
  5
45
330
3F
100
AcDbEntity
  8
Default
  6
Continuous
 62
     7
 48
25.4
100
AcDbText
 10
116.6735884697
 20
214.9437807591
 30
0.0
 40
4.0
  1
6-M10
  7
SEACAD_arial_ttf
 11
116.6735884697
 21
218.9437807591
 31
0.0
100
AcDbText
 73
     3
  0
ENDBLK
  5
47
330
3F
100
AcDbEntity
  8
0
100
AcDbBlockEnd
  0
BLOCK
  5
4F
330
48
100
AcDbEntity
  8
0
100
AcDbBlockBegin
  2
SEANNOT_GROUP3
 70
     0
 71
     0
 10
0.0
 20
0.0
 30
0.0
  3
SEANNOT_GROUP3
  1

  0
LWPOLYLINE
  5
4A
330
48
100
AcDbEntity
  8
Default
  6
Continuous
 62
     7
 48
25.4
100
AcDbPolyline
 90
        2
 70
     0
 43
0.0
 10
38.7436959737
 20
257.2467868061
 10
49.8287445169
 20
284.4595766712
  0
HATCH
  5
4B
330
48
100
AcDbEntity
  8
Default
  6
Continuous
 62
     7
 48
25.4
100
AcDbHatch
 10
0.0
 20
0.0
 30
0.0
210
0.0
220
0.0
230
1.0
  2
SOLID
 70
     1
 71
     0
 91
        1
 92
        1
 93
        3
 72
     1
 10
48.93715675688546
 20
280.5036295946517
 11
49.82874451689629
 21
284.4595766712418
 72
     1
 10
49.8287445168963
 20
284.4595766712419
 11
47.70234082718115
 21
281.0066281696061
 72
     1
 10
47.70234082718115
 20
281.006628169606
 11
48.93715675688546
 21
280.5036295946517
 97
        0
 75
     0
 76
     1
 98
        0
  0
LWPOLYLINE
  5
4C
330
48
100
AcDbEntity
  8
Default
  6
Continuous
 62
     7
 48
25.4
370
    30
100
AcDbPolyline
 90
        4
 70
     1
 43
0.00035
 10
48.9371567569
 20
280.5036295947
 10
49.8287445169
 20
284.4595766712
 10
47.7023408272
 20
281.0066281696
 10
48.9371567569
 20
280.5036295947
  0
LINE
  5
4D
330
48
100
AcDbEntity
  8
Default
  6
Continuous
 62
     7
 48
25.4
100
AcDbLine
 10
38.7436959737
 20
257.2467868061
 30
0.0
 11
16.4828264085
 21
257.2467868061
 31
0.0
  0
TEXT
  5
4E
330
48
100
AcDbEntity
  8
Default
  6
Continuous
 62
     7
 48
25.4
100
AcDbText
 10
16.4828264085
 20
258.2467868061
 30
0.0
 40
4.0
  1
M16X2.0
  7
SEACAD_arial_ttf
 11
16.4828264085
 21
262.2467868061
 31
0.0
100
AcDbText
 73
     3
  0
ENDBLK
  5
50
330
48
100
AcDbEntity
  8
0
100
AcDbBlockEnd
  0
BLOCK
  5
103
330
51
100
AcDbEntity
  8
0
100
AcDbBlockBegin
  2
SE
 70
     0
 71
     0
 10
0.0
 20
0.0
 30
0.0
  3
SE
  1

  0
LINE
  5
55
330
51
100
AcDbEntity
  8
DV1_Default
  6
CENTER2
 62
     7
 48
25.4
100
AcDbLine
 10
480.6329187907
 20
322.849492968
 30
0.0
 11
492.653727835
 21
334.8703020124
 31
0.0
  0
CIRCLE
  5
56
330
51
100
AcDbEntity
  8
DV1_Default
  6
Continuous
 62
     7
 48
25.4
100
AcDbCircle
 10
486.6494454008
 20
328.8537754023
 30
0.0
 40
8.5
  0
CIRCLE
  5
57
330
51
100
AcDbEntity
  8
DV1_Default
  6
Continuous
 62
     7
 48
25.4
100
AcDbCircle
 10
486.6494454008
 20
328.8537754023
 30
0.0
 40
6.0
  0
CIRCLE
  5
58
330
51
100
AcDbEntity
  8
DV1_Default
  6
Continuous
 62
     7
 48
25.4
100
AcDbCircle
 10
500.2288726368
 20
305.2818713678
 30
0.0
 40
6.0
  0
CIRCLE
  5
59
330
51
100
AcDbEntity
  8
DV1_Default
  6
Continuous
 62
     7
 48
25.4
100
AcDbCircle
 10
500.2288726368
 20
305.2818713678
 30
0.0
 40
8.5
  0
CIRCLE
  5
5A
330
51
100
AcDbEntity
  8
DV1_Default
  6
Continuous
 62
     7
 48
25.4
100
AcDbCircle
 10
412.5324115681
 20
328.8537754023
 30
0.0
 40
8.5
  0
CIRCLE
  5
5B
330
51
100
AcDbEntity
  8
DV1_Default
  6
Continuous
 62
     7
 48
25.4
100
AcDbCircle
 10
412.5324115681
 20
328.8537754023
 30
0.0
 40
6.0
  0
CIRCLE
  5
5C
330
51
100
AcDbEntity
  8
DV1_Default
  6
Continuous
 62
     7
 48
25.4
100
AcDbCircle
 10
398.9529843321
 20
305.2818713678
 30
0.0
 40
6.0
  0
CIRCLE
  5
5D
330
51
100
AcDbEntity
  8
DV1_Default
  6
Continuous
 62
     7
 48
25.4
100
AcDbCircle
 10
398.9529843321
 20
305.2818713678
 30
0.0
 40
8.5
  0
ARC
  5
5E
330
51
100
AcDbEntity
  8
DV1_Default
  6
CENTER2
 62
     7
 48
25.4
100
AcDbCircle
 10
449.5909284844
 20
291.8075026618
 30
0.0
 40
52.40000000000001
100
AcDbArc
 50
125.7050838653
 51
144.3138498527
  0
ARC
  5
5F
330
51
100
AcDbEntity
  8
DV1_Default
  6
CENTER2
 62
     7
 48
25.4
100
AcDbCircle
 10
449.5909284844
 20
291.8075026618
 30
0.0
 40
52.40000000000001
100
AcDbArc
 50
5.5963075975
 51
24.205073585
  0
LINE
  5
60
330
51
100
AcDbEntity
  8
DV1_Default
  6
CENTER2
 62
     7
 48
25.4
100
AcDbLine
 10
407.1863920288
 20
303.1697639605
 30
0.0
 11
390.7665904034
 21
307.5694365459
 31
0.0
  0
LINE
  5
61
330
51
100
AcDbEntity
  8
DV1_Default
  6
CENTER2
 62
     7
 48
25.4
100
AcDbLine
 10
418.5489381782
 20
322.849492968
 30
0.0
 11
406.5281291339
 21
334.8703020124
 31
0.0
  0
ARC
  5
62
330
51
100
AcDbEntity
  8
DV1_Default
  6
CENTER2
 62
     7
 48
25.4
100
AcDbCircle
 10
449.5909284844
 20
291.8075026618
 30
0.0
 40
52.40000000000001
100
AcDbArc
 50
155.794926415
 51
174.4036924025
  0
ARC
  5
63
330
51
100
AcDbEntity
  8
DV1_Default
  6
CENTER2
 62
     7
 48
25.4
100
AcDbCircle
 10
449.5909284844
 20
291.8075026618
 30
0.0
 40
52.40000000000001
100
AcDbArc
 50
35.6861501473
 51
54.2949161347
  0
LINE
  5
64
330
51
100
AcDbEntity
  8
DV1_Default
  6
CENTER2
 62
     7
 48
25.4
100
AcDbLine
 10
449.5909284844
 20
385.8704095343
 30
0.0
 11
449.5909284844
 21
196.9658974756
 31
0.0
  0
CIRCLE
  5
65
330
51
100
AcDbEntity
  8
DV1_Default
  6
Continuous
 62
     7
 48
25.4
100
AcDbCircle
 10
449.5909980074
 20
340.7350906109
 30
0.0
 40
8.5
  0
LINE
  5
66
330
51
100
AcDbEntity
  8
DV1_Default
  6
Continuous
 62
     7
 48
25.4
100
AcDbLine
 10
449.5909284844
 20
375.7350906109
 30
0.0
 11
434.0909284844
 21
375.7350086586
 31
0.0
  0
LINE
  5
67
330
51
100
AcDbEntity
  8
DV1_Default
  6
Continuous
 62
     7
 48
25.4
100
AcDbLine
 10
449.5909284844
 20
375.7350906109
 30
0.0
 11
465.0909284844
 21
375.7350906109
 31
0.0
  0
LINE
  5
68
330
51
100
AcDbEntity
  8
DV1_Default
  6
Continuous
 62
     7
 48
25.4
100
AcDbLine
 10
465.0909284844
 20
375.7350906109
 30
0.0
 11
465.0909284844
 21
309.2199181682
 31
0.0
  0
LINE
  5
69
330
51
100
AcDbEntity
  8
DV1_Default
  6
Continuous
 62
     7
 48
25.4
100
AcDbLine
 10
434.0909284844
 20
309.2199181682
 30
0.0
 11
434.0909284844
 21
375.7350086586
 31
0.0
  0
LINE
  5
6A
330
51
100
AcDbEntity
  8
DV1_Default
  6
Continuous
 62
     7
 48
25.4
100
AcDbLine
 10
449.5909284844
 20
303.7350906109
 30
0.0
 11
455.5909284844
 21
303.7350906109
 31
0.0
  0
LINE
  5
6B
330
51
100
AcDbEntity
  8
DV1_Default
  6
Continuous
 62
     7
 48
25.4
100
AcDbLine
 10
449.5909284844
 20
303.7350906109
 30
0.0
 11
443.5909284844
 21
303.7350906109
 31
0.0
  0
LINE
  5
6C
330
51
100
AcDbEntity
  8
DV1_Default
  6
Continuous
 62
     7
 48
25.4
100
AcDbLine
 10
455.5909284844
 20
303.7350906109
 30
0.0
 11
465.0909284844
 21
309.2199181682
 31
0.0
  0
LINE
  5
6D
330
51
100
AcDbEntity
  8
DV1_Default
  6
Continuous
 62
     7
 48
25.4
100
AcDbLine
 10
443.5909284844
 20
303.7350906109
 30
0.0
 11
434.0909284844
 21
309.2199181682
 31
0.0
  0
CIRCLE
  5
6E
330
51
100
AcDbEntity
  8
DV1_Default
  6
Continuous
 62
     7
 48
25.4
100
AcDbCircle
 10
449.5909980074
 20
340.7350906109
 30
0.0
 40
8.0
  0
CIRCLE
  5
6F
330
51
100
AcDbEntity
  8
DV1_Default
  6
Continuous
 62
     7
 48
25.4
100
AcDbCircle
 10
449.5909980074
 20
360.7350906109
 30
0.0
 40
8.5
  0
CIRCLE
  5
70
330
51
100
AcDbEntity
  8
DV1_Default
  6
Continuous
 62
     7
 48
25.4
100
AcDbCircle
 10
449.5909980074
 20
360.7350906109
 30
0.0
 40
8.0
  0
LINE
  5
71
330
51
100
AcDbEntity
  8
DV1_Default
  6
Continuous
 62
     7
 48
25.4
100
AcDbLine
 10
449.5909284844
 20
365.7349678609
 30
0.0
 11
453.9210555034
 21
363.2349678609
 31
0.0
  0
LINE
  5
72
330
51
100
AcDbEntity
  8
DV1_Default
  6
Continuous
 62
     7
 48
25.4
100
AcDbLine
 10
453.9210555034
 20
363.2349678609
 30
0.0
 11
453.9210555034
 21
358.2349678609
 31
0.0
  0
LINE
  5
73
330
51
100
AcDbEntity
  8
DV1_Default
  6
Continuous
 62
     7
 48
25.4
100
AcDbLine
 10
453.9210555034
 20
358.2349678609
 30
0.0
 11
449.5909284844
 21
355.7349678609
 31
0.0
  0
LINE
  5
74
330
51
100
AcDbEntity
  8
DV1_Default
  6
Continuous
 62
     7
 48
25.4
100
AcDbLine
 10
449.5909284844
 20
355.7349678609
 30
0.0
 11
445.2608014655
 21
358.2349678609
 31
0.0
  0
LINE
  5
75
330
51
100
AcDbEntity
  8
DV1_Default
  6
Continuous
 62
     7
 48
25.4
100
AcDbLine
 10
445.2608014655
 20
358.2349678609
 30
0.0
 11
445.2608014655
 21
363.2349678609
 31
0.0
  0
LINE
  5
76
330
51
100
AcDbEntity
  8
DV1_Default
  6
Continuous
 62
     7
 48
25.4
100
AcDbLine
 10
445.2608014655
 20
363.2349678609
 30
0.0
 11
449.5909284844
 21
365.7349678609
 31
0.0
  0
LINE
  5
77
330
51
100
AcDbEntity
  8
DV1_Default
  6
CENTER2
 62
     7
 48
25.4
100
AcDbLine
 10
437.5909980074
 20
360.7350906109
 30
0.0
 11
461.8925794182
 21
360.7350906109
 31
0.0
  0
LINE
  5
78
330
51
100
AcDbEntity
  8
DV1_Default
  6
CENTER2
 62
     7
 48
25.4
100
AcDbLine
 10
437.5909980074
 20
340.7350906109
 30
0.0
 11
461.7742943131
 21
340.7350906109
 31
0.0
  0
LINE
  5
79
330
51
100
AcDbEntity
  8
DV1_Default
  6
Continuous
 62
     7
 48
25.4
100
AcDbLine
 10
449.5909284844
 20
335.7352133609
 30
0.0
 11
453.9210555034
 21
338.2352133609
 31
0.0
  0
LINE
  5
7A
330
51
100
AcDbEntity
  8
DV1_Default
  6
Continuous
 62
     7
 48
25.4
100
AcDbLine
 10
453.9210555034
 20
338.2352133609
 30
0.0
 11
453.9210555034
 21
343.2352133609
 31
0.0
  0
LINE
  5
7B
330
51
100
AcDbEntity
  8
DV1_Default
  6
Continuous
 62
     7
 48
25.4
100
AcDbLine
 10
453.9210555034
 20
343.2352133609
 30
0.0
 11
449.5909284844
 21
345.7352133609
 31
0.0
  0
LINE
  5
7C
330
51
100
AcDbEntity
  8
DV1_Default
  6
Continuous
 62
     7
 48
25.4
100
AcDbLine
 10
449.5909284844
 20
345.7352133609
 30
0.0
 11
445.2608014655
 21
343.2352133609
 31
0.0
  0
LINE
  5
7D
330
51
100
AcDbEntity
  8
DV1_Default
  6
Continuous
 62
     7
 48
25.4
100
AcDbLine
 10
445.2608014655
 20
343.2352133609
 30
0.0
 11
445.2608014655
 21
338.2352133609
 31
0.0
  0
LINE
  5
7E
330
51
100
AcDbEntity
  8
DV1_Default
  6
Continuous
 62
     7
 48
25.4
100
AcDbLine
 10
445.2608014655
 20
338.2352133609
 30
0.0
 11
449.5909284844
 21
335.7352133609
 31
0.0
  0
LINE
  5
7F
330
51
100
AcDbEntity
  8
DV1_Default
  6
Continuous
 62
     7
 48
25.4
100
AcDbLine
 10
426.3635218741
 20
372.5808819961
 30
0.0
 11
426.3635218741
 21
370.5808819961
 31
0.0
  0
LINE
  5
80
330
51
100
AcDbEntity
  8
DV1_Default
  6
Continuous
 62
     7
 48
25.4
100
AcDbLine
 10
472.8183350948
 20
372.5808819961
 30
0.0
 11
472.8183350948
 21
370.5808819961
 31
0.0
  0
LINE
  5
81
330
51
100
AcDbEntity
  8
DV1_Default
  6
Continuous
 62
     7
 48
25.4
100
AcDbLine
 10
374.1302396538
 20
254.7791077257
 30
0.0
 11
410.7534151875
 21
275.9235079786
 31
0.0
  0
LINE
  5
82
330
51
100
AcDbEntity
  8
DV1_Default
  6
Continuous
 62
     7
 48
25.4
100
AcDbLine
 10
380.1302396538
 20
244.3868028802
 30
0.0
 11
416.7534151875
 21
265.5312031332
 31
0.0
  0
LINE
  5
83
330
51
100
AcDbEntity
  8
DV1_Default
  6
Continuous
 62
     7
 48
25.4
100
AcDbLine
 10
381.3085514588
 20
258.9235079786
 30
0.0
 11
387.3085514588
 21
248.5312031332
 31
0.0
  0
LINE
  5
84
330
51
100
AcDbEntity
  8
DV1_Default
  6
CENTER2
 62
     7
 48
25.4
100
AcDbLine
 10
395.8624655855
 20
250.2153892622
 30
0.0
 11
387.0525322836
 21
265.4746413523
 31
0.0
  0
LINE
  5
85
330
51
100
AcDbEntity
  8
DV1_Default
  6
CENTER2
 62
     7
 48
25.4
100
AcDbLine
 10
404.5431518868
 20
275.1799995438
 30
0.0
 11
413.3537558278
 21
259.9195858727
 31
0.0
  0
LINE
  5
86
330
51
100
AcDbEntity
  8
DV1_Default
  6
Continuous
 62
     7
 48
25.4
100
AcDbLine
 10
417.668478697
 20
268.9462666427
 30
0.0
 11
414.168478697
 21
275.0084444691
 31
0.0
  0
CIRCLE
  5
87
330
51
100
AcDbEntity
  8
DV1_Default
  6
Continuous
 62
     7
 48
25.4
100
AcDbCircle
 10
391.45326104
 20
257.8523555559
 30
0.0
 40
5.0
  0
CIRCLE
  5
88
330
51
100
AcDbEntity
  8
DV1_Default
  6
Continuous
 62
     7
 48
25.4
100
AcDbCircle
 10
391.45326104
 20
257.8523555559
 30
0.0
 40
4.500000000000001
  0
CIRCLE
  5
89
330
51
100
AcDbEntity
  8
DV1_Default
  6
Continuous
 62
     7
 48
25.4
100
AcDbCircle
 10
408.7737691157
 20
267.8523555559
 30
0.0
 40
5.0
  0
CIRCLE
  5
8A
330
51
100
AcDbEntity
  8
DV1_Default
  6
Continuous
 62
     7
 48
25.4
100
AcDbCircle
 10
408.7737691157
 20
267.8523555559
 30
0.0
 40
4.500000000000001
  0
ARC
  5
8B
330
51
100
AcDbEntity
  8
DV1_Default
  6
Continuous
 62
     7
 48
25.4
100
AcDbCircle
 10
415.6844415065
 20
271.842234121
 30
0.0
 40
6.000000000000001
100
AcDbArc
 50
300.0
 51
120.0
  0
ARC
  5
8C
330
51
100
AcDbEntity
  8
DV1_Default
  6
Continuous
 62
     7
 48
25.4
100
AcDbCircle
 10
416.9657874282
 20
272.5967086142
 30
0.0
 40
6.12021352032017
100
AcDbArc
 50
310.7546596844
 51
108.0863399467
  0
LINE
  5
8D
330
51
100
AcDbEntity
  8
DV1_Default
  6
Continuous
 62
     7
 48
25.4
100
AcDbLine
 10
419.6647162011
 20
292.0381051323
 30
0.0
 11
435.1647162011
 21
265.1913176149
 31
0.0
  0
LINE
  5
8E
330
51
100
AcDbEntity
  8
DV1_Default
  6
Continuous
 62
     7
 48
25.4
100
AcDbLine
 10
367.309687293
 20
270.7337556719
 30
0.0
 11
369.3802396538
 21
263.0063490616
 31
0.0
  0
LINE
  5
8F
330
51
100
AcDbEntity
  8
DV1_Default
  6
Continuous
 62
     7
 48
25.4
100
AcDbLine
 10
390.5370939033
 20
230.5027072948
 30
0.0
 11
384.8802396538
 21
236.1595615443
 31
0.0
  0
LINE
  5
90
330
51
100
AcDbEntity
  8
DV1_Default
  6
Continuous
 62
     7
 48
25.4
100
AcDbLine
 10
369.3802396538
 20
263.0063490616
 30
0.0
 11
419.6647162011
 21
292.0381051323
 31
0.0
  0
LINE
  5
91
330
51
100
AcDbEntity
  8
DV1_Default
  6
Continuous
 62
     7
 48
25.4
100
AcDbLine
 10
384.8802396538
 20
236.1595615443
 30
0.0
 11
435.1647162011
 21
265.1913176149
 31
0.0
  0
LINE
  5
92
330
51
100
AcDbEntity
  8
DV1_Default
  6
Continuous
 62
     7
 48
25.4
100
AcDbLine
 10
369.3802396538
 20
263.0063490616
 30
0.0
 11
384.8802396538
 21
236.1595615443
 31
0.0
  0
LINE
  5
93
330
51
100
AcDbEntity
  8
DV1_Default
  6
Continuous
 62
     7
 48
25.4
100
AcDbLine
 10
410.7534151875
 20
275.9235079786
 30
0.0
 11
414.168478697
 21
275.0084444691
 31
0.0
  0
LINE
  5
94
330
51
100
AcDbEntity
  8
DV1_Default
  6
Continuous
 62
     7
 48
25.4
100
AcDbLine
 10
416.7534151875
 20
265.5312031332
 30
0.0
 11
417.668478697
 21
268.9462666427
 31
0.0
  0
LINE
  5
95
330
51
100
AcDbEntity
  8
DV1_Default
  6
Continuous
 62
     7
 48
25.4
100
AcDbLine
 10
410.7534151875
 20
275.9235079786
 30
0.0
 11
417.6816184178
 21
279.9235079786
 31
0.0
  0
LINE
  5
96
330
51
100
AcDbEntity
  8
DV1_Default
  6
Continuous
 62
     7
 48
25.4
100
AcDbLine
 10
417.6816184178
 20
279.9235079786
 30
0.0
 11
412.9316184178
 21
288.1507493146
 31
0.0
  0
LINE
  5
97
330
51
100
AcDbEntity
  8
DV1_Default
  6
Continuous
 62
     7
 48
25.4
100
AcDbLine
 10
416.7534151875
 20
265.5312031332
 30
0.0
 11
423.6816184178
 21
269.5312031332
 31
0.0
  0
LINE
  5
98
330
51
100
AcDbEntity
  8
DV1_Default
  6
Continuous
 62
     7
 48
25.4
100
AcDbLine
 10
423.6816184178
 20
269.5312031332
 30
0.0
 11
428.4316184178
 21
261.3039617972
 31
0.0
  0
LINE
  5
99
330
51
100
AcDbEntity
  8
DV1_Default
  6
Continuous
 62
     7
 48
25.4
100
AcDbLine
 10
390.5370939033
 20
230.5027072948
 30
0.0
 11
392.6476978834
 21
231.7212650709
 31
0.0
  0
LINE
  5
9A
330
51
100
AcDbEntity
  8
DV1_Default
  6
Continuous
 62
     7
 48
25.4
100
AcDbLine
 10
367.309687293
 20
270.7337556719
 30
0.0
 11
369.4202912731
 21
271.952313448
 31
0.0
  0
LINE
  5
9B
330
51
100
AcDbEntity
  8
DV1_Default
  6
Continuous
 62
     7
 48
25.4
100
AcDbLine
 10
417.0666399898
 20
290.5381051323
 30
0.0
 11
432.5666399898
 21
263.6913176149
 31
0.0
  0
LINE
  5
9C
330
51
100
AcDbEntity
  8
DV1_Default
  6
Continuous
 62
     7
 48
25.4
100
AcDbLine
 10
519.0516173151
 20
244.3868028802
 30
0.0
 11
482.4284417814
 21
265.5312031332
 31
0.0
  0
LINE
  5
9D
330
51
100
AcDbEntity
  8
DV1_Default
  6
Continuous
 62
     7
 48
25.4
100
AcDbLine
 10
525.0516173151
 20
254.7791077257
 30
0.0
 11
488.4284417814
 21
275.9235079786
 31
0.0
  0
LINE
  5
9E
330
51
100
AcDbEntity
  8
DV1_Default
  6
Continuous
 62
     7
 48
25.4
100
AcDbLine
 10
511.8733055101
 20
248.5312031332
 30
0.0
 11
517.8733055101
 21
258.9235079786
 31
0.0
  0
LINE
  5
9F
330
51
100
AcDbEntity
  8
DV1_Default
  6
CENTER2
 62
     7
 48
25.4
100
AcDbLine
 10
512.1378004743
 20
265.4893218496
 30
0.0
 11
503.3278671724
 21
250.2300697595
 31
0.0
  0
LINE
  5
A0
330
51
100
AcDbEntity
  8
DV1_Default
  6
CENTER2
 62
     7
 48
25.4
100
AcDbLine
 10
486.1774706242
 20
260.524711568
 30
0.0
 11
494.9880745652
 21
275.7851252391
 31
0.0
  0
LINE
  5
A1
330
51
100
AcDbEntity
  8
DV1_Default
  6
Continuous
 62
     7
 48
25.4
100
AcDbLine
 10
485.0133782719
 20
275.0084444691
 30
0.0
 11
481.5133782719
 21
268.9462666427
 31
0.0
  0
CIRCLE
  5
A2
330
51
100
AcDbEntity
  8
DV1_Default
  6
Continuous
 62
     7
 48
25.4
100
AcDbCircle
 10
507.7285959288
 20
257.8523555559
 30
0.0
 40
5.0
  0
CIRCLE
  5
A3
330
51
100
AcDbEntity
  8
DV1_Default
  6
Continuous
 62
     7
 48
25.4
100
AcDbCircle
 10
507.7285959288
 20
257.8523555559
 30
0.0
 40
4.500000000000001
  0
CIRCLE
  5
A4
330
51
100
AcDbEntity
  8
DV1_Default
  6
Continuous
 62
     7
 48
25.4
100
AcDbCircle
 10
490.4080878532
 20
267.8523555559
 30
0.0
 40
5.0
  0
CIRCLE
  5
A5
330
51
100
AcDbEntity
  8
DV1_Default
  6
Continuous
 62
     7
 48
25.4
100
AcDbCircle
 10
490.4080878532
 20
267.8523555559
 30
0.0
 40
4.500000000000001
  0
ARC
  5
A6
330
51
100
AcDbEntity
  8
DV1_Default
  6
Continuous
 62
     7
 48
25.4
100
AcDbCircle
 10
483.4974154624
 20
271.842234121
 30
0.0
 40
6.000000000000001
100
AcDbArc
 50
60.0
 51
240.0
  0
ARC
  5
A7
330
51
100
AcDbEntity
  8
DV1_Default
  6
Continuous
 62
     7
 48
25.4
100
AcDbCircle
 10
482.3221573644
 20
272.5214531083
 30
0.0
 40
6.12021352032017
100
AcDbArc
 50
71.5097805301
 51
228.8031775344
  0
LINE
  5
A8
330
51
100
AcDbEntity
  8
DV1_Default
  6
Continuous
 62
     7
 48
25.4
100
AcDbLine
 10
464.0171407678
 20
265.1913176149
 30
0.0
 11
479.5171407678
 21
292.0381051323
 31
0.0
  0
LINE
  5
A9
330
51
100
AcDbEntity
  8
DV1_Default
  6
Continuous
 62
     7
 48
25.4
100
AcDbLine
 10
508.6447630656
 20
230.5027072948
 30
0.0
 11
514.3016173151
 21
236.1595615443
 31
0.0
  0
LINE
  5
AA
330
51
100
AcDbEntity
  8
DV1_Default
  6
Continuous
 62
     7
 48
25.4
100
AcDbLine
 10
531.8721696759
 20
270.7337556719
 30
0.0
 11
529.8016173151
 21
263.0063490616
 31
0.0
  0
LINE
  5
AB
330
51
100
AcDbEntity
  8
DV1_Default
  6
Continuous
 62
     7
 48
25.4
100
AcDbLine
 10
514.3016173151
 20
236.1595615443
 30
0.0
 11
464.0171407678
 21
265.1913176149
 31
0.0
  0
LINE
  5
AC
330
51
100
AcDbEntity
  8
DV1_Default
  6
Continuous
 62
     7
 48
25.4
100
AcDbLine
 10
529.8016173151
 20
263.0063490616
 30
0.0
 11
479.5171407678
 21
292.0381051323
 31
0.0
  0
LINE
  5
AD
330
51
100
AcDbEntity
  8
DV1_Default
  6
Continuous
 62
     7
 48
25.4
100
AcDbLine
 10
514.3016173151
 20
236.1595615443
 30
0.0
 11
529.8016173151
 21
263.0063490616
 31
0.0
  0
LINE
  5
AE
330
51
100
AcDbEntity
  8
DV1_Default
  6
Continuous
 62
     7
 48
25.4
100
AcDbLine
 10
482.4284417814
 20
265.5312031332
 30
0.0
 11
481.5133782719
 21
268.9462666427
 31
0.0
  0
LINE
  5
AF
330
51
100
AcDbEntity
  8
DV1_Default
  6
Continuous
 62
     7
 48
25.4
100
AcDbLine
 10
488.4284417814
 20
275.9235079786
 30
0.0
 11
485.0133782719
 21
275.0084444691
 31
0.0
  0
LINE
  5
B0
330
51
100
AcDbEntity
  8
DV1_Default
  6
Continuous
 62
     7
 48
25.4
100
AcDbLine
 10
482.4284417814
 20
265.5312031332
 30
0.0
 11
475.5002385511
 21
269.5312031332
 31
0.0
  0
LINE
  5
B1
330
51
100
AcDbEntity
  8
DV1_Default
  6
Continuous
 62
     7
 48
25.4
100
AcDbLine
 10
475.5002385511
 20
269.5312031332
 30
0.0
 11
470.7502385511
 21
261.3039617972
 31
0.0
  0
LINE
  5
B2
330
51
100
AcDbEntity
  8
DV1_Default
  6
Continuous
 62
     7
 48
25.4
100
AcDbLine
 10
488.4284417814
 20
275.9235079786
 30
0.0
 11
481.5002385511
 21
279.9235079786
 31
0.0
  0
LINE
  5
B3
330
51
100
AcDbEntity
  8
DV1_Default
  6
Continuous
 62
     7
 48
25.4
100
AcDbLine
 10
481.5002385511
 20
279.9235079786
 30
0.0
 11
486.2502385511
 21
288.1507493146
 31
0.0
  0
LINE
  5
B4
330
51
100
AcDbEntity
  8
DV1_Default
  6
Continuous
 62
     7
 48
25.4
100
AcDbLine
 10
531.8721696759
 20
270.7337556719
 30
0.0
 11
529.7615656958
 21
271.952313448
 31
0.0
  0
LINE
  5
B5
330
51
100
AcDbEntity
  8
DV1_Default
  6
Continuous
 62
     7
 48
25.4
100
AcDbLine
 10
508.6447630656
 20
230.5027072948
 30
0.0
 11
506.5341590855
 21
231.7212650709
 31
0.0
  0
LINE
  5
B6
330
51
100
AcDbEntity
  8
DV1_Default
  6
Continuous
 62
     7
 48
25.4
100
AcDbLine
 10
466.6152169791
 20
263.6913176149
 30
0.0
 11
482.1152169791
 21
290.5381051323
 31
0.0
  0
ARC
  5
B7
330
51
100
AcDbEntity
  8
DV1_Default
  6
Continuous
 62
     7
 48
25.4
100
AcDbCircle
 10
449.5909284844
 20
291.418153505
 30
0.0
 40
82.50000000000001
100
AcDbArc
 50
220.8290184956
 51
319.1709815044
  0
ARC
  5
B8
330
51
100
AcDbEntity
  8
DV1_Default
  6
Continuous
 62
     7
 48
25.4
100
AcDbCircle
 10
449.5909284844
 20
291.418153505
 30
0.0
 40
82.50000000000001
100
AcDbArc
 50
340.8290184956
 51
79.1709815044
  0
ARC
  5
B9
330
51
100
AcDbEntity
  8
DV1_Default
  6
Continuous
 62
     7
 48
25.4
100
AcDbCircle
 10
449.5909284844
 20
291.418153505
 30
0.0
 40
82.50000000000001
100
AcDbArc
 50
100.8290184956
 51
199.1709815044
  0
LINE
  5
BA
330
51
100
AcDbEntity
  8
DV1_Default
  6
CENTER2
 62
     7
 48
25.4
100
AcDbLine
 10
449.5909284844
 20
291.418153505
 30
0.0
 11
371.6486421438
 21
246.418153505
 31
0.0
  0
LINE
  5
BB
330
51
100
AcDbEntity
  8
DV1_Default
  6
CENTER2
 62
     7
 48
25.4
100
AcDbLine
 10
449.5909284844
 20
291.418153505
 30
0.0
 11
527.533214825
 21
246.418153505
 31
0.0
  0
LINE
  5
BC
330
51
100
AcDbEntity
  8
DV1_Default
  6
CENTER2
 62
     7
 48
25.4
100
AcDbLine
 10
356.8049877199
 20
291.418153505
 30
0.0
 11
541.8049877199
 21
291.418153505
 31
0.0
  0
CIRCLE
  5
BD
330
51
100
AcDbEntity
  8
DV1_Default
  6
Continuous
 62
     7
 48
25.4
100
AcDbCircle
 10
449.5909284844
 20
291.418153505
 30
0.0
 40
10.5
  0
LINE
  5
BE
330
51
100
AcDbEntity
  8
DV1_Default
  6
Continuous
 62
     7
 48
25.4
100
AcDbLine
 10
472.8183350948
 20
372.5808819961
 30
0.0
 11
465.0909284844
 21
374.6514343569
 31
0.0
  0
LINE
  5
BF
330
51
100
AcDbEntity
  8
DV1_Default
  6
Continuous
 62
     7
 48
25.4
100
AcDbLine
 10
426.3635218741
 20
372.5808819961
 30
0.0
 11
434.0909284844
 21
374.6514343569
 31
0.0
  0
CIRCLE
  5
C0
330
51
100
AcDbEntity
  8
DV1_Default
  6
Continuous
 62
     7
 48
25.4
100
AcDbCircle
 10
435.6999873731
 20
240.6067254802
 30
0.0
 40
8.5
  0
CIRCLE
  5
C1
330
51
100
AcDbEntity
  8
DV1_Default
  6
Continuous
 62
     7
 48
25.4
100
AcDbCircle
 10
435.6999873731
 20
240.6067254802
 30
0.0
 40
6.0
  0
CIRCLE
  5
C2
330
51
100
AcDbEntity
  8
DV1_Default
  6
Continuous
 62
     7
 48
25.4
100
AcDbCircle
 10
462.9035687005
 20
240.6325485422
 30
0.0
 40
6.0
  0
CIRCLE
  5
C3
330
51
100
AcDbEntity
  8
DV1_Default
  6
Continuous
 62
     7
 48
25.4
100
AcDbCircle
 10
462.9035687005
 20
240.6325485422
 30
0.0
 40
8.5
  0
ARC
  5
C4
330
51
100
AcDbEntity
  8
DV1_Default
  6
CENTER2
 62
     7
 48
25.4
100
AcDbCircle
 10
449.2537422237
 20
291.2234789266
 30
0.0
 40
52.40000000000001
100
AcDbArc
 50
245.7050838653
 51
264.3138498527
  0
LINE
  5
C5
330
51
100
AcDbEntity
  8
DV1_Default
  6
CENTER2
 62
     7
 48
25.4
100
AcDbLine
 10
460.6160035224
 20
248.8189424709
 30
0.0
 11
465.0156761078
 21
232.3991408455
 31
0.0
  0
LINE
  5
C6
330
51
100
AcDbEntity
  8
DV1_Default
  6
CENTER2
 62
     7
 48
25.4
100
AcDbLine
 10
437.8915851876
 20
248.8193315842
 30
0.0
 11
433.4916637033
 21
232.3986010556
 31
0.0
  0
ARC
  5
C7
330
51
100
AcDbEntity
  8
DV1_Default
  6
CENTER2
 62
     7
 48
25.4
100
AcDbCircle
 10
449.2537422237
 20
291.2234789266
 30
0.0
 40
52.40000000000001
100
AcDbArc
 50
275.794926415
 51
294.4036924025
  0
ARC
  5
C8
330
51
100
AcDbEntity
  8
DV1_Default
  6
Continuous
 62
     7
 48
25.4
100
AcDbCircle
 10
412.5324115681
 20
328.8537754023
 30
0.0
 40
9.000000000000002
100
AcDbArc
 50
248.502254859
 51
20.4739037612
  0
ARC
  5
C9
330
51
100
AcDbEntity
  8
DV1_Default
  6
Continuous
 62
     7
 48
25.4
100
AcDbCircle
 10
449.3049877199
 20
291.418153505
 30
0.0
 40
49.5
100
AcDbArc
 50
348.422377307
 51
6.4291194295
  0
ARC
  5
CA
330
51
100
AcDbEntity
  8
DV1_Default
  6
Continuous
 62
     7
 48
25.4
100
AcDbCircle
 10
398.9529843321
 20
305.2818713678
 30
0.0
 40
9.000000000000002
100
AcDbArc
 50
277.0089325367
 51
52.2027751673
  0
ARC
  5
CB
330
51
100
AcDbEntity
  8
DV1_Default
  6
Continuous
 62
     7
 48
25.4
100
AcDbCircle
 10
449.3049877199
 20
291.418153505
 30
0.0
 40
49.5
100
AcDbArc
 50
143.448402823
 51
155.5237099728
  0
ARC
  5
CC
330
51
100
AcDbEntity
  8
DV1_Default
  6
Continuous
 62
     7
 48
25.4
100
AcDbCircle
 10
486.6494454008
 20
328.8537754023
 30
0.0
 40
9.000000000000002
100
AcDbArc
 50
161.7108643735
 51
288.4288338532
  0
ARC
  5
CD
330
51
100
AcDbEntity
  8
DV1_Default
  6
Continuous
 62
     7
 48
25.4
100
AcDbCircle
 10
500.2288726368
 20
305.2818713678
 30
0.0
 40
9.000000000000002
100
AcDbArc
 50
131.2122827775
 51
259.246394332
  0
ARC
  5
CE
330
51
100
AcDbEntity
  8
DV1_Default
  6
Continuous
 62
     7
 48
25.4
100
AcDbCircle
 10
449.3049877199
 20
291.418153505
 30
0.0
 40
49.5
100
AcDbArc
 50
24.02955768
 51
36.3258830708
  0
ARC
  5
CF
330
51
100
AcDbEntity
  8
DV1_Default
  6
Continuous
 62
     7
 48
25.4
100
AcDbCircle
 10
435.6916244454
 20
240.6089663199
 30
0.0
 40
9.000000000000002
100
AcDbArc
 50
9.8343061574
 51
140.1676242927
  0
ARC
  5
D0
330
51
100
AcDbEntity
  8
DV1_Default
  6
Continuous
 62
     7
 48
25.4
100
AcDbCircle
 10
449.3049877199
 20
291.418153505
 30
0.0
 40
49.5
100
AcDbArc
 50
228.422377307
 51
246.1151932981
  0
ARC
  5
D1
330
51
100
AcDbEntity
  8
DV1_Default
  6
Continuous
 62
     7
 48
25.4
100
AcDbCircle
 10
449.3049877199
 20
291.418153505
 30
0.0
 40
49.5
100
AcDbArc
 50
263.9055984109
 51
276.0809808116
  0
ARC
  5
D2
330
51
100
AcDbEntity
  8
DV1_Default
  6
Continuous
 62
     7
 48
25.4
100
AcDbCircle
 10
462.9035687005
 20
240.6325485422
 30
0.0
 40
9.000000000000002
100
AcDbArc
 50
39.6503350263
 51
170.3299152015
  0
ARC
  5
D3
330
51
100
AcDbEntity
  8
DV1_Default
  6
Continuous
 62
     7
 48
25.4
100
AcDbCircle
 10
449.3049877199
 20
291.418153505
 30
0.0
 40
49.5
100
AcDbArc
 50
107.8998864572
 51
125.5277557972
  0
ARC
  5
D4
330
51
100
AcDbEntity
  8
DV1_Default
  6
Continuous
 62
     7
 48
25.4
100
AcDbCircle
 10
449.3049877199
 20
291.418153505
 30
0.0
 40
49.5
100
AcDbArc
 50
53.8138151558
 51
71.4031081848
  0
ARC
  5
D5
330
51
100
AcDbEntity
  8
DV1_Default
  6
Continuous
 62
     7
 48
25.4
100
AcDbCircle
 10
449.3049877199
 20
291.418153505
 30
0.0
 40
49.5
100
AcDbArc
 50
173.6879977312
 51
191.9261232347
  0
ARC
  5
D6
330
51
100
AcDbEntity
  8
DV1_Default
  6
Continuous
 62
     7
 48
25.4
100
AcDbCircle
 10
449.3049877199
 20
291.418153505
 30
0.0
 40
49.5
100
AcDbArc
 50
293.8992694162
 51
311.9261232347
  0
CIRCLE
  5
D7
330
51
100
AcDbEntity
  8
DV1_Default
  6
Continuous
 62
     7
 48
25.4
100
AcDbCircle
 10
449.5909284844
 20
247.918153505
 30
0.0
 40
4.75
  0
CIRCLE
  5
D8
330
51
100
AcDbEntity
  8
DV1_Default
  6
Continuous
 62
     7
 48
25.4
100
AcDbCircle
 10
449.5909284844
 20
247.918153505
 30
0.0
 40
4.249999999999999
  0
ARC
  5
D9
330
51
100
AcDbEntity
  8
DV1_Default
  6
CENTER2
 62
     7
 48
25.4
100
AcDbCircle
 10
449.5909284844
 20
291.418153505
 30
0.0
 40
43.50000000000001
100
AcDbArc
 50
263.7404518182
 51
276.2595481818
  0
CIRCLE
  5
DA
330
51
100
AcDbEntity
  8
DV1_Default
  6
Continuous
 62
     7
 48
25.4
100
AcDbCircle
 10
411.9188234198
 20
313.168153505
 30
0.0
 40
4.75
  0
CIRCLE
  5
DB
330
51
100
AcDbEntity
  8
DV1_Default
  6
Continuous
 62
     7
 48
25.4
100
AcDbCircle
 10
411.9188234198
 20
313.168153505
 30
0.0
 40
4.249999999999999
  0
LINE
  5
DC
330
51
100
AcDbEntity
  8
DV1_Default
  6
CENTER2
 62
     7
 48
25.4
100
AcDbLine
 10
416.0324440878
 20
310.793153505
 30
0.0
 11
407.8052027518
 21
315.543153505
 31
0.0
  0
ARC
  5
DD
330
51
100
AcDbEntity
  8
DV1_Default
  6
CENTER2
 62
     7
 48
25.4
100
AcDbCircle
 10
449.5909284844
 20
291.418153505
 30
0.0
 40
43.50000000000001
100
AcDbArc
 50
143.7404518182
 51
156.2595481818
  0
CIRCLE
  5
DE
330
51
100
AcDbEntity
  8
DV1_Default
  6
Continuous
 62
     7
 48
25.4
100
AcDbCircle
 10
487.2630335491
 20
313.168153505
 30
0.0
 40
4.75
  0
CIRCLE
  5
DF
330
51
100
AcDbEntity
  8
DV1_Default
  6
Continuous
 62
     7
 48
25.4
100
AcDbCircle
 10
487.2630335491
 20
313.168153505
 30
0.0
 40
4.249999999999999
  0
LINE
  5
E0
330
51
100
AcDbEntity
  8
DV1_Default
  6
CENTER2
 62
     7
 48
25.4
100
AcDbLine
 10
483.1494128811
 20
310.793153505
 30
0.0
 11
491.376654217
 21
315.543153505
 31
0.0
  0
ARC
  5
E1
330
51
100
AcDbEntity
  8
DV1_Default
  6
CENTER2
 62
     7
 48
25.4
100
AcDbCircle
 10
449.5909284844
 20
291.418153505
 30
0.0
 40
43.50000000000001
100
AcDbArc
 50
23.7404518182
 51
36.2595481818
  0
LINE
  5
E2
330
51
100
AcDbEntity
  8
DV1_Default
  6
Continuous
 62
     7
 48
25.4
100
AcDbLine
 10
449.5909284844
 20
250.418153505
 30
0.0
 11
447.425864975
 21
249.168153505
 31
0.0
  0
LINE
  5
E3
330
51
100
AcDbEntity
  8
DV1_Default
  6
Continuous
 62
     7
 48
25.4
100
AcDbLine
 10
447.425864975
 20
249.168153505
 30
0.0
 11
447.425864975
 21
246.668153505
 31
0.0
  0
LINE
  5
E4
330
51
100
AcDbEntity
  8
DV1_Default
  6
Continuous
 62
     7
 48
25.4
100
AcDbLine
 10
447.425864975
 20
246.668153505
 30
0.0
 11
449.5909284844
 21
245.418153505
 31
0.0
  0
LINE
  5
E5
330
51
100
AcDbEntity
  8
DV1_Default
  6
Continuous
 62
     7
 48
25.4
100
AcDbLine
 10
449.5909284844
 20
245.418153505
 30
0.0
 11
451.7559919939
 21
246.668153505
 31
0.0
  0
LINE
  5
E6
330
51
100
AcDbEntity
  8
DV1_Default
  6
Continuous
 62
     7
 48
25.4
100
AcDbLine
 10
451.7559919939
 20
246.668153505
 30
0.0
 11
451.7559919939
 21
249.168153505
 31
0.0
  0
LINE
  5
E7
330
51
100
AcDbEntity
  8
DV1_Default
  6
Continuous
 62
     7
 48
25.4
100
AcDbLine
 10
451.7559919939
 20
249.168153505
 30
0.0
 11
449.5909284844
 21
250.418153505
 31
0.0
  0
LINE
  5
E8
330
51
100
AcDbEntity
  8
DV1_Default
  6
Continuous
 62
     7
 48
25.4
100
AcDbLine
 10
485.0979700396
 20
311.918153505
 30
0.0
 11
487.2630335491
 21
310.668153505
 31
0.0
  0
LINE
  5
E9
330
51
100
AcDbEntity
  8
DV1_Default
  6
Continuous
 62
     7
 48
25.4
100
AcDbLine
 10
487.2630335491
 20
310.668153505
 30
0.0
 11
489.4280970585
 21
311.918153505
 31
0.0
  0
LINE
  5
EA
330
51
100
AcDbEntity
  8
DV1_Default
  6
Continuous
 62
     7
 48
25.4
100
AcDbLine
 10
489.4280970585
 20
311.918153505
 30
0.0
 11
489.4280970585
 21
314.418153505
 31
0.0
  0
LINE
  5
EB
330
51
100
AcDbEntity
  8
DV1_Default
  6
Continuous
 62
     7
 48
25.4
100
AcDbLine
 10
489.4280970585
 20
314.418153505
 30
0.0
 11
487.2630335491
 21
315.668153505
 31
0.0
  0
LINE
  5
EC
330
51
100
AcDbEntity
  8
DV1_Default
  6
Continuous
 62
     7
 48
25.4
100
AcDbLine
 10
487.2630335491
 20
315.668153505
 30
0.0
 11
485.0979700396
 21
314.418153505
 31
0.0
  0
LINE
  5
ED
330
51
100
AcDbEntity
  8
DV1_Default
  6
Continuous
 62
     7
 48
25.4
100
AcDbLine
 10
485.0979700396
 20
314.418153505
 30
0.0
 11
485.0979700396
 21
311.918153505
 31
0.0
  0
LINE
  5
EE
330
51
100
AcDbEntity
  8
DV1_Default
  6
Continuous
 62
     7
 48
25.4
100
AcDbLine
 10
414.0838869293
 20
311.918153505
 30
0.0
 11
414.0838869293
 21
314.418153505
 31
0.0
  0
LINE
  5
EF
330
51
100
AcDbEntity
  8
DV1_Default
  6
Continuous
 62
     7
 48
25.4
100
AcDbLine
 10
414.0838869293
 20
314.418153505
 30
0.0
 11
411.9188234198
 21
315.668153505
 31
0.0
  0
LINE
  5
F0
330
51
100
AcDbEntity
  8
DV1_Default
  6
Continuous
 62
     7
 48
25.4
100
AcDbLine
 10
411.9188234198
 20
315.668153505
 30
0.0
 11
409.7537599104
 21
314.418153505
 31
0.0
  0
LINE
  5
F1
330
51
100
AcDbEntity
  8
DV1_Default
  6
Continuous
 62
     7
 48
25.4
100
AcDbLine
 10
409.7537599104
 20
314.418153505
 30
0.0
 11
409.7537599104
 21
311.918153505
 31
0.0
  0
LINE
  5
F2
330
51
100
AcDbEntity
  8
DV1_Default
  6
Continuous
 62
     7
 48
25.4
100
AcDbLine
 10
409.7537599104
 20
311.918153505
 30
0.0
 11
411.9188234198
 21
310.668153505
 31
0.0
  0
LINE
  5
F3
330
51
100
AcDbEntity
  8
DV1_Default
  6
Continuous
 62
     7
 48
25.4
100
AcDbLine
 10
411.9188234198
 20
310.668153505
 30
0.0
 11
414.0838869293
 21
311.918153505
 31
0.0
  0
CIRCLE
  5
F5
330
51
100
AcDbEntity
  8
DV1_Default
  6
HIDDEN2
 62
     7
 48
25.4
100
AcDbCircle
 10
408.5787351756
 20
250.4059601962
 30
0.0
 40
3.0
  0
CIRCLE
  5
F6
330
51
100
AcDbEntity
  8
DV1_Default
  6
HIDDEN2
 62
     7
 48
25.4
100
AcDbCircle
 10
408.5787351756
 20
250.4059601962
 30
0.0
 40
2.5
  0
ARC
  5
F7
330
51
100
AcDbEntity
  8
DV1_Default
  6
CENTER2
 62
     7
 48
25.4
100
AcDbCircle
 10
449.5909284844
 20
291.418153505
 30
0.0
 40
58.0
100
AcDbArc
 50
222.0360947353
 51
227.9639052647
  0
LINE
  5
F8
330
51
100
AcDbEntity
  8
DV1_Default
  6
CENTER2
 62
     7
 48
25.4
100
AcDbLine
 10
411.4354685035
 20
253.262693524
 30
0.0
 11
405.778614254
 21
247.6058392746
 31
0.0
  0
CIRCLE
  5
F9
330
51
100
AcDbEntity
  8
DV1_Default
  6
HIDDEN2
 62
     7
 48
25.4
100
AcDbCircle
 10
434.5794238685
 20
347.4418514297
 30
0.0
 40
3.0
  0
CIRCLE
  5
FA
330
51
100
AcDbEntity
  8
DV1_Default
  6
HIDDEN2
 62
     7
 48
25.4
100
AcDbCircle
 10
434.5794238685
 20
347.4418514297
 30
0.0
 40
2.5
  0
ARC
  5
FB
330
51
100
AcDbEntity
  8
DV1_Default
  6
CENTER2
 62
     7
 48
25.4
100
AcDbCircle
 10
449.5909284844
 20
291.418153505
 30
0.0
 40
58.0
100
AcDbArc
 50
102.0360947353
 51
107.9639052647
  0
LINE
  5
FC
330
51
100
AcDbEntity
  8
DV1_Default
  6
CENTER2
 62
     7
 48
25.4
100
AcDbLine
 10
435.6250608383
 20
343.539481132
 30
0.0
 11
433.5545084775
 21
351.2668877423
 31
0.0
  0
CIRCLE
  5
FD
330
51
100
AcDbEntity
  8
DV1_Default
  6
HIDDEN2
 62
     7
 48
25.4
100
AcDbCircle
 10
505.6146264092
 20
276.406648889
 30
0.0
 40
3.0
  0
CIRCLE
  5
FE
330
51
100
AcDbEntity
  8
DV1_Default
  6
HIDDEN2
 62
     7
 48
25.4
100
AcDbCircle
 10
505.6146264092
 20
276.406648889
 30
0.0
 40
2.5
  0
ARC
  5
FF
330
51
100
AcDbEntity
  8
DV1_Default
  6
CENTER2
 62
     7
 48
25.4
100
AcDbCircle
 10
449.5909284844
 20
291.418153505
 30
0.0
 40
58.0
100
AcDbArc
 50
342.0360947353
 51
347.9639052647
  0
LINE
  5
100
330
51
100
AcDbEntity
  8
DV1_Default
  6
CENTER2
 62
     7
 48
25.4
100
AcDbLine
 10
501.7122561115
 20
277.4522858589
 30
0.0
 11
509.4396627218
 21
275.3817334981
 31
0.0
  0
LINE
  5
101
330
51
100
AcDbEntity
  8
DV1_Default
  6
CENTER2
 62
     7
 48
25.4
100
AcDbLine
 10
491.5926113533
 20
302.7490881074
 30
0.0
 11
508.4913820857
 21
307.2771000782
 31
0.0
  0
LINE
  5
102
330
51
100
AcDbEntity
  8
DV1_Default
  6
CENTER2
 62
     7
 48
25.4
100
AcDbLine
 10
449.3049877199
 20
291.418153505
 30
0.0
 11
449.5909284844
 21
291.4947711019
 31
0.0
  0
ENDBLK
  5
104
330
51
100
AcDbEntity
  8
0
100
AcDbBlockEnd
  0
BLOCK
  5
135
330
105
100
AcDbEntity
  8
0
100
AcDbBlockBegin
  2
SE1
 70
     0
 71
     0
 10
0.0
 20
0.0
 30
0.0
  3
SE1
  1

  0
LINE
  5
108
330
105
100
AcDbEntity
  8
DV2_Default
  6
Continuous
 62
     7
 48
25.4
100
AcDbLine
 10
241.3682778558
 20
152.7155591233
 30
0.0
 11
241.3682778558
 21
156.5655591233
 31
0.0
  0
LINE
  5
109
330
105
100
AcDbEntity
  8
DV2_Default
  6
Continuous
 62
     7
 48
25.4
100
AcDbLine
 10
241.3682778558
 20
152.7155591233
 30
0.0
 11
241.3682778558
 21
148.8655591233
 31
0.0
  0
LINE
  5
10A
330
105
100
AcDbEntity
  8
DV2_Default
  6
Continuous
 62
     7
 48
25.4
100
AcDbLine
 10
233.3182778558
 20
146.5905591233
 30
0.0
 11
230.8682778558
 21
146.5905591233
 31
0.0
  0
LINE
  5
10B
330
105
100
AcDbEntity
  8
DV2_Default
  6
Continuous
 62
     7
 48
25.4
100
AcDbLine
 10
228.4182778558
 20
149.0405591233
 30
0.0
 11
228.4182778558
 21
156.3544579904
 31
0.0
  0
LINE
  5
10C
330
105
100
AcDbEntity
  8
DV2_Default
  6
Continuous
 62
     7
 48
25.4
100
AcDbLine
 10
233.6682778558
 20
156.9155591233
 30
0.0
 11
241.0182778558
 21
156.9155591233
 31
0.0
  0
LINE
  5
10D
330
105
100
AcDbEntity
  8
DV2_Default
  6
CENTER2
 62
     7
 48
25.4
100
AcDbLine
 10
243.8182778558
 20
152.7155591233
 30
0.0
 11
218.9617946509
 21
152.7155591233
 31
0.0
  0
LINE
  5
10E
330
105
100
AcDbEntity
  8
DV2_Default
  6
Continuous
 62
     7
 48
25.4
100
AcDbLine
 10
239.2682778558
 20
157.6996777505
 30
0.0
 11
239.2682778558
 21
162.430722124
 31
0.0
  0
LINE
  5
10F
330
105
100
AcDbEntity
  8
DV2_Default
  6
Continuous
 62
     7
 48
25.4
100
AcDbLine
 10
238.1514914229
 20
163.5475085569
 30
0.0
 11
239.2682778558
 21
162.430722124
 31
0.0
  0
LINE
  5
110
330
105
100
AcDbEntity
  8
DV2_Default
  6
Continuous
 62
     7
 48
25.4
100
AcDbLine
 10
238.4872258068
 20
163.211774173
 30
0.0
 11
238.4872258068
 21
156.9155591233
 31
0.0
  0
ARC
  5
111
330
105
100
AcDbEntity
  8
DV2_Default
  6
Continuous
 62
     7
 48
25.4
100
AcDbCircle
 10
233.3182778558
 20
146.9405591233
 30
0.0
 40
0.35
100
AcDbArc
 50
270.0
 51
360.0
  0
LINE
  5
112
330
105
100
AcDbEntity
  8
DV2_Default
  6
Continuous
 62
     7
 48
25.4
100
AcDbLine
 10
228.0682778558
 20
156.7044579904
 30
0.0
 11
228.0682778558
 21
148.6905591233
 31
0.0
  0
LINE
  5
113
330
105
100
AcDbEntity
  8
DV2_Default
  6
Continuous
 62
     7
 48
25.4
100
AcDbLine
 10
230.5182778558
 20
146.2405591233
 30
0.0
 11
233.3182778558
 21
146.2405591233
 31
0.0
  0
ARC
  5
114
330
105
100
AcDbEntity
  8
DV2_Default
  6
Continuous
 62
     7
 48
25.4
100
AcDbCircle
 10
233.3182778558
 20
146.5905591233
 30
0.0
 40
0.35
100
AcDbArc
 50
270.0
 51
360.0
  0
LINE
  5
115
330
105
100
AcDbEntity
  8
DV2_Default
  6
Continuous
 62
     7
 48
25.4
100
AcDbLine
 10
239.2682778558
 20
147.7314404962
 30
0.0
 11
239.2682778558
 21
142.9155591233
 31
0.0
  0
LINE
  5
116
330
105
100
AcDbEntity
  8
DV2_Default
  6
Continuous
 62
     7
 48
25.4
100
AcDbLine
 10
239.2682778558
 20
142.9155591233
 30
0.0
 11
238.2002272894
 21
141.8475085569
 31
0.0
  0
LINE
  5
117
330
105
100
AcDbEntity
  8
DV2_Default
  6
Continuous
 62
     7
 48
25.4
100
AcDbLine
 10
238.4872258068
 20
148.5155591233
 30
0.0
 11
238.4872258068
 21
142.1345070743
 31
0.0
  0
LINE
  5
118
330
105
100
AcDbEntity
  8
DV2_Default
  6
Continuous
 62
     7
 48
25.4
100
AcDbLine
 10
236.4682778558
 20
163.5475100342
 30
0.0
 11
236.4682778558
 21
171.9475100342
 31
0.0
  0
LINE
  5
119
330
105
100
AcDbEntity
  8
DV2_Default
  6
Continuous
 62
     7
 48
25.4
100
AcDbLine
 10
228.4182778558
 20
149.0405591233
 30
0.0
 11
230.8682778558
 21
146.5905591233
 31
0.0
  0
LINE
  5
11A
330
105
100
AcDbEntity
  8
DV2_Default
  6
Continuous
 62
     7
 48
25.4
100
AcDbLine
 10
230.5182778558
 20
146.2405591233
 30
0.0
 11
228.0682778558
 21
148.6905591233
 31
0.0
  0
LINE
  5
11B
330
105
100
AcDbEntity
  8
DV2_Default
  6
Continuous
 62
     7
 48
25.4
100
AcDbLine
 10
233.6682778558
 20
146.9405591233
 30
0.0
 11
233.6682778558
 21
148.5155591233
 31
0.0
  0
LINE
  5
11C
330
105
100
AcDbEntity
  8
DV2_Default
  6
Continuous
 62
     7
 48
25.4
100
AcDbLine
 10
233.6682778558
 20
146.5905591233
 30
0.0
 11
233.6682778558
 21
148.0605591233
 31
0.0
  0
LINE
  5
11D
330
105
100
AcDbEntity
  8
DV2_Default
  6
Continuous
 62
     7
 48
25.4
100
AcDbLine
 10
234.0182778558
 20
148.4105591233
 30
0.0
 11
236.237349961
 21
148.4105591233
 31
0.0
  0
LINE
  5
11E
330
105
100
AcDbEntity
  8
DV2_Default
  6
Continuous
 62
     7
 48
25.4
100
AcDbLine
 10
236.237349961
 20
148.4105591233
 30
0.0
 11
236.237349961
 21
148.5155591233
 31
0.0
  0
ARC
  5
11F
330
105
100
AcDbEntity
  8
DV2_Default
  6
Continuous
 62
     7
 48
25.4
100
AcDbCircle
 10
234.0182778558
 20
148.0605591233
 30
0.0
 40
0.35
100
AcDbArc
 50
90.0
 51
180.0
  0
LINE
  5
120
330
105
100
AcDbEntity
  8
DV2_Default
  6
Continuous
 62
     7
 48
25.4
100
AcDbLine
 10
239.2682778558
 20
147.7314404962
 30
0.0
 11
238.4841592287
 21
148.5155591233
 31
0.0
  0
LINE
  5
121
330
105
100
AcDbEntity
  8
DV2_Default
  6
Continuous
 62
     7
 48
25.4
100
AcDbLine
 10
233.6682778558
 20
148.5155591233
 30
0.0
 11
241.0182778558
 21
148.5155591233
 31
0.0
  0
LINE
  5
122
330
105
100
AcDbEntity
  8
DV2_Default
  6
Continuous
 62
     7
 48
25.4
100
AcDbLine
 10
241.3682778558
 20
148.8655591233
 30
0.0
 11
241.0182778558
 21
148.5155591233
 31
0.0
  0
LINE
  5
123
330
105
100
AcDbEntity
  8
DV2_Default
  6
Continuous
 62
     7
 48
25.4
100
AcDbLine
 10
241.0182778558
 20
156.9155591233
 30
0.0
 11
241.3682778558
 21
156.5655591233
 31
0.0
  0
LINE
  5
124
330
105
100
AcDbEntity
  8
DV2_Default
  6
Continuous
 62
     7
 48
25.4
100
AcDbLine
 10
233.3182778558
 20
158.8405591233
 30
0.0
 11
230.8682778558
 21
158.8405591233
 31
0.0
  0
ARC
  5
125
330
105
100
AcDbEntity
  8
DV2_Default
  6
Continuous
 62
     7
 48
25.4
100
AcDbCircle
 10
233.3182778558
 20
158.4905591233
 30
0.0
 40
0.35
100
AcDbArc
 50
0.0
 51
90.0
  0
LINE
  5
126
330
105
100
AcDbEntity
  8
DV2_Default
  6
Continuous
 62
     7
 48
25.4
100
AcDbLine
 10
230.5182778558
 20
159.1905591233
 30
0.0
 11
233.3182778558
 21
159.1905591233
 31
0.0
  0
ARC
  5
127
330
105
100
AcDbEntity
  8
DV2_Default
  6
Continuous
 62
     7
 48
25.4
100
AcDbCircle
 10
233.3182778558
 20
158.8405591233
 30
0.0
 40
0.35
100
AcDbArc
 50
0.0
 51
90.0
  0
LINE
  5
128
330
105
100
AcDbEntity
  8
DV2_Default
  6
Continuous
 62
     7
 48
25.4
100
AcDbLine
 10
228.4182778558
 20
156.3905591233
 30
0.0
 11
230.8682778558
 21
158.8405591233
 31
0.0
  0
LINE
  5
129
330
105
100
AcDbEntity
  8
DV2_Default
  6
Continuous
 62
     7
 48
25.4
100
AcDbLine
 10
230.5182778558
 20
159.1905591233
 30
0.0
 11
228.0682778558
 21
156.7405591233
 31
0.0
  0
LINE
  5
12A
330
105
100
AcDbEntity
  8
DV2_Default
  6
Continuous
 62
     7
 48
25.4
100
AcDbLine
 10
233.6682778558
 20
158.4905591233
 30
0.0
 11
233.6682778558
 21
156.9155591233
 31
0.0
  0
LINE
  5
12B
330
105
100
AcDbEntity
  8
DV2_Default
  6
Continuous
 62
     7
 48
25.4
100
AcDbLine
 10
233.6682778558
 20
158.8405591233
 30
0.0
 11
233.6682778558
 21
157.3705591233
 31
0.0
  0
LINE
  5
12C
330
105
100
AcDbEntity
  8
DV2_Default
  6
Continuous
 62
     7
 48
25.4
100
AcDbLine
 10
234.0182778558
 20
157.0205591233
 30
0.0
 11
236.237349961
 21
157.0205591233
 31
0.0
  0
LINE
  5
12D
330
105
100
AcDbEntity
  8
DV2_Default
  6
Continuous
 62
     7
 48
25.4
100
AcDbLine
 10
236.237349961
 20
157.0205591233
 30
0.0
 11
236.237349961
 21
156.9155591233
 31
0.0
  0
ARC
  5
12E
330
105
100
AcDbEntity
  8
DV2_Default
  6
Continuous
 62
     7
 48
25.4
100
AcDbCircle
 10
234.0182778558
 20
157.3705591233
 30
0.0
 40
0.35
100
AcDbArc
 50
180.0
 51
270.0
  0
LINE
  5
12F
330
105
100
AcDbEntity
  8
DV2_Default
  6
Continuous
 62
     7
 48
25.4
100
AcDbLine
 10
239.2682778558
 20
157.6996777505
 30
0.0
 11
238.4841592287
 21
156.9155591233
 31
0.0
  0
LINE
  5
130
330
105
100
AcDbEntity
  8
DV2_Default
  6
Continuous
 62
     7
 48
25.4
100
AcDbLine
 10
228.0682778558
 20
152.6975085569
 30
0.0
 11
228.0682778558
 21
156.7405591233
 31
0.0
  0
LINE
  5
131
330
105
100
AcDbEntity
  8
DV2_Default
  6
Continuous
 62
     7
 48
25.4
100
AcDbLine
 10
228.0682778558
 20
163.5475085569
 30
0.0
 11
238.1514914229
 21
163.5475085569
 31
0.0
  0
LINE
  5
132
330
105
100
AcDbEntity
  8
DV2_Default
  6
Continuous
 62
     7
 48
25.4
100
AcDbLine
 10
228.0682778558
 20
152.6975085569
 30
0.0
 11
228.0682778558
 21
148.6905591233
 31
0.0
  0
LINE
  5
133
330
105
100
AcDbEntity
  8
DV2_Default
  6
Continuous
 62
     7
 48
25.4
100
AcDbLine
 10
228.0682778558
 20
141.8475085569
 30
0.0
 11
238.2002272894
 21
141.8475085569
 31
0.0
  0
LINE
  5
134
330
105
100
AcDbEntity
  8
DV2_Default
  6
Continuous
 62
     7
 48
25.4
100
AcDbLine
 10
236.4682778558
 20
141.8475070795
 30
0.0
 11
236.4682778558
 21
133.4475070795
 31
0.0
  0
ENDBLK
  5
136
330
105
100
AcDbEntity
  8
0
100
AcDbBlockEnd
  0
BLOCK
  5
141
330
137
100
AcDbEntity
  8
0
100
AcDbBlockBegin
  2
GDimGGroup
 70
     0
 71
     0
 10
0.0
 20
0.0
 30
0.0
  3
GDimGGroup
  1

  0
HATCH
  5
139
330
137
100
AcDbEntity
  8
Default
  6
Continuous
 62
     7
 48
25.4
100
AcDbHatch
 10
0.0
 20
0.0
 30
0.0
210
0.0
220
0.0
230
1.0
  2
SOLID
 70
     1
 71
     0
 91
        1
 92
        1
 93
        3
 72
     1
 10
245.3682780458267
 20
174.3267392021798
 11
241.3682778558369
 21
173.6600725038481
 72
     1
 10
241.3682778558369
 20
173.6600725038481
 11
245.3682780458267
 21
172.9934058055165
 72
     1
 10
245.3682780458267
 20
172.9934058055165
 11
245.3682780458267
 21
174.3267392021798
 97
        0
 75
     0
 76
     1
 98
        0
  0
LWPOLYLINE
  5
13A
330
137
100
AcDbEntity
  8
Default
  6
Continuous
 62
     7
 48
25.4
370
    30
100
AcDbPolyline
 90
        4
 70
     1
 43
0.00035
 10
245.3682780458
 20
174.3267392022
 10
241.3682778558
 20
173.6600725038
 10
245.3682780458
 20
172.9934058055
 10
245.3682780458
 20
174.3267392022
  0
HATCH
  5
13B
330
137
100
AcDbEntity
  8
Default
  6
Continuous
 62
     7
 48
25.4
100
AcDbHatch
 10
0.0
 20
0.0
 30
0.0
210
0.0
220
0.0
230
1.0
  2
SOLID
 70
     1
 71
     0
 91
        1
 92
        1
 93
        3
 72
     1
 10
235.2682776658471
 20
174.3267392021798
 11
235.2682776658471
 21
172.9934058055165
 72
     1
 10
235.2682776658471
 20
172.9934058055165
 11
239.2682778558369
 21
173.6600725038481
 72
     1
 10
239.2682778558369
 20
173.6600725038481
 11
235.2682776658471
 21
174.3267392021798
 97
        0
 75
     0
 76
     1
 98
        0
  0
LWPOLYLINE
  5
13C
330
137
100
AcDbEntity
  8
Default
  6
Continuous
 62
     7
 48
25.4
370
    30
100
AcDbPolyline
 90
        4
 70
     1
 43
0.00035
 10
235.2682776658
 20
174.3267392022
 10
239.2682778558
 20
173.6600725038
 10
235.2682776658
 20
172.9934058055
 10
235.2682776658
 20
174.3267392022
  0
LINE
  5
13D
330
137
100
AcDbEntity
  8
Default
  6
Continuous
 62
     7
 48
25.4
100
AcDbLine
 10
241.3682778558
 20
152.7155591233
 30
0.0
 11
241.3682778558
 21
175.6600725988
 31
0.0
  0
LINE
  5
13E
330
137
100
AcDbEntity
  8
Default
  6
Continuous
 62
     7
 48
25.4
100
AcDbLine
 10
239.2682778558
 20
162.430722124
 30
0.0
 11
239.2682778558
 21
175.6600725988
 31
0.0
  0
LINE
  5
13F
330
137
100
AcDbEntity
  8
Default
  6
Continuous
 62
     7
 48
25.4
100
AcDbLine
 10
252.9255877441
 20
173.6600725038
 30
0.0
 11
231.2682782492
 21
173.6600725038
 31
0.0
  0
TEXT
  5
140
330
137
100
AcDbEntity
  8
Default
  6
Continuous
 62
     7
 48
25.4
100
AcDbText
 10
248.3951532974
 20
174.6600725038
 30
0.0
 40
4.0
  1
3
  7
SEACAD_arial_ttf
 11
248.3951532974
 21
178.6600725038
 31
0.0
100
AcDbText
 73
     3
  0
ENDBLK
  5
142
330
137
100
AcDbEntity
  8
0
100
AcDbBlockEnd
  0
BLOCK
  5
14D
330
143
100
AcDbEntity
  8
0
100
AcDbBlockBegin
  2
GDimGGroup1
 70
     0
 71
     0
 10
0.0
 20
0.0
 30
0.0
  3
GDimGGroup1
  1

  0
HATCH
  5
145
330
143
100
AcDbEntity
  8
Default
  6
Continuous
 62
     7
 48
25.4
100
AcDbHatch
 10
0.0
 20
0.0
 30
0.0
210
0.0
220
0.0
230
1.0
  2
SOLID
 70
     1
 71
     0
 91
        1
 92
        1
 93
        3
 72
     1
 10
243.2682780458267
 20
174.3267390538875
 11
239.2682778558369
 21
173.6600723555559
 72
     1
 10
239.2682778558369
 20
173.6600723555559
 11
243.2682780458267
 21
172.9934056572242
 72
     1
 10
243.2682780458267
 20
172.9934056572242
 11
243.2682780458267
 21
174.3267390538875
 97
        0
 75
     0
 76
     1
 98
        0
  0
LWPOLYLINE
  5
146
330
143
100
AcDbEntity
  8
Default
  6
Continuous
 62
     7
 48
25.4
370
    30
100
AcDbPolyline
 90
        4
 70
     1
 43
0.00035
 10
243.2682780458
 20
174.3267390539
 10
239.2682778558
 20
173.6600723556
 10
243.2682780458
 20
172.9934056572
 10
243.2682780458
 20
174.3267390539
  0
HATCH
  5
147
330
143
100
AcDbEntity
  8
Default
  6
Continuous
 62
     7
 48
25.4
100
AcDbHatch
 10
0.0
 20
0.0
 30
0.0
210
0.0
220
0.0
230
1.0
  2
SOLID
 70
     1
 71
     0
 91
        1
 92
        1
 93
        3
 72
     1
 10
232.468277665847
 20
174.3267390538875
 11
232.468277665847
 21
172.9934056572242
 72
     1
 10
232.468277665847
 20
172.9934056572242
 11
236.4682778558369
 21
173.6600723555559
 72
     1
 10
236.4682778558369
 20
173.6600723555559
 11
232.468277665847
 21
174.3267390538875
 97
        0
 75
     0
 76
     1
 98
        0
  0
LWPOLYLINE
  5
148
330
143
100
AcDbEntity
  8
Default
  6
Continuous
 62
     7
 48
25.4
370
    30
100
AcDbPolyline
 90
        4
 70
     1
 43
0.00035
 10
232.4682776658
 20
174.3267390539
 10
236.4682778558
 20
173.6600723556
 10
232.4682776658
 20
172.9934056572
 10
232.4682776658
 20
174.3267390539
  0
LINE
  5
149
330
143
100
AcDbEntity
  8
Default
  6
Continuous
 62
     7
 48
25.4
100
AcDbLine
 10
239.2682778558
 20
162.430722124
 30
0.0
 11
239.2682778558
 21
175.6600724506
 31
0.0
  0
LINE
  5
14A
330
143
100
AcDbEntity
  8
Default
  6
Continuous
 62
     7
 48
25.4
100
AcDbLine
 10
236.4682778558
 20
171.9475100342
 30
0.0
 11
236.4682778558
 21
175.6600724506
 31
0.0
  0
LINE
  5
14B
330
143
100
AcDbEntity
  8
Default
  6
Continuous
 62
     7
 48
25.4
100
AcDbLine
 10
247.2682782358
 20
173.6600723556
 30
0.0
 11
225.7490596643
 21
173.6600723556
 31
0.0
  0
TEXT
  5
14C
330
143
100
AcDbEntity
  8
Default
  6
Continuous
 62
     7
 48
25.4
100
AcDbText
 10
227.1490597942
 20
174.6600723556
 30
0.0
 40
4.0
  1
4
  7
SEACAD_arial_ttf
 11
227.1490597942
 21
178.6600723556
 31
0.0
100
AcDbText
 73
     3
  0
ENDBLK
  5
14E
330
143
100
AcDbEntity
  8
0
100
AcDbBlockEnd
  0
BLOCK
  5
15A
330
14F
100
AcDbEntity
  8
0
100
AcDbBlockBegin
  2
GDimGGroup2
 70
     0
 71
     0
 10
0.0
 20
0.0
 30
0.0
  3
GDimGGroup2
  1

  0
HATCH
  5
151
330
14F
100
AcDbEntity
  8
Default
  6
Continuous
 62
     7
 48
25.4
100
AcDbHatch
 10
0.0
 20
0.0
 30
0.0
210
0.0
220
0.0
230
1.0
  2
SOLID
 70
     1
 71
     0
 91
        1
 92
        1
 93
        3
 72
     1
 10
251.687744817633
 20
144.5155589333308
 11
251.0210781193013
 21
148.5155591233206
 72
     1
 10
251.0210781193013
 20
148.5155591233206
 11
250.3544114209697
 21
144.5155589333308
 72
     1
 10
250.3544114209697
 20
144.5155589333308
 11
251.687744817633
 21
144.5155589333308
 97
        0
 75
     0
 76
     1
 98
        0
  0
LWPOLYLINE
  5
152
330
14F
100
AcDbEntity
  8
Default
  6
Continuous
 62
     7
 48
25.4
370
    30
100
AcDbPolyline
 90
        4
 70
     1
 43
0.00035
 10
251.6877448176
 20
144.5155589333
 10
251.0210781193
 20
148.5155591233
 10
250.354411421
 20
144.5155589333
 10
251.6877448176
 20
144.5155589333
  0
HATCH
  5
153
330
14F
100
AcDbEntity
  8
Default
  6
Continuous
 62
     7
 48
25.4
100
AcDbHatch
 10
0.0
 20
0.0
 30
0.0
210
0.0
220
0.0
230
1.0
  2
SOLID
 70
     1
 71
     0
 91
        1
 92
        1
 93
        3
 72
     1
 10
251.687744817633
 20
160.9155593133104
 11
250.3544114209697
 21
160.9155593133104
 72
     1
 10
250.3544114209697
 20
160.9155593133104
 11
251.0210781193013
 21
156.9155591233206
 72
     1
 10
251.0210781193013
 20
156.9155591233206
 11
251.687744817633
 21
160.9155593133104
 97
        0
 75
     0
 76
     1
 98
        0
  0
LWPOLYLINE
  5
154
330
14F
100
AcDbEntity
  8
Default
  6
Continuous
 62
     7
 48
25.4
370
    30
100
AcDbPolyline
 90
        4
 70
     1
 43
0.00035
 10
251.6877448176
 20
160.9155593133
 10
251.0210781193
 20
156.9155591233
 10
250.354411421
 20
160.9155593133
 10
251.6877448176
 20
160.9155593133
  0
LINE
  5
155
330
14F
100
AcDbEntity
  8
Default
  6
Continuous
 62
     7
 48
25.4
100
AcDbLine
 10
241.0182778558
 20
148.5155591233
 30
0.0
 11
253.0210782143
 21
148.5155591233
 31
0.0
  0
LINE
  5
156
330
14F
100
AcDbEntity
  8
Default
  6
Continuous
 62
     7
 48
25.4
100
AcDbLine
 10
241.0182778558
 20
156.9155591233
 30
0.0
 11
253.0210782143
 21
156.9155591233
 31
0.0
  0
LINE
  5
157
330
14F
100
AcDbEntity
  8
Default
  6
Continuous
 62
     7
 48
25.4
100
AcDbLine
 10
251.0210781193
 20
111.4197665317
 30
0.0
 11
251.0210781193
 21
164.9155592038
 31
0.0
  0
TEXT
  5
158
330
14F
100
AcDbEntity
  8
Default
  6
Continuous
 62
     7
 48
25.4
100
AcDbText
 10
250.0210781193
 20
112.8197647395
 30
0.0
 40
4.0
  1
12
 50
90.0
  7
SEACAD_arial_ttf
 11
246.0210781193
 21
112.8197647395
 31
0.0
100
AcDbText
 73
     3
  0
TEXT
  5
159
330
14F
100
AcDbEntity
  8
Default
  6
Continuous
 62
     7
 48
25.4
100
AcDbText
 10
250.0210781193
 20
121.4806343047
 30
0.0
 40
4.0
  1
H8/h8
 50
90.0
  7
SEACAD_arial_ttf
 11
246.0210781193
 21
121.4806343047
 31
0.0
100
AcDbText
 73
     3
  0
ENDBLK
  5
15B
330
14F
100
AcDbEntity
  8
0
100
AcDbBlockEnd
  0
BLOCK
  5
166
330
15C
100
AcDbEntity
  8
0
100
AcDbBlockBegin
  2
GDimGGroup3
 70
     0
 71
     0
 10
0.0
 20
0.0
 30
0.0
  3
GDimGGroup3
  1

  0
HATCH
  5
15E
330
15C
100
AcDbEntity
  8
Default
  6
Continuous
 62
     7
 48
25.4
100
AcDbHatch
 10
0.0
 20
0.0
 30
0.0
210
0.0
220
0.0
230
1.0
  2
SOLID
 70
     1
 71
     0
 91
        1
 92
        1
 93
        3
 72
     1
 10
264.1330822472092
 20
145.8475087468619
 11
262.7997488505459
 21
145.8475087468619
 72
     1
 10
262.7997488505459
 20
145.8475087468619
 11
263.4664155488775
 21
141.847508556872
 72
     1
 10
263.4664155488775
 20
141.847508556872
 11
264.1330822472092
 21
145.8475087468619
 97
        0
 75
     0
 76
     1
 98
        0
  0
LWPOLYLINE
  5
15F
330
15C
100
AcDbEntity
  8
Default
  6
Continuous
 62
     7
 48
25.4
370
    30
100
AcDbPolyline
 90
        4
 70
     1
 43
0.00035
 10
264.1330822472
 20
145.8475087469
 10
263.4664155489
 20
141.8475085569
 10
262.7997488505
 20
145.8475087469
 10
264.1330822472
 20
145.8475087469
  0
HATCH
  5
160
330
15C
100
AcDbEntity
  8
Default
  6
Continuous
 62
     7
 48
25.4
100
AcDbHatch
 10
0.0
 20
0.0
 30
0.0
210
0.0
220
0.0
230
1.0
  2
SOLID
 70
     1
 71
     0
 91
        1
 92
        1
 93
        3
 72
     1
 10
264.1330822472092
 20
159.5475087572927
 11
263.4664155488775
 21
163.5475089472825
 72
     1
 10
263.4664155488775
 20
163.5475089472825
 11
262.7997488505459
 21
159.5475087572927
 72
     1
 10
262.7997488505459
 20
159.5475087572927
 11
264.1330822472092
 21
159.5475087572927
 97
        0
 75
     0
 76
     1
 98
        0
  0
LWPOLYLINE
  5
161
330
15C
100
AcDbEntity
  8
Default
  6
Continuous
 62
     7
 48
25.4
370
    30
100
AcDbPolyline
 90
        4
 70
     1
 43
0.00035
 10
264.1330822472
 20
159.5475087573
 10
263.4664155489
 20
163.5475089473
 10
262.7997488505
 20
159.5475087573
 10
264.1330822472
 20
159.5475087573
  0
LINE
  5
162
330
15C
100
AcDbEntity
  8
Default
  6
Continuous
 62
     7
 48
25.4
100
AcDbLine
 10
233.1342525726
 20
141.8475085569
 30
0.0
 11
265.4664156439
 21
141.8475085569
 31
0.0
  0
LINE
  5
163
330
15C
100
AcDbEntity
  8
Default
  6
Continuous
 62
     7
 48
25.4
100
AcDbLine
 10
233.1098846394
 20
163.5475085569
 30
0.0
 11
265.4664156439
 21
163.5475085569
 31
0.0
  0
LINE
  5
164
330
15C
100
AcDbEntity
  8
Default
  6
Continuous
 62
     7
 48
25.4
100
AcDbLine
 10
263.4664155489
 20
141.8475085569
 30
0.0
 11
263.4664155489
 21
163.5475089473
 31
0.0
  0
TEXT
  5
165
330
15C
100
AcDbEntity
  8
Default
  6
Continuous
 62
     7
 48
25.4
100
AcDbText
 10
262.4664155489
 20
149.5670739695
 30
0.0
 40
4.0
  1
31
 50
90.0
  7
SEACAD_arial_ttf
 11
258.4664155489
 21
149.5670739695
 31
0.0
100
AcDbText
 73
     3
  0
ENDBLK
  5
167
330
15C
100
AcDbEntity
  8
0
100
AcDbBlockEnd
  0
BLOCK
  5
172
330
168
100
AcDbEntity
  8
0
100
AcDbBlockBegin
  2
GDimGGroup4
 70
     0
 71
     0
 10
0.0
 20
0.0
 30
0.0
  3
GDimGGroup4
  1

  0
HATCH
  5
16A
330
168
100
AcDbEntity
  8
Default
  6
Continuous
 62
     7
 48
25.4
100
AcDbHatch
 10
0.0
 20
0.0
 30
0.0
210
0.0
220
0.0
230
1.0
  2
SOLID
 70
     1
 71
     0
 91
        1
 92
        1
 93
        3
 72
     1
 10
438.0909286744338
 20
396.6030156746537
 11
434.090928484444
 21
395.9363489763221
 72
     1
 10
434.090928484444
 20
395.9363489763221
 11
438.0909286744338
 21
395.2696822779904
 72
     1
 10
438.0909286744338
 20
395.2696822779904
 11
438.0909286744338
 21
396.6030156746537
 97
        0
 75
     0
 76
     1
 98
        0
  0
LWPOLYLINE
  5
16B
330
168
100
AcDbEntity
  8
Default
  6
Continuous
 62
     7
 48
25.4
370
    30
100
AcDbPolyline
 90
        4
 70
     1
 43
0.00035
 10
438.0909286744
 20
396.6030156747
 10
434.0909284844
 20
395.9363489763
 10
438.0909286744
 20
395.269682278
 10
438.0909286744
 20
396.6030156747
  0
HATCH
  5
16C
330
168
100
AcDbEntity
  8
Default
  6
Continuous
 62
     7
 48
25.4
100
AcDbHatch
 10
0.0
 20
0.0
 30
0.0
210
0.0
220
0.0
230
1.0
  2
SOLID
 70
     1
 71
     0
 91
        1
 92
        1
 93
        3
 72
     1
 10
461.0909277878147
 20
396.6030156746537
 11
461.0909277878147
 21
395.2696822779904
 72
     1
 10
461.0909277878147
 20
395.2696822779904
 11
465.0909279778045
 21
395.9363489763221
 72
     1
 10
465.0909279778045
 20
395.9363489763221
 11
461.0909277878147
 21
396.6030156746537
 97
        0
 75
     0
 76
     1
 98
        0
  0
LWPOLYLINE
  5
16D
330
168
100
AcDbEntity
  8
Default
  6
Continuous
 62
     7
 48
25.4
370
    30
100
AcDbPolyline
 90
        4
 70
     1
 43
0.00035
 10
461.0909277878
 20
396.6030156747
 10
465.0909279778
 20
395.9363489763
 10
461.0909277878
 20
395.269682278
 10
461.0909277878
 20
396.6030156747
  0
LINE
  5
16E
330
168
100
AcDbEntity
  8
Default
  6
Continuous
 62
     7
 48
25.4
100
AcDbLine
 10
434.0909284844
 20
375.7350086586
 30
0.0
 11
434.0909284844
 21
397.9363490713
 31
0.0
  0
LINE
  5
16F
330
168
100
AcDbEntity
  8
Default
  6
Continuous
 62
     7
 48
25.4
100
AcDbLine
 10
465.0909284844
 20
375.7350906109
 30
0.0
 11
465.0909284844
 21
397.9363490713
 31
0.0
  0
LINE
  5
170
330
168
100
AcDbEntity
  8
Default
  6
Continuous
 62
     7
 48
25.4
100
AcDbLine
 10
434.0909284844
 20
395.9363489763
 30
0.0
 11
465.0909279778
 21
395.9363489763
 31
0.0
  0
TEXT
  5
171
330
168
100
AcDbEntity
  8
Default
  6
Continuous
 62
     7
 48
25.4
100
AcDbText
 10
446.4604934485
 20
396.9363489763
 30
0.0
 40
4.0
  1
31
  7
SEACAD_arial_ttf
 11
446.4604934485
 21
400.9363489763
 31
0.0
100
AcDbText
 73
     3
  0
ENDBLK
  5
173
330
168
100
AcDbEntity
  8
0
100
AcDbBlockEnd
  0
BLOCK
  5
17E
330
174
100
AcDbEntity
  8
0
100
AcDbBlockBegin
  2
GDimGGroup5
 70
     0
 71
     0
 10
0.0
 20
0.0
 30
0.0
  3
GDimGGroup5
  1

  0
HATCH
  5
176
330
174
100
AcDbEntity
  8
Default
  6
Continuous
 62
     7
 48
25.4
100
AcDbHatch
 10
0.0
 20
0.0
 30
0.0
210
0.0
220
0.0
230
1.0
  2
SOLID
 70
     1
 71
     0
 91
        1
 92
        1
 93
        3
 72
     1
 10
542.7254279702552
 20
270.5886851955062
 11
542.418180418877
 21
266.5451663135477
 72
     1
 10
542.418180418877
 20
266.5451663135476
 11
544.0202315237888
 21
270.2704687527912
 72
     1
 10
544.0202315237888
 20
270.2704687527912
 11
542.7254279702552
 21
270.5886851955062
 97
        0
 75
     0
 76
     1
 98
        0
  0
LWPOLYLINE
  5
177
330
174
100
AcDbEntity
  8
Default
  6
Continuous
 62
     7
 48
25.4
370
    30
100
AcDbPolyline
 90
        4
 70
     1
 43
0.00035
 10
542.7254279703
 20
270.5886851955
 10
542.4181804189
 20
266.5451663135
 10
544.0202315238
 20
270.2704687528
 10
542.7254279703
 20
270.5886851955
  0
HATCH
  5
178
330
174
100
AcDbEntity
  8
Default
  6
Continuous
 62
     7
 48
25.4
100
AcDbHatch
 10
0.0
 20
0.0
 30
0.0
210
0.0
220
0.0
230
1.0
  2
SOLID
 70
     1
 71
     0
 91
        1
 92
        1
 93
        3
 72
     1
 10
546.2760546475834
 20
287.4051470347947
 11
545.6927713050883
 21
291.4181542051036
 72
     1
 10
545.6927713050883
 20
291.4181542051036
 11
544.9430099792403
 21
287.4328933653535
 72
     1
 10
544.9430099792403
 20
287.4328933653535
 11
546.2760546475834
 21
287.4051470347947
 97
        0
 75
     0
 76
     1
 98
        0
  0
LWPOLYLINE
  5
179
330
174
100
AcDbEntity
  8
Default
  6
Continuous
 62
     7
 48
25.4
370
    30
100
AcDbPolyline
 90
        4
 70
     1
 43
0.00035
 10
546.2760546476
 20
287.4051470348
 10
545.6927713051
 20
291.4181542051
 10
544.9430099792
 20
287.4328933654
 10
546.2760546476
 20
287.4051470348
  0
LINE
  5
17A
330
174
100
AcDbEntity
  8
Default
  6
Continuous
 62
     7
 48
25.4
100
AcDbLine
 10
505.6146247971
 20
276.406649321
 30
0.0
 11
544.3500287898
 21
266.0275291027
 31
0.0
  0
LINE
  5
17B
330
174
100
AcDbEntity
  8
Default
  6
Continuous
 62
     7
 48
25.4
100
AcDbLine
 10
541.8049912944
 20
291.418153505
 30
0.0
 11
547.6927679076
 21
291.418153505
 31
0.0
  0
ARC
  5
17C
330
174
100
AcDbEntity
  8
Default
  6
Continuous
 62
     7
 48
25.4
100
AcDbCircle
 10
449.5909284845
 20
291.418153505
 30
0.0
 40
96.1018428206375
100
AcDbArc
 50
345.0
 51
0.0000004174
  0
TEXT
  5
17D
330
174
100
AcDbEntity
  8
Default
  6
Continuous
 62
     7
 48
25.4
100
AcDbText
 10
543.3230067763
 20
274.7804548531
 30
0.0
 40
4.0
  1
15°
 50
82.5
  7
SEACAD_arial_ttf
 11
539.3572273308
 21
275.302559622
 31
0.0
100
AcDbText
 73
     3
  0
ENDBLK
  5
17F
330
174
100
AcDbEntity
  8
0
100
AcDbBlockEnd
  0
BLOCK
  5
18A
330
180
100
AcDbEntity
  8
0
100
AcDbBlockBegin
  2
GDimGGroup6
 70
     0
 71
     0
 10
0.0
 20
0.0
 30
0.0
  3
GDimGGroup6
  1

  0
HATCH
  5
182
330
180
100
AcDbEntity
  8
Default
  6
Continuous
 62
     7
 48
25.4
100
AcDbHatch
 10
0.0
 20
0.0
 30
0.0
210
0.0
220
0.0
230
1.0
  2
SOLID
 70
     1
 71
     0
 91
        1
 92
        1
 93
        3
 72
     1
 10
534.1608837584438
 20
247.1934498939706
 11
532.8175657176212
 21
243.3672320946571
 72
     1
 10
532.8175657176212
 20
243.3672320946571
 11
535.3292074749335
 21
246.5509565942814
 72
     1
 10
535.3292074749335
 20
246.5509565942814
 11
534.1608837584438
 21
247.1934498939706
 97
        0
 75
     0
 76
     1
 98
        0
  0
LWPOLYLINE
  5
183
330
180
100
AcDbEntity
  8
Default
  6
Continuous
 62
     7
 48
25.4
370
    30
100
AcDbPolyline
 90
        4
 70
     1
 43
0.00035
 10
534.1608837584
 20
247.193449894
 10
532.8175657176
 20
243.3672320947
 10
535.3292074749
 20
246.5509565943
 10
534.1608837584
 20
247.193449894
  0
HATCH
  5
184
330
180
100
AcDbEntity
  8
Default
  6
Continuous
 62
     7
 48
25.4
100
AcDbHatch
 10
0.0
 20
0.0
 30
0.0
210
0.0
220
0.0
230
1.0
  2
SOLID
 70
     1
 71
     0
 91
        1
 92
        1
 93
        3
 72
     1
 10
541.9429463608336
 20
262.5179348852022
 11
542.4181806000825
 21
266.5451669898155
 72
     1
 10
542.4181806000826
 20
266.5451669898156
 11
540.6625053668644
 21
262.8897531306134
 72
     1
 10
540.6625053668644
 20
262.8897531306134
 11
541.9429463608336
 21
262.5179348852022
 97
        0
 75
     0
 76
     1
 98
        0
  0
LWPOLYLINE
  5
185
330
180
100
AcDbEntity
  8
Default
  6
Continuous
 62
     7
 48
25.4
370
    30
100
AcDbPolyline
 90
        4
 70
     1
 43
0.00035
 10
541.9429463608
 20
262.5179348852
 10
542.4181806001
 20
266.5451669898
 10
540.6625053669
 20
262.8897531306
 10
541.9429463608
 20
262.5179348852
  0
LINE
  5
186
330
180
100
AcDbEntity
  8
Default
  6
Continuous
 62
     7
 48
25.4
100
AcDbLine
 10
507.7285941321
 20
257.8523565933
 30
0.0
 11
534.5496135829
 21
242.3672337934
 31
0.0
  0
LINE
  5
187
330
180
100
AcDbEntity
  8
Default
  6
Continuous
 62
     7
 48
25.4
100
AcDbLine
 10
505.6146247971
 20
276.406649321
 30
0.0
 11
544.3500287898
 21
266.0275291027
 31
0.0
  0
ARC
  5
188
330
180
100
AcDbEntity
  8
Default
  6
Continuous
 62
     7
 48
25.4
100
AcDbCircle
 10
449.5909284844
 20
291.418153505
 30
0.0
 40
96.10184282064739
100
AcDbArc
 50
330.0
 51
345.0000004174
  0
TEXT
  5
189
330
180
100
AcDbEntity
  8
Default
  6
Continuous
 62
     7
 48
25.4
100
AcDbText
 10
535.8230103805
 20
251.0877236881
 30
0.0
 40
4.0
  1
15°
 50
67.5
  7
SEACAD_arial_ttf
 11
532.1274922504
 21
252.6184574176
 31
0.0
100
AcDbText
 73
     3
  0
ENDBLK
  5
18B
330
180
100
AcDbEntity
  8
0
100
AcDbBlockEnd
  0
BLOCK
  5
196
330
18C
100
AcDbEntity
  8
0
100
AcDbBlockBegin
  2
GDimGGroup7
 70
     0
 71
     0
 10
0.0
 20
0.0
 30
0.0
  3
GDimGGroup7
  1

  0
HATCH
  5
18E
330
18C
100
AcDbEntity
  8
Default
  6
Continuous
 62
     7
 48
25.4
100
AcDbHatch
 10
0.0
 20
0.0
 30
0.0
210
0.0
220
0.0
230
1.0
  2
SOLID
 70
     1
 71
     0
 91
        1
 92
        1
 93
        3
 72
     1
 10
513.8842483980444
 20
362.0304905512338
 11
517.2439227386844
 21
359.7595800881314
 72
     1
 10
517.2439227386843
 20
359.7595800881314
 11
514.8023639180041
 21
362.9973627447872
 72
     1
 10
514.8023639180042
 20
362.9973627447872
 11
513.8842483980444
 21
362.0304905512338
 97
        0
 75
     0
 76
     1
 98
        0
  0
LWPOLYLINE
  5
18F
330
18C
100
AcDbEntity
  8
Default
  6
Continuous
 62
     7
 48
25.4
370
    30
100
AcDbPolyline
 90
        4
 70
     1
 43
0.00035
 10
513.884248398
 20
362.0304905512
 10
517.2439227387
 20
359.7595800881
 10
514.802363918
 20
362.9973627448
 10
513.884248398
 20
362.0304905512
  0
HATCH
  5
190
330
18C
100
AcDbEntity
  8
Default
  6
Continuous
 62
     7
 48
25.4
100
AcDbHatch
 10
0.0
 20
0.0
 30
0.0
210
0.0
220
0.0
230
1.0
  2
SOLID
 70
     1
 71
     0
 91
        1
 92
        1
 93
        3
 72
     1
 10
453.6039253379867
 20
388.1653000375391
 11
449.590926000948
 21
387.5819628044483
 72
     1
 10
449.590926000948
 20
387.5819628044483
 11
453.5761969088789
 21
386.8322549967109
 72
     1
 10
453.5761969088789
 20
386.8322549967109
 11
453.6039253379867
 21
388.1653000375391
 97
        0
 75
     0
 76
     1
 98
        0
  0
LWPOLYLINE
  5
191
330
18C
100
AcDbEntity
  8
Default
  6
Continuous
 62
     7
 48
25.4
370
    30
100
AcDbPolyline
 90
        4
 70
     1
 43
0.00035
 10
453.603925338
 20
388.1653000375
 10
449.5909260009
 20
387.5819628044
 10
453.5761969089
 20
386.8322549967
 10
453.603925338
 20
388.1653000375
  0
LINE
  5
192
330
18C
100
AcDbEntity
  8
Default
  6
Continuous
 62
     7
 48
25.4
100
AcDbLine
 10
486.6494448116
 20
328.853774807
 30
0.0
 11
518.6509568365
 21
361.1809320705
 31
0.0
  0
LINE
  5
193
330
18C
100
AcDbEntity
  8
Default
  6
Continuous
 62
     7
 48
25.4
100
AcDbLine
 10
449.5909284844
 20
291.418153505
 30
0.0
 11
449.5909284844
 21
389.581959407
 31
0.0
  0
ARC
  5
194
330
18C
100
AcDbEntity
  8
Default
  6
Continuous
 62
     7
 48
25.4
100
AcDbCircle
 10
449.5909284844
 20
291.418153505
 30
0.0
 40
96.16380929946958
100
AcDbArc
 50
45.2900407955
 51
90.0000014797
  0
TEXT
  5
195
330
18C
100
AcDbEntity
  8
Default
  6
Continuous
 62
     7
 48
25.4
100
AcDbText
 10
482.6059355824
 20
382.9002290901
 30
0.0
 40
4.0
  1
45°
 50
337.6450203977
  7
SEACAD_arial_ttf
 11
484.1273107539
 21
386.5996097933
 31
0.0
100
AcDbText
 73
     3
  0
ENDBLK
  5
197
330
18C
100
AcDbEntity
  8
0
100
AcDbBlockEnd
  0
BLOCK
  5
1A2
330
198
100
AcDbEntity
  8
0
100
AcDbBlockBegin
  2
GDimGGroup8
 70
     0
 71
     0
 10
0.0
 20
0.0
 30
0.0
  3
GDimGGroup8
  1

  0
HATCH
  5
19A
330
198
100
AcDbEntity
  8
Default
  6
Continuous
 62
     7
 48
25.4
100
AcDbHatch
 10
0.0
 20
0.0
 30
0.0
210
0.0
220
0.0
230
1.0
  2
SOLID
 70
     1
 71
     0
 91
        1
 92
        1
 93
        3
 72
     1
 10
540.6737180143509
 20
320.1176061146906
 11
542.435560273184
 21
316.4651606515012
 72
     1
 10
542.435560273184
 20
316.4651606515012
 11
541.953529638025
 21
320.4915849303559
 72
     1
 10
541.953529638025
 20
320.4915849303559
 11
540.6737180143509
 21
320.1176061146906
 97
        0
 75
     0
 76
     1
 98
        0
  0
LWPOLYLINE
  5
19B
330
198
100
AcDbEntity
  8
Default
  6
Continuous
 62
     7
 48
25.4
370
    30
100
AcDbPolyline
 90
        4
 70
     1
 43
0.00035
 10
540.6737180144
 20
320.1176061147
 10
542.4355602732
 20
316.4651606515
 10
541.953529638
 20
320.4915849304
 10
540.6737180144
 20
320.1176061147
  0
HATCH
  5
19C
330
198
100
AcDbEntity
  8
Default
  6
Continuous
 62
     7
 48
25.4
100
AcDbHatch
 10
0.0
 20
0.0
 30
0.0
210
0.0
220
0.0
230
1.0
  2
SOLID
 70
     1
 71
     0
 91
        1
 92
        1
 93
        3
 72
     1
 10
520.5062570575963
 20
357.3509274440531
 11
517.2439215664645
 21
359.7595812485431
 72
     1
 10
517.2439215664643
 20
359.759581248543
 11
519.5487295809437
 21
356.4230701931178
 72
     1
 10
519.5487295809438
 20
356.4230701931178
 11
520.5062570575963
 21
357.3509274440531
 97
        0
 75
     0
 76
     1
 98
        0
  0
LWPOLYLINE
  5
19D
330
198
100
AcDbEntity
  8
Default
  6
Continuous
 62
     7
 48
25.4
370
    30
100
AcDbPolyline
 90
        4
 70
     1
 43
0.00035
 10
520.5062570576
 20
357.3509274441
 10
517.2439215665
 20
359.7595812485
 10
519.5487295809
 20
356.4230701931
 10
520.5062570576
 20
357.3509274441
  0
LINE
  5
19E
330
198
100
AcDbEntity
  8
Default
  6
Continuous
 62
     7
 48
25.4
100
AcDbLine
 10
491.5926124842
 20
302.7490884125
 30
0.0
 11
544.3665252536
 21
316.9860835388
 31
0.0
  0
LINE
  5
19F
330
198
100
AcDbEntity
  8
Default
  6
Continuous
 62
     7
 48
25.4
100
AcDbLine
 10
486.6494448116
 20
328.853774807
 30
0.0
 11
518.6509568365
 21
361.1809320705
 31
0.0
  0
ARC
  5
1A0
330
198
100
AcDbEntity
  8
Default
  6
Continuous
 62
     7
 48
25.4
100
AcDbCircle
 10
449.5909284844
 20
291.418153505
 30
0.0
 40
96.16380929946934
100
AcDbArc
 50
15.0974705899
 51
45.2900417782
  0
TEXT
  5
1A1
330
198
100
AcDbEntity
  8
Default
  6
Continuous
 62
     7
 48
25.4
100
AcDbText
 10
531.4295856117
 20
343.9671311035
 30
0.0
 40
4.0
  1
30°
 50
300.1937556927
  7
SEACAD_arial_ttf
 11
534.8869040829
 21
345.9788341105
 31
0.0
100
AcDbText
 73
     3
  0
ENDBLK
  5
1A3
330
198
100
AcDbEntity
  8
0
100
AcDbBlockEnd
  0
BLOCK
  5
1AE
330
1A4
100
AcDbEntity
  8
0
100
AcDbBlockBegin
  2
GDimGGroup9
 70
     0
 71
     0
 10
0.0
 20
0.0
 30
0.0
  3
GDimGGroup9
  1

  0
HATCH
  5
1A6
330
1A4
100
AcDbEntity
  8
Default
  6
Continuous
 62
     7
 48
25.4
100
AcDbHatch
 10
0.0
 20
0.0
 30
0.0
210
0.0
220
0.0
230
1.0
  2
SOLID
 70
     1
 71
     0
 91
        1
 92
        1
 93
        3
 72
     1
 10
545.0050298771901
 20
295.4034243942892
 11
545.754737783913
 21
291.4181535049793
 72
     1
 10
545.7547377839129
 20
291.4181535049793
 11
546.3380749173297
 21
295.4311528565068
 72
     1
 10
546.3380749173297
 20
295.4311528565069
 11
545.0050298771901
 21
295.4034243942892
 97
        0
 75
     0
 76
     1
 98
        0
  0
LWPOLYLINE
  5
1A7
330
1A4
100
AcDbEntity
  8
Default
  6
Continuous
 62
     7
 48
25.4
370
    30
100
AcDbPolyline
 90
        4
 70
     1
 43
0.00035
 10
545.0050298772
 20
295.4034243943
 10
545.7547377839
 20
291.418153505
 10
546.3380749173
 20
295.4311528565
 10
545.0050298772
 20
295.4034243943
  0
HATCH
  5
1A8
330
1A4
100
AcDbEntity
  8
Default
  6
Continuous
 62
     7
 48
25.4
100
AcDbHatch
 10
0.0
 20
0.0
 30
0.0
210
0.0
220
0.0
230
1.0
  2
SOLID
 70
     1
 71
     0
 91
        1
 92
        1
 93
        3
 72
     1
 10
544.0439963788963
 20
312.7426106203459
 11
542.435560254817
 21
316.4651607195843
 72
     1
 10
542.4355602548171
 20
316.4651607195843
 11
542.7497403400039
 21
312.4221745854683
 72
     1
 10
542.7497403400039
 20
312.4221745854682
 11
544.0439963788963
 21
312.7426106203458
 97
        0
 75
     0
 76
     1
 98
        0
  0
LWPOLYLINE
  5
1A9
330
1A4
100
AcDbEntity
  8
Default
  6
Continuous
 62
     7
 48
25.4
370
    30
100
AcDbPolyline
 90
        4
 70
     1
 43
0.00035
 10
544.0439963789
 20
312.7426106203
 10
542.4355602548
 20
316.4651607196
 10
542.74974034
 20
312.4221745855
 10
544.0439963789
 20
312.7426106203
  0
LINE
  5
1AA
330
1A4
100
AcDbEntity
  8
Default
  6
Continuous
 62
     7
 48
25.4
100
AcDbLine
 10
541.8049912944
 20
291.418153505
 30
0.0
 11
547.7547343864
 21
291.418153505
 31
0.0
  0
LINE
  5
1AB
330
1A4
100
AcDbEntity
  8
Default
  6
Continuous
 62
     7
 48
25.4
100
AcDbLine
 10
491.5926124842
 20
302.7490884125
 30
0.0
 11
544.3665252536
 21
316.9860835388
 31
0.0
  0
ARC
  5
1AC
330
1A4
100
AcDbEntity
  8
Default
  6
Continuous
 62
     7
 48
25.4
100
AcDbCircle
 10
449.5909284844
 20
291.418153505
 30
0.0
 40
96.16380929946483
100
AcDbArc
 50
0.0
 51
15.097470632
  0
TEXT
  5
1AD
330
1A4
100
AcDbEntity
  8
Default
  6
Continuous
 62
     7
 48
25.4
100
AcDbText
 10
545.352917389
 20
308.4064532459
 30
0.0
 40
4.0
  1
15°
 50
277.548735295
  7
SEACAD_arial_ttf
 11
549.3182513021
 21
308.9319310832
 31
0.0
100
AcDbText
 73
     3
  0
ENDBLK
  5
1AF
330
1A4
100
AcDbEntity
  8
0
100
AcDbBlockEnd
  0
BLOCK
  5
1B8
330
1B0
100
AcDbEntity
  8
0
100
AcDbBlockBegin
  2
GDimGGroup10
 70
     0
 71
     0
 10
0.0
 20
0.0
 30
0.0
  3
GDimGGroup10
  1

  0
LINE
  5
1B2
330
1B0
100
AcDbEntity
  8
Default
  6
Continuous
 62
     7
 48
25.4
100
AcDbLine
 10
449.5909284844
 20
291.8075026618
 30
0.0
 11
501.926483398
 21
294.4055275109
 31
0.0
  0
HATCH
  5
1B3
330
1B0
100
AcDbEntity
  8
Default
  6
Continuous
 62
     7
 48
25.4
100
AcDbHatch
 10
0.0
 20
0.0
 30
0.0
210
0.0
220
0.0
230
1.0
  2
SOLID
 70
     1
 71
     0
 91
        1
 92
        1
 93
        3
 72
     1
 10
497.898348565006
 20
294.873051757112
 11
497.9644560701701
 21
293.5413581946065
 72
     1
 10
497.9644560701702
 20
293.5413581946065
 11
501.9264830051046
 21
294.4055274913516
 72
     1
 10
501.9264830051046
 20
294.4055274913516
 11
497.898348565006
 21
294.873051757112
 97
        0
 75
     0
 76
     1
 98
        0
  0
LWPOLYLINE
  5
1B4
330
1B0
100
AcDbEntity
  8
Default
  6
Continuous
 62
     7
 48
25.4
370
    30
100
AcDbPolyline
 90
        4
 70
     1
 43
0.00035
 10
497.898348565
 20
294.8730517571
 10
501.9264830051
 20
294.4055274914
 10
497.9644560702
 20
293.5413581946
 10
497.898348565
 20
294.8730517571
  0
ARC
  5
1B5
330
1B0
100
AcDbEntity
  8
Default
  6
Continuous
 62
     7
 48
25.4
100
AcDbCircle
 10
449.5909284845
 20
291.8075026618
 30
0.0
 40
52.39999999997405
100
AcDbArc
 50
0.6550639989
 51
5.5963075975
  0
TEXT
  5
1B6
330
1B0
100
AcDbEntity
  8
Default
  6
Continuous
 62
     7
 48
25.4
100
AcDbText
 10
472.9844283631
 20
293.9700266777
 30
0.0
 40
4.0
  1
R
 50
2.8419258124
  7
SEACAD_arial_ttf
 11
472.786105857
 21
297.9651071754
 31
0.0
100
AcDbText
 73
     3
  0
TEXT
  5
1B7
330
1B0
100
AcDbEntity
  8
Default
  6
Continuous
 62
     7
 48
25.4
100
AcDbText
 10
479.3765571595
 20
294.2873426874
 30
0.0
 40
4.0
  1
52.4
 50
2.8419258124
  7
SEACAD_arial_ttf
 11
479.1782346535
 21
298.2824231851
 31
0.0
100
AcDbText
 73
     3
  0
ENDBLK
  5
1B9
330
1B0
100
AcDbEntity
  8
0
100
AcDbBlockEnd
  0
BLOCK
  5
1C3
330
1BA
100
AcDbEntity
  8
0
100
AcDbBlockBegin
  2
GDimGGroup11
 70
     0
 71
     0
 10
0.0
 20
0.0
 30
0.0
  3
GDimGGroup11
  1

  0
LINE
  5
1BC
330
1BA
100
AcDbEntity
  8
Default
  6
Continuous
 62
     7
 48
25.4
100
AcDbLine
 10
449.5909284844
 20
291.418153505
 30
0.0
 11
419.674811527
 21
341.1074456371
 31
0.0
  0
HATCH
  5
1BD
330
1BA
100
AcDbEntity
  8
Default
  6
Continuous
 62
     7
 48
25.4
100
AcDbHatch
 10
0.0
 20
0.0
 30
0.0
210
0.0
220
0.0
230
1.0
  2
SOLID
 70
     1
 71
     0
 91
        1
 92
        1
 93
        3
 72
     1
 10
421.1668499709611
 20
337.3367356327751
 11
422.3091326358361
 21
338.0244625118365
 72
     1
 10
422.3091326358361
 20
338.0244625118365
 11
419.6748106662146
 21
341.1074470669311
 72
     1
 10
419.6748106662146
 20
341.1074470669311
 11
421.1668499709611
 21
337.3367356327751
 97
        0
 75
     0
 76
     1
 98
        0
  0
LWPOLYLINE
  5
1BE
330
1BA
100
AcDbEntity
  8
Default
  6
Continuous
 62
     7
 48
25.4
370
    30
100
AcDbPolyline
 90
        4
 70
     1
 43
0.00035
 10
421.166849971
 20
337.3367356328
 10
419.6748106662
 20
341.1074470669
 10
422.3091326358
 20
338.0244625118
 10
421.166849971
 20
337.3367356328
  0
ARC
  5
1BF
330
1BA
100
AcDbEntity
  8
Default
  6
Continuous
 62
     7
 48
25.4
100
AcDbCircle
 10
449.5909284844
 20
291.418153505
 30
0.0
 40
58.00000000000068
100
AcDbArc
 50
107.9639052647
 51
123.0263342588
  0
TEXT
  5
1C0
330
1BA
100
AcDbEntity
  8
Default
  6
Continuous
 62
     7
 48
25.4
100
AcDbText
 10
422.144596217
 20
338.9440012728
 30
0.0
 40
4.0
  1
R
 50
301.0506177239
  7
SEACAD_arial_ttf
 11
425.5714440489
 21
341.007181812
 31
0.0
100
AcDbText
 73
     3
  0
TEXT
  5
1C1
330
1BA
100
AcDbEntity
  8
Default
  6
Continuous
 62
     7
 48
25.4
100
AcDbText
 10
425.4456850797
 20
333.4610447419
 30
0.0
 40
4.0
  1
58
 50
301.0506177239
  7
SEACAD_arial_ttf
 11
428.8725329116
 21
335.524225281
 31
0.0
100
AcDbText
 73
     3
  0
TEXT
  5
1C2
330
1BA
100
AcDbEntity
  8
Default
  6
Continuous
 62
     7
 48
25.4
100
AcDbText
 10
429.7066014107
 20
326.3838590022
 30
0.0
 40
4.0
  1
±0.2
 50
301.0506177239
  7
SEACAD_arial_ttf
 11
433.1334492425
 21
328.4470395413
 31
0.0
100
AcDbText
 73
     3
  0
ENDBLK
  5
1C4
330
1BA
100
AcDbEntity
  8
0
100
AcDbBlockEnd
  0
BLOCK
  5
361
330
1C5
100
AcDbEntity
  8
0
100
AcDbBlockBegin
  2
SE2
 70
     0
 71
     0
 10
0.0
 20
0.0
 30
0.0
  3
SE2
  1

  0
LINE
  5
1C8
330
1C5
100
AcDbEntity
  8
DV3_Default
  6
Continuous
 62
     7
 48
25.4
100
AcDbLine
 10
223.5262334706
 20
248.5595766712
 30
0.0
 11
223.5262334706
 21
240.0595766712
 31
0.0
  0
LINE
  5
1C9
330
1C5
100
AcDbEntity
  8
DV3_Default
  6
Continuous
 62
     7
 48
25.4
100
AcDbLine
 10
223.5262334706
 20
248.0595766712
 30
0.0
 11
232.5262334706
 21
248.0595766712
 31
0.0
  0
LINE
  5
1CA
330
1C5
100
AcDbEntity
  8
DV3_Default
  6
Continuous
 62
     7
 48
25.4
100
AcDbLine
 10
233.5262334706
 20
247.0595766712
 30
0.0
 11
233.5262334706
 21
240.0595766712
 31
0.0
  0
LINE
  5
1CB
330
1C5
100
AcDbEntity
  8
DV3_Default
  6
Continuous
 62
     7
 48
25.4
100
AcDbLine
 10
233.5262334706
 20
247.0595766712
 30
0.0
 11
232.5262334706
 21
248.0595766712
 31
0.0
  0
LINE
  5
1CC
330
1C5
100
AcDbEntity
  8
DV3_Default
  6
Continuous
 62
     7
 48
25.4
100
AcDbLine
 10
232.5262334706
 20
248.0595766712
 30
0.0
 11
232.5262334706
 21
240.0595766712
 31
0.0
  0
LINE
  5
1CD
330
1C5
100
AcDbEntity
  8
DV3_Default
  6
Continuous
 62
     7
 48
25.4
100
AcDbLine
 10
167.5262334706
 20
235.0595766712
 30
0.0
 11
167.5262334706
 21
223.4595766712
 31
0.0
  0
LINE
  5
1CE
330
1C5
100
AcDbEntity
  8
DV3_Default
  6
Continuous
 62
     7
 48
25.4
100
AcDbLine
 10
177.7209108952
 20
245.0595766712
 30
0.0
 11
177.7209108952
 21
240.0595766712
 31
0.0
  0
LINE
  5
1CF
330
1C5
100
AcDbEntity
  8
DV3_Default
  6
Continuous
 62
     7
 48
25.4
100
AcDbLine
 10
223.5262334706
 20
231.5595766712
 30
0.0
 11
223.5262334706
 21
240.0595766712
 31
0.0
  0
LINE
  5
1D0
330
1C5
100
AcDbEntity
  8
DV3_Default
  6
Continuous
 62
     7
 48
25.4
100
AcDbLine
 10
223.5262334706
 20
232.0595766712
 30
0.0
 11
232.5262334706
 21
232.0595766712
 31
0.0
  0
LINE
  5
1D1
330
1C5
100
AcDbEntity
  8
DV3_Default
  6
Continuous
 62
     7
 48
25.4
100
AcDbLine
 10
233.5262334706
 20
233.0595766712
 30
0.0
 11
233.5262334706
 21
240.0595766712
 31
0.0
  0
LINE
  5
1D2
330
1C5
100
AcDbEntity
  8
DV3_Default
  6
Continuous
 62
     7
 48
25.4
100
AcDbLine
 10
233.5262334706
 20
233.0595766712
 30
0.0
 11
232.5262334706
 21
232.0595766712
 31
0.0
  0
LINE
  5
1D3
330
1C5
100
AcDbEntity
  8
DV3_Default
  6
Continuous
 62
     7
 48
25.4
100
AcDbLine
 10
232.5262334706
 20
232.0595766712
 30
0.0
 11
232.5262334706
 21
240.0595766712
 31
0.0
  0
LINE
  5
1D4
330
1C5
100
AcDbEntity
  8
DV3_Default
  6
Continuous
 62
     7
 48
25.4
100
AcDbLine
 10
177.7209108952
 20
235.0595766712
 30
0.0
 11
177.7209108952
 21
240.0595766712
 31
0.0
  0
LINE
  5
1D5
330
1C5
100
AcDbEntity
  8
DV3_Default
  6
Continuous
 62
     7
 48
25.4
100
AcDbLine
 10
223.5262334706
 20
234.0595766712
 30
0.0
 11
167.5262334706
 21
234.0595766712
 31
0.0
  0
LINE
  5
1D6
330
1C5
100
AcDbEntity
  8
DV3_Default
  6
Continuous
 62
     7
 48
25.4
100
AcDbLine
 10
153.5262334706
 20
222.4595766712
 30
0.0
 11
166.5262334706
 21
222.4595766712
 31
0.0
  0
LINE
  5
1D7
330
1C5
100
AcDbEntity
  8
DV3_Default
  6
Continuous
 62
     7
 48
25.4
100
AcDbLine
 10
152.5262334706
 20
235.0595766712
 30
0.0
 11
152.5262334706
 21
223.4595766712
 31
0.0
  0
LINE
  5
1D8
330
1C5
100
AcDbEntity
  8
DV3_Default
  6
Continuous
 62
     7
 48
25.4
100
AcDbLine
 10
138.5262334706
 20
235.0595766712
 30
0.0
 11
223.5262334706
 21
235.0595766712
 31
0.0
  0
LINE
  5
1D9
330
1C5
100
AcDbEntity
  8
DV3_Default
  6
Continuous
 62
     7
 48
25.4
100
AcDbLine
 10
138.5262334706
 20
245.0595766712
 30
0.0
 11
223.5262334706
 21
245.0595766712
 31
0.0
  0
LINE
  5
1DA
330
1C5
100
AcDbEntity
  8
DV3_Default
  6
Continuous
 62
     7
 48
25.4
100
AcDbLine
 10
167.5262334706
 20
347.9528121041
 30
0.0
 11
167.5262334706
 21
309.4595766712
 31
0.0
  0
LINE
  5
1DB
330
1C5
100
AcDbEntity
  8
DV3_Default
  6
Continuous
 62
     7
 48
25.4
100
AcDbLine
 10
152.5262334706
 20
357.0176880894
 30
0.0
 11
152.5262334706
 21
346.0176880894
 31
0.0
  0
LINE
  5
1DC
330
1C5
100
AcDbEntity
  8
DV3_Default
  6
CENTER2
 62
     7
 48
25.4
100
AcDbLine
 10
149.0262334706
 20
351.5176880894
 30
0.0
 11
179.8322767875
 21
351.5176880894
 31
0.0
  0
LINE
  5
1DD
330
1C5
100
AcDbEntity
  8
DV3_Default
  6
Continuous
 62
     7
 48
25.4
100
AcDbLine
 10
158.5262334706
 20
357.5756400225
 30
0.0
 11
152.5262334706
 21
357.5756400225
 31
0.0
  0
LINE
  5
1DE
330
1C5
100
AcDbEntity
  8
DV3_Default
  6
Continuous
 62
     7
 48
25.4
100
AcDbLine
 10
158.5262334706
 20
354.4373185229
 30
0.0
 11
177.5262334706
 21
354.4373185229
 31
0.0
  0
LINE
  5
1DF
330
1C5
100
AcDbEntity
  8
DV3_Default
  6
Continuous
 62
     7
 48
25.4
100
AcDbLine
 10
177.5262334706
 20
354.4373185229
 30
0.0
 11
177.5262334706
 21
348.4373185229
 31
0.0
  0
LINE
  5
1E0
330
1C5
100
AcDbEntity
  8
DV3_Default
  6
Continuous
 62
     7
 48
25.4
100
AcDbLine
 10
177.5262334706
 20
348.4373185229
 30
0.0
 11
158.5262334706
 21
348.4373185229
 31
0.0
  0
LINE
  5
1E1
330
1C5
100
AcDbEntity
  8
DV3_Default
  6
Continuous
 62
     7
 48
25.4
100
AcDbLine
 10
158.5262334706
 20
354.0013892838
 30
0.0
 11
177.5262334706
 21
354.0013892838
 31
0.0
  0
LINE
  5
1E2
330
1C5
100
AcDbEntity
  8
DV3_Default
  6
Continuous
 62
     7
 48
25.4
100
AcDbLine
 10
158.5262334706
 20
348.8943931107
 30
0.0
 11
177.5262334706
 21
348.8943931107
 31
0.0
  0
LINE
  5
1E3
330
1C5
100
AcDbEntity
  8
DV3_Default
  6
Continuous
 62
     7
 48
25.4
100
AcDbLine
 10
158.5262334706
 20
347.9528121041
 30
0.0
 11
167.5262334706
 21
347.9528121041
 31
0.0
  0
LINE
  5
1E4
330
1C5
100
AcDbEntity
  8
DV3_Default
  6
Continuous
 62
     7
 48
25.4
100
AcDbLine
 10
158.5263666355
 20
354.8526552977
 30
0.0
 11
167.5263666355
 21
354.8526552977
 31
0.0
  0
LINE
  5
1E5
330
1C5
100
AcDbEntity
  8
DV3_Default
  6
Continuous
 62
     7
 48
25.4
100
AcDbLine
 10
158.5262334706
 20
356.9373185229
 30
0.0
 11
153.2836926828
 21
356.9373185229
 31
0.0
  0
LINE
  5
1E6
330
1C5
100
AcDbEntity
  8
DV3_Default
  6
Continuous
 62
     7
 48
25.4
100
AcDbLine
 10
153.2836926828
 20
345.9373185229
 30
0.0
 11
158.5262334706
 21
345.9373185229
 31
0.0
  0
LINE
  5
1E7
330
1C5
100
AcDbEntity
  8
DV3_Default
  6
Continuous
 62
     7
 48
25.4
100
AcDbLine
 10
152.9950175482
 20
356.4373185229
 30
0.0
 11
152.9950175482
 21
346.4373185229
 31
0.0
  0
LINE
  5
1E8
330
1C5
100
AcDbEntity
  8
DV3_Default
  6
Continuous
 62
     7
 48
25.4
100
AcDbLine
 10
153.2836926828
 20
356.9373185229
 30
0.0
 11
152.9950175482
 21
356.4373185229
 31
0.0
  0
LINE
  5
1E9
330
1C5
100
AcDbEntity
  8
DV3_Default
  6
Continuous
 62
     7
 48
25.4
100
AcDbLine
 10
153.2836926828
 20
345.9373185229
 30
0.0
 11
152.9950175482
 21
346.4373185229
 31
0.0
  0
LINE
  5
1EA
330
1C5
100
AcDbEntity
  8
DV3_Default
  6
Continuous
 62
     7
 48
25.4
100
AcDbLine
 10
153.2836926828
 20
356.9373185229
 30
0.0
 11
153.2836926828
 21
345.9373185229
 31
0.0
  0
LINE
  5
1EB
330
1C5
100
AcDbEntity
  8
DV3_Default
  6
Continuous
 62
     7
 48
25.4
100
AcDbLine
 10
167.5262334706
 20
361.4595766712
 30
0.0
 11
167.5262334706
 21
354.8526552977
 31
0.0
  0
LINE
  5
1EC
330
1C5
100
AcDbEntity
  8
DV3_Default
  6
Continuous
 62
     7
 48
25.4
100
AcDbLine
 10
158.5262334706
 20
357.5756400225
 30
0.0
 11
158.5262334706
 21
345.3350804293
 31
0.0
  0
LINE
  5
1ED
330
1C5
100
AcDbEntity
  8
DV3_Default
  6
Continuous
 62
     7
 48
25.4
100
AcDbLine
 10
158.5262334706
 20
345.3350804293
 30
0.0
 11
152.5262334706
 21
345.3350804293
 31
0.0
  0
LINE
  5
1EE
330
1C5
100
AcDbEntity
  8
DV3_Default
  6
CENTER2
 62
     7
 48
25.4
100
AcDbLine
 10
281.3168947441
 20
292.4595766712
 30
0.0
 11
12.3815876726
 21
292.4595766712
 31
0.0
  0
LINE
  5
1EF
330
1C5
100
AcDbEntity
  8
DV3_Default
  6
Continuous
 62
     7
 48
25.4
100
AcDbLine
 10
153.5262334706
 20
362.4595766712
 30
0.0
 11
166.5262334706
 21
362.4595766712
 31
0.0
  0
LINE
  5
1F0
330
1C5
100
AcDbEntity
  8
DV3_Default
  6
Continuous
 62
     7
 48
25.4
100
AcDbLine
 10
166.5262334706
 20
362.4595766712
 30
0.0
 11
167.5262334706
 21
361.4595766712
 31
0.0
  0
LINE
  5
1F1
330
1C5
100
AcDbEntity
  8
DV3_Default
  6
Continuous
 62
     7
 48
25.4
100
AcDbLine
 10
152.5262334706
 20
361.4595766712
 30
0.0
 11
153.5262334706
 21
362.4595766712
 31
0.0
  0
LINE
  5
1F2
330
1C5
100
AcDbEntity
  8
DV3_Default
  6
Continuous
 62
     7
 48
25.4
100
AcDbLine
 10
152.5262334706
 20
223.4595766712
 30
0.0
 11
153.5262334706
 21
222.4595766712
 31
0.0
  0
LINE
  5
1F3
330
1C5
100
AcDbEntity
  8
DV3_Default
  6
Continuous
 62
     7
 48
25.4
100
AcDbLine
 10
166.5262334706
 20
222.4595766712
 30
0.0
 11
167.5262334706
 21
223.4595766712
 31
0.0
  0
LINE
  5
1F4
330
1C5
100
AcDbEntity
  8
DV3_Default
  6
Continuous
 62
     7
 48
25.4
100
AcDbLine
 10
152.5262334706
 20
361.4595766712
 30
0.0
 11
152.5262334706
 21
309.4595766712
 31
0.0
  0
LINE
  5
1F5
330
1C5
100
AcDbEntity
  8
DV3_Default
  6
Continuous
 62
     7
 48
25.4
100
AcDbLine
 10
236.5262334706
 20
292.4595766712
 30
0.0
 11
236.5262334706
 21
328.4595766712
 31
0.0
  0
LINE
  5
1F6
330
1C5
100
AcDbEntity
  8
DV3_Default
  6
Continuous
 62
     7
 48
25.4
100
AcDbLine
 10
243.9013686188
 20
366.4656048111
 30
0.0
 11
251.9291269434
 21
366.4656048111
 31
0.0
  0
LINE
  5
1F7
330
1C5
100
AcDbEntity
  8
DV3_Default
  6
Continuous
 62
     7
 48
25.4
100
AcDbLine
 10
251.9291269434
 20
369.4656048111
 30
0.0
 11
251.9291269434
 21
352.4656048111
 31
0.0
  0
LINE
  5
1F8
330
1C5
100
AcDbEntity
  8
DV3_Default
  6
Continuous
 62
     7
 48
25.4
100
AcDbLine
 10
243.9013686188
 20
355.4656048111
 30
0.0
 11
251.9291269434
 21
355.4656048111
 31
0.0
  0
LINE
  5
1F9
330
1C5
100
AcDbEntity
  8
DV3_Default
  6
Continuous
 62
     7
 48
25.4
100
AcDbLine
 10
247.9152477811
 20
355.9656048111
 30
0.0
 11
243.9013686188
 21
355.9656048111
 31
0.0
  0
LINE
  5
1FA
330
1C5
100
AcDbEntity
  8
DV3_Default
  6
Continuous
 62
     7
 48
25.4
100
AcDbLine
 10
243.9013686188
 20
365.9656048111
 30
0.0
 11
247.9152477811
 21
365.9656048111
 31
0.0
  0
LINE
  5
1FB
330
1C5
100
AcDbEntity
  8
DV3_Default
  6
Continuous
 62
     7
 48
25.4
100
AcDbLine
 10
245.4013686188
 20
366.9656048111
 30
0.0
 11
251.9291269434
 21
366.9656048111
 31
0.0
  0
LINE
  5
1FC
330
1C5
100
AcDbEntity
  8
DV3_Default
  6
Continuous
 62
     7
 48
25.4
100
AcDbLine
 10
251.9291269434
 20
354.9656048111
 30
0.0
 11
245.4013686188
 21
354.9656048111
 31
0.0
  0
LINE
  5
1FD
330
1C5
100
AcDbEntity
  8
DV3_Default
  6
Continuous
 62
     7
 48
25.4
100
AcDbLine
 10
251.9291269434
 20
353.4656048111
 30
0.0
 11
260.9291269434
 21
353.4656048111
 31
0.0
  0
LINE
  5
1FE
330
1C5
100
AcDbEntity
  8
DV3_Default
  6
Continuous
 62
     7
 48
25.4
100
AcDbLine
 10
261.9291269434
 20
354.4656048111
 30
0.0
 11
261.9291269434
 21
367.4656048111
 31
0.0
  0
LINE
  5
1FF
330
1C5
100
AcDbEntity
  8
DV3_Default
  6
Continuous
 62
     7
 48
25.4
100
AcDbLine
 10
260.9291269434
 20
368.4656048111
 30
0.0
 11
251.9291269434
 21
368.4656048111
 31
0.0
  0
LINE
  5
200
330
1C5
100
AcDbEntity
  8
DV3_Default
  6
Continuous
 62
     7
 48
25.4
100
AcDbLine
 10
260.9291269434
 20
353.4656048111
 30
0.0
 11
261.9291269434
 21
354.4656048111
 31
0.0
  0
LINE
  5
201
330
1C5
100
AcDbEntity
  8
DV3_Default
  6
Continuous
 62
     7
 48
25.4
100
AcDbLine
 10
260.9291269434
 20
368.4656048111
 30
0.0
 11
261.9291269434
 21
367.4656048111
 31
0.0
  0
LINE
  5
202
330
1C5
100
AcDbEntity
  8
DV3_Default
  6
Continuous
 62
     7
 48
25.4
100
AcDbLine
 10
260.9291269434
 20
368.4656048111
 30
0.0
 11
260.9291269434
 21
353.4656048111
 31
0.0
  0
LINE
  5
203
330
1C5
100
AcDbEntity
  8
DV3_Default
  6
Continuous
 62
     7
 48
25.4
100
AcDbLine
 10
243.9013686188
 20
335.4119690977
 30
0.0
 11
251.9291269434
 21
335.4119690977
 31
0.0
  0
LINE
  5
204
330
1C5
100
AcDbEntity
  8
DV3_Default
  6
Continuous
 62
     7
 48
25.4
100
AcDbLine
 10
251.9291269434
 20
332.4119690977
 30
0.0
 11
251.9291269434
 21
349.4119690977
 31
0.0
  0
LINE
  5
205
330
1C5
100
AcDbEntity
  8
DV3_Default
  6
Continuous
 62
     7
 48
25.4
100
AcDbLine
 10
243.9013686188
 20
346.4119690977
 30
0.0
 11
251.9291269434
 21
346.4119690977
 31
0.0
  0
LINE
  5
206
330
1C5
100
AcDbEntity
  8
DV3_Default
  6
Continuous
 62
     7
 48
25.4
100
AcDbLine
 10
247.4152477811
 20
345.9119690977
 30
0.0
 11
243.9013686188
 21
345.9119690977
 31
0.0
  0
LINE
  5
207
330
1C5
100
AcDbEntity
  8
DV3_Default
  6
Continuous
 62
     7
 48
25.4
100
AcDbLine
 10
243.9013686188
 20
335.9119690977
 30
0.0
 11
247.4152477811
 21
335.9119690977
 31
0.0
  0
LINE
  5
208
330
1C5
100
AcDbEntity
  8
DV3_Default
  6
Continuous
 62
     7
 48
25.4
100
AcDbLine
 10
245.4013686188
 20
334.9119690977
 30
0.0
 11
251.9291269434
 21
334.9119690977
 31
0.0
  0
LINE
  5
209
330
1C5
100
AcDbEntity
  8
DV3_Default
  6
Continuous
 62
     7
 48
25.4
100
AcDbLine
 10
251.9291269434
 20
346.9119690977
 30
0.0
 11
245.4013686188
 21
346.9119690977
 31
0.0
  0
LINE
  5
20A
330
1C5
100
AcDbEntity
  8
DV3_Default
  6
Continuous
 62
     7
 48
25.4
100
AcDbLine
 10
251.9291269434
 20
348.4119690977
 30
0.0
 11
260.9291269434
 21
348.4119690977
 31
0.0
  0
LINE
  5
20B
330
1C5
100
AcDbEntity
  8
DV3_Default
  6
Continuous
 62
     7
 48
25.4
100
AcDbLine
 10
261.9291269434
 20
347.4119690977
 30
0.0
 11
261.9291269434
 21
334.4119690977
 31
0.0
  0
LINE
  5
20C
330
1C5
100
AcDbEntity
  8
DV3_Default
  6
Continuous
 62
     7
 48
25.4
100
AcDbLine
 10
260.9291269434
 20
333.4119690977
 30
0.0
 11
251.9291269434
 21
333.4119690977
 31
0.0
  0
LINE
  5
20D
330
1C5
100
AcDbEntity
  8
DV3_Default
  6
Continuous
 62
     7
 48
25.4
100
AcDbLine
 10
260.9291269434
 20
348.4119690977
 30
0.0
 11
261.9291269434
 21
347.4119690977
 31
0.0
  0
LINE
  5
20E
330
1C5
100
AcDbEntity
  8
DV3_Default
  6
Continuous
 62
     7
 48
25.4
100
AcDbLine
 10
260.9291269434
 20
333.4119690977
 30
0.0
 11
261.9291269434
 21
334.4119690977
 31
0.0
  0
LINE
  5
20F
330
1C5
100
AcDbEntity
  8
DV3_Default
  6
Continuous
 62
     7
 48
25.4
100
AcDbLine
 10
260.9291269434
 20
333.4119690977
 30
0.0
 11
260.9291269434
 21
348.4119690977
 31
0.0
  0
LINE
  5
210
330
1C5
100
AcDbEntity
  8
DV3_Default
  6
Continuous
 62
     7
 48
25.4
100
AcDbLine
 10
240.5262334706
 20
321.9238458146
 30
0.0
 11
241.7251896099
 21
320.7314179706
 31
0.0
  0
LINE
  5
211
330
1C5
100
AcDbEntity
  8
DV3_Default
  6
Continuous
 62
     7
 48
25.4
100
AcDbLine
 10
271.5262334706
 20
303.9595766712
 30
0.0
 11
241.7251896099
 21
303.9595766712
 31
0.0
  0
LINE
  5
212
330
1C5
100
AcDbEntity
  8
DV3_Default
  6
Continuous
 62
     7
 48
25.4
100
AcDbLine
 10
251.9291269434
 20
369.4656048111
 30
0.0
 11
271.5262334706
 21
369.4656048111
 31
0.0
  0
LINE
  5
213
330
1C5
100
AcDbEntity
  8
DV3_Default
  6
Continuous
 62
     7
 48
25.4
100
AcDbLine
 10
251.9291269434
 20
349.4119690977
 30
0.0
 11
271.5262334706
 21
349.4119690977
 31
0.0
  0
LINE
  5
214
330
1C5
100
AcDbEntity
  8
DV3_Default
  6
Continuous
 62
     7
 48
25.4
100
AcDbLine
 10
251.9291269434
 20
352.4656048111
 30
0.0
 11
271.5262334706
 21
352.4656048111
 31
0.0
  0
LINE
  5
215
330
1C5
100
AcDbEntity
  8
DV3_Default
  6
Continuous
 62
     7
 48
25.4
100
AcDbLine
 10
251.9291269434
 20
332.4119690977
 30
0.0
 11
271.5262334706
 21
332.4119690977
 31
0.0
  0
LINE
  5
216
330
1C5
100
AcDbEntity
  8
DV3_Default
  6
Continuous
 62
     7
 48
25.4
100
AcDbLine
 10
241.4013686188
 20
375.8347118193
 30
0.0
 11
241.4013686188
 21
321.0534757621
 31
0.0
  0
LINE
  5
217
330
1C5
100
AcDbEntity
  8
DV3_Default
  6
Continuous
 62
     7
 48
25.4
100
AcDbLine
 10
242.9291269434
 20
369.4656048111
 30
0.0
 11
241.4013686188
 21
369.4656048111
 31
0.0
  0
LINE
  5
218
330
1C5
100
AcDbEntity
  8
DV3_Default
  6
Continuous
 62
     7
 48
25.4
100
AcDbLine
 10
242.9291269434
 20
332.4119680389
 30
0.0
 11
241.4013686188
 21
332.4119680389
 31
0.0
  0
LINE
  5
219
330
1C5
100
AcDbEntity
  8
DV3_Default
  6
Continuous
 62
     7
 48
25.4
100
AcDbLine
 10
251.9291269434
 20
366.4656048111
 30
0.0
 11
250.9291269434
 21
366.4656048111
 31
0.0
  0
LINE
  5
21A
330
1C5
100
AcDbEntity
  8
DV3_Default
  6
Continuous
 62
     7
 48
25.4
100
AcDbLine
 10
241.7251896099
 20
320.7314179706
 30
0.0
 11
241.7251896099
 21
303.9595766712
 31
0.0
  0
LINE
  5
21B
330
1C5
100
AcDbEntity
  8
DV3_Default
  6
Continuous
 62
     7
 48
25.4
100
AcDbLine
 10
240.5262334706
 20
374.9595766712
 30
0.0
 11
240.5262334706
 21
321.9238458146
 31
0.0
  0
LINE
  5
21C
330
1C5
100
AcDbEntity
  8
DV3_Default
  6
Continuous
 62
     7
 48
25.4
100
AcDbLine
 10
178.5262334706
 20
292.4595766712
 30
0.0
 11
152.5262334706
 21
292.4595766712
 31
0.0
  0
LINE
  5
21D
330
1C5
100
AcDbEntity
  8
DV3_Default
  6
Continuous
 62
     7
 48
25.4
100
AcDbLine
 10
241.4013686188
 20
369.4656048111
 30
0.0
 11
243.9013686188
 21
369.4656048111
 31
0.0
  0
LINE
  5
21E
330
1C5
100
AcDbEntity
  8
DV3_Default
  6
Continuous
 62
     7
 48
25.4
100
AcDbLine
 10
243.9013686188
 20
369.4656048111
 30
0.0
 11
243.9013686188
 21
332.4119680389
 31
0.0
  0
LINE
  5
21F
330
1C5
100
AcDbEntity
  8
DV3_Default
  6
Continuous
 62
     7
 48
25.4
100
AcDbLine
 10
242.9291269434
 20
332.4119680389
 30
0.0
 11
243.9013686188
 21
332.4119680389
 31
0.0
  0
LINE
  5
220
330
1C5
100
AcDbEntity
  8
DV3_Default
  6
Continuous
 62
     7
 48
25.4
100
AcDbLine
 10
245.4013686188
 20
375.9595766712
 30
0.0
 11
245.4013686188
 21
366.9656048111
 31
0.0
  0
LINE
  5
221
330
1C5
100
AcDbEntity
  8
DV3_Default
  6
Continuous
 62
     7
 48
25.4
100
AcDbLine
 10
245.4013686188
 20
334.9119690977
 30
0.0
 11
245.4013686188
 21
303.9595766712
 31
0.0
  0
LINE
  5
222
330
1C5
100
AcDbEntity
  8
DV3_Default
  6
Continuous
 62
     7
 48
25.4
100
AcDbLine
 10
236.5262334706
 20
292.4595766712
 30
0.0
 11
236.5262334706
 21
330.2595766712
 31
0.0
  0
LINE
  5
223
330
1C5
100
AcDbEntity
  8
DV3_Default
  6
Continuous
 62
     7
 48
25.4
100
AcDbLine
 10
162.5262334706
 20
374.9595766712
 30
0.0
 11
162.5262334706
 21
362.4595766712
 31
0.0
  0
LINE
  5
224
330
1C5
100
AcDbEntity
  8
DV3_Default
  6
Continuous
 62
     7
 48
25.4
100
AcDbLine
 10
177.7209108952
 20
235.8595766712
 30
0.0
 11
138.5262334706
 21
235.8595766712
 31
0.0
  0
LINE
  5
225
330
1C5
100
AcDbEntity
  8
DV3_Default
  6
Continuous
 62
     7
 48
25.4
100
AcDbLine
 10
177.7209108952
 20
244.0798285648
 30
0.0
 11
138.5262334706
 21
244.0798285648
 31
0.0
  0
LINE
  5
226
330
1C5
100
AcDbEntity
  8
DV3_Default
  6
Continuous
 62
     7
 48
25.4
100
AcDbLine
 10
223.5262334706
 20
246.0595766712
 30
0.0
 11
167.5262334706
 21
246.0595766712
 31
0.0
  0
LINE
  5
227
330
1C5
100
AcDbEntity
  8
DV3_Default
  6
Continuous
 62
     7
 48
25.4
100
AcDbLine
 10
223.5262334706
 20
231.5595766712
 30
0.0
 11
236.5262334706
 21
231.5595766712
 31
0.0
  0
LINE
  5
228
330
1C5
100
AcDbEntity
  8
DV3_Default
  6
Continuous
 62
     7
 48
25.4
100
AcDbLine
 10
223.5262334706
 20
248.5595766712
 30
0.0
 11
236.5262334706
 21
248.5595766712
 31
0.0
  0
LINE
  5
229
330
1C5
100
AcDbEntity
  8
DV3_Default
  6
Continuous
 62
     7
 48
25.4
100
AcDbLine
 10
236.5262334706
 20
292.4595766712
 30
0.0
 11
236.5262334706
 21
209.9595766712
 31
0.0
  0
LINE
  5
22A
330
1C5
100
AcDbEntity
  8
DV3_Default
  6
Continuous
 62
     7
 48
25.4
100
AcDbLine
 10
236.5262334706
 20
209.9595766712
 30
0.0
 11
162.5262334706
 21
209.9595766712
 31
0.0
  0
LINE
  5
22B
330
1C5
100
AcDbEntity
  8
DV3_Default
  6
Continuous
 62
     7
 48
25.4
100
AcDbLine
 10
162.5262334706
 20
209.9595766712
 30
0.0
 11
162.5262334706
 21
222.4595766712
 31
0.0
  0
LINE
  5
22C
330
1C5
100
AcDbEntity
  8
DV3_Default
  6
Continuous
 62
     7
 48
25.4
100
AcDbLine
 10
187.5262334706
 20
267.4595766712
 30
0.0
 11
187.5262334706
 21
255.9595766712
 31
0.0
  0
ARC
  5
22D
330
1C5
100
AcDbEntity
  8
DV3_Default
  6
Continuous
 62
     7
 48
25.4
100
AcDbCircle
 10
188.5262334706
 20
255.9595766712
 30
0.0
 40
1.0
100
AcDbArc
 50
180.0
 51
270.0
  0
LINE
  5
22E
330
1C5
100
AcDbEntity
  8
DV3_Default
  6
Continuous
 62
     7
 48
25.4
100
AcDbLine
 10
236.5262334706
 20
292.4595766712
 30
0.0
 11
236.5262334706
 21
242.4595766712
 31
0.0
  0
LINE
  5
22F
330
1C5
100
AcDbEntity
  8
DV3_Default
  6
Continuous
 62
     7
 48
25.4
100
AcDbLine
 10
236.5262334706
 20
242.4595766712
 30
0.0
 11
227.5262334706
 21
242.4595766712
 31
0.0
  0
LINE
  5
230
330
1C5
100
AcDbEntity
  8
DV3_Default
  6
Continuous
 62
     7
 48
25.4
100
AcDbLine
 10
227.5262334706
 20
255.4595766712
 30
0.0
 11
227.5262334706
 21
280.4595766712
 31
0.0
  0
LINE
  5
231
330
1C5
100
AcDbEntity
  8
DV3_Default
  6
Continuous
 62
     7
 48
25.4
100
AcDbLine
 10
236.5262334706
 20
292.4595766712
 30
0.0
 11
236.5262334706
 21
281.9595766712
 31
0.0
  0
LINE
  5
232
330
1C5
100
AcDbEntity
  8
DV3_Default
  6
Continuous
 62
     7
 48
25.4
100
AcDbLine
 10
236.5262334706
 20
292.4595766712
 30
0.0
 11
236.5262334706
 21
280.4595766712
 31
0.0
  0
LINE
  5
233
330
1C5
100
AcDbEntity
  8
DV3_Default
  6
CENTER2
 62
     7
 48
25.4
100
AcDbLine
 10
236.5262334706
 20
249.0595766712
 30
0.0
 11
215.2363767806
 21
249.0595766712
 31
0.0
  0
LINE
  5
234
330
1C5
100
AcDbEntity
  8
DV3_Default
  6
Continuous
 62
     7
 48
25.4
100
AcDbLine
 10
236.5262334706
 20
249.0595766712
 30
0.0
 11
236.5262334706
 21
244.3095766712
 31
0.0
  0
LINE
  5
235
330
1C5
100
AcDbEntity
  8
DV3_Default
  6
Continuous
 62
     7
 48
25.4
100
AcDbLine
 10
236.5262334706
 20
244.3095766712
 30
0.0
 11
231.0262334706
 21
244.3095766712
 31
0.0
  0
LINE
  5
236
330
1C5
100
AcDbEntity
  8
DV3_Default
  6
Continuous
 62
     7
 48
25.4
100
AcDbLine
 10
231.0262334706
 20
244.3095766712
 30
0.0
 11
231.0262334706
 21
249.0595766712
 31
0.0
  0
LINE
  5
237
330
1C5
100
AcDbEntity
  8
DV3_Default
  6
Continuous
 62
     7
 48
25.4
100
AcDbLine
 10
231.0262334706
 20
247.0595766712
 30
0.0
 11
221.0262334706
 21
247.0595766712
 31
0.0
  0
LINE
  5
238
330
1C5
100
AcDbEntity
  8
DV3_Default
  6
Continuous
 62
     7
 48
25.4
100
AcDbLine
 10
231.0262334706
 20
249.0595766712
 30
0.0
 11
231.0262334706
 21
244.8095766712
 31
0.0
  0
LINE
  5
239
330
1C5
100
AcDbEntity
  8
DV3_Default
  6
Continuous
 62
     7
 48
25.4
100
AcDbLine
 10
231.0262334706
 20
244.8095766712
 30
0.0
 11
235.5262334706
 21
244.8095766712
 31
0.0
  0
LINE
  5
23A
330
1C5
100
AcDbEntity
  8
DV3_Default
  6
Continuous
 62
     7
 48
25.4
100
AcDbLine
 10
236.0262334706
 20
245.3095766712
 30
0.0
 11
236.0262334706
 21
249.0595766712
 31
0.0
  0
LINE
  5
23B
330
1C5
100
AcDbEntity
  8
DV3_Default
  6
Continuous
 62
     7
 48
25.4
100
AcDbLine
 10
235.5262334706
 20
244.8095766712
 30
0.0
 11
236.0262334706
 21
245.3095766712
 31
0.0
  0
LINE
  5
23C
330
1C5
100
AcDbEntity
  8
DV3_Default
  6
Continuous
 62
     7
 48
25.4
100
AcDbLine
 10
235.5262334706
 20
244.8095766712
 30
0.0
 11
235.5262334706
 21
249.0595766712
 31
0.0
  0
LINE
  5
23D
330
1C5
100
AcDbEntity
  8
DV3_Default
  6
Continuous
 62
     7
 48
25.4
100
AcDbLine
 10
236.5262334706
 20
249.0595766712
 30
0.0
 11
236.5262334706
 21
253.8095766712
 31
0.0
  0
LINE
  5
23E
330
1C5
100
AcDbEntity
  8
DV3_Default
  6
Continuous
 62
     7
 48
25.4
100
AcDbLine
 10
236.5262334706
 20
253.8095766712
 30
0.0
 11
231.0262334706
 21
253.8095766712
 31
0.0
  0
LINE
  5
23F
330
1C5
100
AcDbEntity
  8
DV3_Default
  6
Continuous
 62
     7
 48
25.4
100
AcDbLine
 10
231.0262334706
 20
253.8095766712
 30
0.0
 11
231.0262334706
 21
249.0595766712
 31
0.0
  0
LINE
  5
240
330
1C5
100
AcDbEntity
  8
DV3_Default
  6
Continuous
 62
     7
 48
25.4
100
AcDbLine
 10
231.0262334706
 20
251.5595766712
 30
0.0
 11
221.0262334706
 21
251.5595766712
 31
0.0
  0
LINE
  5
241
330
1C5
100
AcDbEntity
  8
DV3_Default
  6
Continuous
 62
     7
 48
25.4
100
AcDbLine
 10
231.0262334706
 20
251.0595766712
 30
0.0
 11
221.0262334706
 21
251.0595766712
 31
0.0
  0
LINE
  5
242
330
1C5
100
AcDbEntity
  8
DV3_Default
  6
Continuous
 62
     7
 48
25.4
100
AcDbLine
 10
231.0262334706
 20
249.0595766712
 30
0.0
 11
231.0262334706
 21
253.3095766712
 31
0.0
  0
LINE
  5
243
330
1C5
100
AcDbEntity
  8
DV3_Default
  6
Continuous
 62
     7
 48
25.4
100
AcDbLine
 10
231.0262334706
 20
253.3095766712
 30
0.0
 11
235.5262334706
 21
253.3095766712
 31
0.0
  0
LINE
  5
244
330
1C5
100
AcDbEntity
  8
DV3_Default
  6
Continuous
 62
     7
 48
25.4
100
AcDbLine
 10
236.0262334706
 20
252.8095766712
 30
0.0
 11
236.0262334706
 21
249.0595766712
 31
0.0
  0
LINE
  5
245
330
1C5
100
AcDbEntity
  8
DV3_Default
  6
Continuous
 62
     7
 48
25.4
100
AcDbLine
 10
235.5262334706
 20
253.3095766712
 30
0.0
 11
236.0262334706
 21
252.8095766712
 31
0.0
  0
LINE
  5
246
330
1C5
100
AcDbEntity
  8
DV3_Default
  6
Continuous
 62
     7
 48
25.4
100
AcDbLine
 10
235.5262334706
 20
253.3095766712
 30
0.0
 11
235.5262334706
 21
249.0595766712
 31
0.0
  0
LINE
  5
247
330
1C5
100
AcDbEntity
  8
DV3_Default
  6
Continuous
 62
     7
 48
25.4
100
AcDbLine
 10
219.0262334706
 20
246.5595766712
 30
0.0
 11
219.0262334706
 21
251.5595766712
 31
0.0
  0
LINE
  5
248
330
1C5
100
AcDbEntity
  8
DV3_Default
  6
Continuous
 62
     7
 48
25.4
100
AcDbLine
 10
219.0262334706
 20
251.5595766712
 30
0.0
 11
221.0262334706
 21
251.5595766712
 31
0.0
  0
LINE
  5
249
330
1C5
100
AcDbEntity
  8
DV3_Default
  6
Continuous
 62
     7
 48
25.4
100
AcDbLine
 10
219.0262334706
 20
246.5595766712
 30
0.0
 11
231.0262334706
 21
246.5595766712
 31
0.0
  0
LINE
  5
24A
330
1C5
100
AcDbEntity
  8
DV3_Default
  6
Continuous
 62
     7
 48
25.4
100
AcDbLine
 10
221.0262334706
 20
247.0595766712
 30
0.0
 11
219.0262334706
 21
247.0595766712
 31
0.0
  0
LINE
  5
24B
330
1C5
100
AcDbEntity
  8
DV3_Default
  6
Continuous
 62
     7
 48
25.4
100
AcDbLine
 10
221.0262334706
 20
251.0595766712
 30
0.0
 11
219.0262334706
 21
251.0595766712
 31
0.0
  0
LINE
  5
24C
330
1C5
100
AcDbEntity
  8
DV3_Default
  6
Continuous
 62
     7
 48
25.4
100
AcDbLine
 10
167.5262334706
 20
254.9595766712
 30
0.0
 11
227.0262334706
 21
254.9595766712
 31
0.0
  0
LINE
  5
24D
330
1C5
100
AcDbEntity
  8
DV3_Default
  6
Continuous
 62
     7
 48
25.4
100
AcDbLine
 10
227.5262334706
 20
253.9595766712
 30
0.0
 11
230.0262334706
 21
253.9595766712
 31
0.0
  0
LINE
  5
24E
330
1C5
100
AcDbEntity
  8
DV3_Default
  6
Continuous
 62
     7
 48
25.4
100
AcDbLine
 10
231.0262334706
 20
254.9595766712
 30
0.0
 11
231.0262334706
 21
279.4595766712
 31
0.0
  0
ARC
  5
24F
330
1C5
100
AcDbEntity
  8
DV3_Default
  6
Continuous
 62
     7
 48
25.4
100
AcDbCircle
 10
227.0262334706
 20
255.4595766712
 30
0.0
 40
0.5
100
AcDbArc
 50
270.0
 51
360.0
  0
LINE
  5
250
330
1C5
100
AcDbEntity
  8
DV3_Default
  6
Continuous
 62
     7
 48
25.4
100
AcDbLine
 10
227.5262334706
 20
255.4595766712
 30
0.0
 11
227.5262334706
 21
242.4595766712
 31
0.0
  0
ARC
  5
251
330
1C5
100
AcDbEntity
  8
DV3_Default
  6
Continuous
 62
     7
 48
25.4
100
AcDbCircle
 10
230.0262334706
 20
254.9595766712
 30
0.0
 40
1.0
100
AcDbArc
 50
270.0
 51
360.0
  0
ARC
  5
252
330
1C5
100
AcDbEntity
  8
DV3_Default
  6
Continuous
 62
     7
 48
25.4
100
AcDbCircle
 10
230.0262334706
 20
279.4595766712
 30
0.0
 40
1.0
100
AcDbArc
 50
0.0
 51
90.0
  0
LINE
  5
253
330
1C5
100
AcDbEntity
  8
DV3_Default
  6
Continuous
 62
     7
 48
25.4
100
AcDbLine
 10
186.5262334706
 20
268.4595766712
 30
0.0
 11
181.5262334706
 21
268.4595766712
 31
0.0
  0
ARC
  5
254
330
1C5
100
AcDbEntity
  8
DV3_Default
  6
Continuous
 62
     7
 48
25.4
100
AcDbCircle
 10
186.5262334706
 20
267.4595766712
 30
0.0
 40
1.0
100
AcDbArc
 50
0.0
 51
90.0
  0
ARC
  5
255
330
1C5
100
AcDbEntity
  8
DV3_Default
  6
Continuous
 62
     7
 48
25.4
100
AcDbCircle
 10
181.5262334706
 20
269.4595766712
 30
0.0
 40
1.0
100
AcDbArc
 50
180.0
 51
270.0
  0
LINE
  5
256
330
1C5
100
AcDbEntity
  8
DV3_Default
  6
CENTER2
 62
     7
 48
25.4
100
AcDbLine
 10
184.0262334706
 20
266.262445436
 30
0.0
 11
184.0262334706
 21
277.6567079065
 31
0.0
  0
LINE
  5
257
330
1C5
100
AcDbEntity
  8
DV3_Default
  6
Continuous
 62
     7
 48
25.4
100
AcDbLine
 10
201.0283977106
 20
292.4595766712
 30
0.0
 11
201.0283977106
 21
275.4595766712
 31
0.0
  0
LINE
  5
258
330
1C5
100
AcDbEntity
  8
DV3_Default
  6
Continuous
 62
     7
 48
25.4
100
AcDbLine
 10
201.0283977106
 20
275.4595766712
 30
0.0
 11
152.5262334706
 21
275.4595766712
 31
0.0
  0
LINE
  5
259
330
1C5
100
AcDbEntity
  8
DV3_Default
  6
Continuous
 62
     7
 48
25.4
100
AcDbLine
 10
152.5262334706
 20
275.4595766712
 30
0.0
 11
67.0262334706
 21
275.4595766712
 31
0.0
  0
LINE
  5
25A
330
1C5
100
AcDbEntity
  8
DV3_Default
  6
Continuous
 62
     7
 48
25.4
100
AcDbLine
 10
30.0262334706
 20
285.9595766712
 30
0.0
 11
30.0262334706
 21
292.4595766712
 31
0.0
  0
LINE
  5
25B
330
1C5
100
AcDbEntity
  8
DV3_Default
  6
Continuous
 62
     7
 48
25.4
100
AcDbLine
 10
184.0262334706
 20
268.4595766712
 30
0.0
 11
181.5262334706
 21
268.4595766712
 31
0.0
  0
LINE
  5
25C
330
1C5
100
AcDbEntity
  8
DV3_Default
  6
Continuous
 62
     7
 48
25.4
100
AcDbLine
 10
181.5262334706
 20
268.4595766712
 30
0.0
 11
181.5262334706
 21
275.4595766712
 31
0.0
  0
LINE
  5
25D
330
1C5
100
AcDbEntity
  8
DV3_Default
  6
Continuous
 62
     7
 48
25.4
100
AcDbLine
 10
186.5262334706
 20
275.4595766712
 30
0.0
 11
186.5262334706
 21
268.4595766712
 31
0.0
  0
LINE
  5
25E
330
1C5
100
AcDbEntity
  8
DV3_Default
  6
Continuous
 62
     7
 48
25.4
100
AcDbLine
 10
182.0262334706
 20
268.4595766712
 30
0.0
 11
182.0262334706
 21
275.4595766712
 31
0.0
  0
LINE
  5
25F
330
1C5
100
AcDbEntity
  8
DV3_Default
  6
Continuous
 62
     7
 48
25.4
100
AcDbLine
 10
186.0262334706
 20
268.4595766712
 30
0.0
 11
186.0262334706
 21
275.4595766712
 31
0.0
  0
LINE
  5
260
330
1C5
100
AcDbEntity
  8
DV3_Default
  6
Continuous
 62
     7
 48
25.4
100
AcDbLine
 10
181.5262334706
 20
274.4595766712
 30
0.0
 11
186.5262334706
 21
274.4595766712
 31
0.0
  0
LINE
  5
261
330
1C5
100
AcDbEntity
  8
DV3_Default
  6
Continuous
 62
     7
 48
25.4
100
AcDbLine
 10
181.5262334706
 20
269.4595766712
 30
0.0
 11
186.5262334706
 21
269.4595766712
 31
0.0
  0
LINE
  5
262
330
1C5
100
AcDbEntity
  8
DV3_Default
  6
Continuous
 62
     7
 48
25.4
100
AcDbLine
 10
181.5262334706
 20
274.4595766712
 30
0.0
 11
182.8752562045
 21
275.4595766712
 31
0.0
  0
LINE
  5
263
330
1C5
100
AcDbEntity
  8
DV3_Default
  6
Continuous
 62
     7
 48
25.4
100
AcDbLine
 10
185.1772562045
 20
275.4595766712
 30
0.0
 11
186.5262334706
 21
274.4595766712
 31
0.0
  0
LINE
  5
264
330
1C5
100
AcDbEntity
  8
DV3_Default
  6
Continuous
 62
     7
 48
25.4
100
AcDbLine
 10
181.5262334706
 20
269.4595766712
 30
0.0
 11
182.3922588744
 21
268.9595766712
 31
0.0
  0
LINE
  5
265
330
1C5
100
AcDbEntity
  8
DV3_Default
  6
Continuous
 62
     7
 48
25.4
100
AcDbLine
 10
186.5262334706
 20
269.4595766712
 30
0.0
 11
185.6602080669
 21
268.9595766712
 31
0.0
  0
LINE
  5
266
330
1C5
100
AcDbEntity
  8
DV3_Default
  6
Continuous
 62
     7
 48
25.4
100
AcDbLine
 10
185.6602080669
 20
268.9595766712
 30
0.0
 11
182.3922588744
 21
268.9595766712
 31
0.0
  0
LINE
  5
267
330
1C5
100
AcDbEntity
  8
DV3_Default
  6
Continuous
 62
     7
 48
25.4
100
AcDbLine
 10
177.0283977106
 20
275.4595766712
 30
0.0
 11
177.0283977106
 21
276.4595766712
 31
0.0
  0
LINE
  5
268
330
1C5
100
AcDbEntity
  8
DV3_Default
  6
Continuous
 62
     7
 48
25.4
100
AcDbLine
 10
177.0283977106
 20
276.4595766712
 30
0.0
 11
201.0283977106
 21
276.4595766712
 31
0.0
  0
LINE
  5
269
330
1C5
100
AcDbEntity
  8
DV3_Default
  6
Continuous
 62
     7
 48
25.4
100
AcDbLine
 10
201.0283977106
 20
275.4595766712
 30
0.0
 11
201.0283977106
 21
274.9595766712
 31
0.0
  0
LINE
  5
26A
330
1C5
100
AcDbEntity
  8
DV3_Default
  6
Continuous
 62
     7
 48
25.4
100
AcDbLine
 10
201.0283977106
 20
274.9595766712
 30
0.0
 11
198.0283977106
 21
274.9595766712
 31
0.0
  0
LINE
  5
26B
330
1C5
100
AcDbEntity
  8
DV3_Default
  6
Continuous
 62
     7
 48
25.4
100
AcDbLine
 10
198.0283977106
 20
274.9595766712
 30
0.0
 11
198.0283977106
 21
276.4595766712
 31
0.0
  0
LINE
  5
26C
330
1C5
100
AcDbEntity
  8
DV3_Default
  6
Continuous
 62
     7
 48
25.4
100
AcDbLine
 10
67.0262334706
 20
275.4595766712
 30
0.0
 11
66.0262334706
 21
276.4595766712
 31
0.0
  0
LINE
  5
26D
330
1C5
100
AcDbEntity
  8
DV3_Default
  6
Continuous
 62
     7
 48
25.4
100
AcDbLine
 10
138.5262334706
 20
235.0595766712
 30
0.0
 11
138.5262334706
 21
245.0595766712
 31
0.0
  0
LINE
  5
26E
330
1C5
100
AcDbEntity
  8
DV3_Default
  6
CENTER2
 62
     7
 48
25.4
100
AcDbLine
 10
135.0262334706
 20
240.0595766712
 30
0.0
 11
242.5903351083
 21
240.0595766712
 31
0.0
  0
LINE
  5
26F
330
1C5
100
AcDbEntity
  8
DV3_Default
  6
Continuous
 62
     7
 48
25.4
100
AcDbLine
 10
152.5262334706
 20
275.4595766712
 30
0.0
 11
152.5262334706
 21
245.0595766712
 31
0.0
  0
LINE
  5
270
330
1C5
100
AcDbEntity
  8
DV3_Default
  6
Continuous
 62
     7
 48
25.4
100
AcDbLine
 10
167.5262334706
 20
275.4595766712
 30
0.0
 11
167.5262334706
 21
245.0595766712
 31
0.0
  0
LINE
  5
271
330
1C5
100
AcDbEntity
  8
DV3_Default
  6
Continuous
 62
     7
 48
25.4
100
AcDbLine
 10
204.0283977106
 20
280.4595766712
 30
0.0
 11
204.0283977106
 21
292.4595766712
 31
0.0
  0
LINE
  5
272
330
1C5
100
AcDbEntity
  8
DV3_Default
  6
Continuous
 62
     7
 48
25.4
100
AcDbLine
 10
201.0283977106
 20
279.4595766712
 30
0.0
 11
128.5262334706
 21
279.4595766712
 31
0.0
  0
LINE
  5
273
330
1C5
100
AcDbEntity
  8
DV3_Default
  6
Continuous
 62
     7
 48
25.4
100
AcDbLine
 10
128.5262334706
 20
279.4595766712
 30
0.0
 11
128.5262334706
 21
292.4595766712
 31
0.0
  0
LINE
  5
274
330
1C5
100
AcDbEntity
  8
DV3_Default
  6
Continuous
 62
     7
 48
25.4
100
AcDbLine
 10
128.5262334706
 20
280.4595766712
 30
0.0
 11
143.0262334706
 21
280.4595766712
 31
0.0
  0
LINE
  5
275
330
1C5
100
AcDbEntity
  8
DV3_Default
  6
Continuous
 62
     7
 48
25.4
100
AcDbLine
 10
144.5262334706
 20
281.9595766712
 30
0.0
 11
144.5262334706
 21
292.4595766712
 31
0.0
  0
LINE
  5
276
330
1C5
100
AcDbEntity
  8
DV3_Default
  6
Continuous
 62
     7
 48
25.4
100
AcDbLine
 10
143.0262334706
 20
280.4595766712
 30
0.0
 11
144.5262334706
 21
281.9595766712
 31
0.0
  0
LINE
  5
277
330
1C5
100
AcDbEntity
  8
DV3_Default
  6
Continuous
 62
     7
 48
25.4
100
AcDbLine
 10
143.0262334706
 20
280.4595766712
 30
0.0
 11
143.0262334706
 21
292.4595766712
 31
0.0
  0
LINE
  5
278
330
1C5
100
AcDbEntity
  8
DV3_Default
  6
Continuous
 62
     7
 48
25.4
100
AcDbLine
 10
31.5262334706
 20
284.4595766712
 30
0.0
 11
128.5262334706
 21
284.4595766712
 31
0.0
  0
LINE
  5
279
330
1C5
100
AcDbEntity
  8
DV3_Default
  6
Continuous
 62
     7
 48
25.4
100
AcDbLine
 10
98.0262334706
 20
284.4595766712
 30
0.0
 11
98.0262334706
 21
292.4595766712
 31
0.0
  0
LINE
  5
27A
330
1C5
100
AcDbEntity
  8
DV3_Default
  6
Continuous
 62
     7
 48
25.4
100
AcDbLine
 10
230.0262334706
 20
280.4595766712
 30
0.0
 11
201.0283977106
 21
280.4595766712
 31
0.0
  0
LINE
  5
27B
330
1C5
100
AcDbEntity
  8
DV3_Default
  6
Continuous
 62
     7
 48
25.4
100
AcDbLine
 10
236.5262334706
 20
281.9595766712
 30
0.0
 11
204.0283977106
 21
281.9595766712
 31
0.0
  0
LINE
  5
27C
330
1C5
100
AcDbEntity
  8
DV3_Default
  6
Continuous
 62
     7
 48
25.4
100
AcDbLine
 10
178.5262334706
 20
292.4595766712
 30
0.0
 11
152.5262334706
 21
292.4595766712
 31
0.0
  0
LINE
  5
27D
330
1C5
100
AcDbEntity
  8
DV3_Default
  6
Continuous
 62
     7
 48
25.4
100
AcDbLine
 10
187.5262334706
 20
317.4595766712
 30
0.0
 11
187.5262334706
 21
328.9595766712
 31
0.0
  0
ARC
  5
27E
330
1C5
100
AcDbEntity
  8
DV3_Default
  6
Continuous
 62
     7
 48
25.4
100
AcDbCircle
 10
188.5262334706
 20
328.9595766712
 30
0.0
 40
1.0
100
AcDbArc
 50
90.0
 51
180.0
  0
LINE
  5
27F
330
1C5
100
AcDbEntity
  8
DV3_Default
  6
Continuous
 62
     7
 48
25.4
100
AcDbLine
 10
236.5262334706
 20
292.4595766712
 30
0.0
 11
236.5262334706
 21
302.9595766712
 31
0.0
  0
LINE
  5
280
330
1C5
100
AcDbEntity
  8
DV3_Default
  6
Continuous
 62
     7
 48
25.4
100
AcDbLine
 10
236.5262334706
 20
292.4595766712
 30
0.0
 11
236.5262334706
 21
304.4595766712
 31
0.0
  0
LINE
  5
281
330
1C5
100
AcDbEntity
  8
DV3_Default
  6
Continuous
 62
     7
 48
25.4
100
AcDbLine
 10
167.5262334706
 20
329.9595766712
 30
0.0
 11
194.4997330593
 21
329.9595766712
 31
0.0
  0
ARC
  5
282
330
1C5
100
AcDbEntity
  8
DV3_Default
  6
Continuous
 62
     7
 48
25.4
100
AcDbCircle
 10
230.0262334706
 20
305.4595766712
 30
0.0
 40
1.0
100
AcDbArc
 50
270.0
 51
360.0
  0
LINE
  5
283
330
1C5
100
AcDbEntity
  8
DV3_Default
  6
Continuous
 62
     7
 48
25.4
100
AcDbLine
 10
186.5262334706
 20
316.4595766712
 30
0.0
 11
181.5262334706
 21
316.4595766712
 31
0.0
  0
ARC
  5
284
330
1C5
100
AcDbEntity
  8
DV3_Default
  6
Continuous
 62
     7
 48
25.4
100
AcDbCircle
 10
186.5262334706
 20
317.4595766712
 30
0.0
 40
1.0
100
AcDbArc
 50
270.0
 51
360.0
  0
ARC
  5
285
330
1C5
100
AcDbEntity
  8
DV3_Default
  6
Continuous
 62
     7
 48
25.4
100
AcDbCircle
 10
181.5262334706
 20
315.4595766712
 30
0.0
 40
1.0
100
AcDbArc
 50
90.0
 51
180.0
  0
LINE
  5
286
330
1C5
100
AcDbEntity
  8
DV3_Default
  6
Continuous
 62
     7
 48
25.4
100
AcDbLine
 10
201.0283977106
 20
292.4595766712
 30
0.0
 11
201.0283977106
 21
309.4595766712
 31
0.0
  0
LINE
  5
287
330
1C5
100
AcDbEntity
  8
DV3_Default
  6
Continuous
 62
     7
 48
25.4
100
AcDbLine
 10
201.0283977106
 20
309.4595766712
 30
0.0
 11
152.5262334706
 21
309.4595766712
 31
0.0
  0
LINE
  5
288
330
1C5
100
AcDbEntity
  8
DV3_Default
  6
Continuous
 62
     7
 48
25.4
100
AcDbLine
 10
152.5262334706
 20
309.4595766712
 30
0.0
 11
67.0262334706
 21
309.4595766712
 31
0.0
  0
LINE
  5
289
330
1C5
100
AcDbEntity
  8
DV3_Default
  6
Continuous
 62
     7
 48
25.4
100
AcDbLine
 10
30.0262334706
 20
298.9595766712
 30
0.0
 11
30.0262334706
 21
292.4595766712
 31
0.0
  0
LINE
  5
28A
330
1C5
100
AcDbEntity
  8
DV3_Default
  6
Continuous
 62
     7
 48
25.4
100
AcDbLine
 10
184.0262334706
 20
316.4595766712
 30
0.0
 11
181.5262334706
 21
316.4595766712
 31
0.0
  0
LINE
  5
28B
330
1C5
100
AcDbEntity
  8
DV3_Default
  6
Continuous
 62
     7
 48
25.4
100
AcDbLine
 10
177.0283977106
 20
309.4595766712
 30
0.0
 11
177.0283977106
 21
308.4595766712
 31
0.0
  0
LINE
  5
28C
330
1C5
100
AcDbEntity
  8
DV3_Default
  6
Continuous
 62
     7
 48
25.4
100
AcDbLine
 10
177.0283977106
 20
308.4595766712
 30
0.0
 11
201.0283977106
 21
308.4595766712
 31
0.0
  0
LINE
  5
28D
330
1C5
100
AcDbEntity
  8
DV3_Default
  6
Continuous
 62
     7
 48
25.4
100
AcDbLine
 10
201.0283977106
 20
309.4595766712
 30
0.0
 11
201.0283977106
 21
309.9595766712
 31
0.0
  0
LINE
  5
28E
330
1C5
100
AcDbEntity
  8
DV3_Default
  6
Continuous
 62
     7
 48
25.4
100
AcDbLine
 10
201.0283977106
 20
309.9595766712
 30
0.0
 11
198.0283977106
 21
309.9595766712
 31
0.0
  0
LINE
  5
28F
330
1C5
100
AcDbEntity
  8
DV3_Default
  6
Continuous
 62
     7
 48
25.4
100
AcDbLine
 10
198.0283977106
 20
309.9595766712
 30
0.0
 11
198.0283977106
 21
308.4595766712
 31
0.0
  0
LINE
  5
290
330
1C5
100
AcDbEntity
  8
DV3_Default
  6
Continuous
 62
     7
 48
25.4
100
AcDbLine
 10
67.0262334706
 20
309.4595766712
 30
0.0
 11
66.0262334706
 21
308.4595766712
 31
0.0
  0
LINE
  5
291
330
1C5
100
AcDbEntity
  8
DV3_Default
  6
Continuous
 62
     7
 48
25.4
100
AcDbLine
 10
204.0283977106
 20
304.4595766712
 30
0.0
 11
204.0283977106
 21
292.4595766712
 31
0.0
  0
LINE
  5
292
330
1C5
100
AcDbEntity
  8
DV3_Default
  6
Continuous
 62
     7
 48
25.4
100
AcDbLine
 10
162.5262334706
 20
305.4595766712
 30
0.0
 11
128.5262334706
 21
305.4595766712
 31
0.0
  0
LINE
  5
293
330
1C5
100
AcDbEntity
  8
DV3_Default
  6
Continuous
 62
     7
 48
25.4
100
AcDbLine
 10
128.5262334706
 20
305.4595766712
 30
0.0
 11
128.5262334706
 21
292.4595766712
 31
0.0
  0
LINE
  5
294
330
1C5
100
AcDbEntity
  8
DV3_Default
  6
Continuous
 62
     7
 48
25.4
100
AcDbLine
 10
128.5262334706
 20
304.4595766712
 30
0.0
 11
143.0262334706
 21
304.4595766712
 31
0.0
  0
LINE
  5
295
330
1C5
100
AcDbEntity
  8
DV3_Default
  6
Continuous
 62
     7
 48
25.4
100
AcDbLine
 10
144.5262334706
 20
302.9595766712
 30
0.0
 11
144.5262334706
 21
292.4595766712
 31
0.0
  0
LINE
  5
296
330
1C5
100
AcDbEntity
  8
DV3_Default
  6
Continuous
 62
     7
 48
25.4
100
AcDbLine
 10
143.0262334706
 20
304.4595766712
 30
0.0
 11
144.5262334706
 21
302.9595766712
 31
0.0
  0
LINE
  5
297
330
1C5
100
AcDbEntity
  8
DV3_Default
  6
Continuous
 62
     7
 48
25.4
100
AcDbLine
 10
143.0262334706
 20
304.4595766712
 30
0.0
 11
143.0262334706
 21
292.4595766712
 31
0.0
  0
LINE
  5
298
330
1C5
100
AcDbEntity
  8
DV3_Default
  6
Continuous
 62
     7
 48
25.4
100
AcDbLine
 10
31.5262334706
 20
300.4595766712
 30
0.0
 11
128.5262334706
 21
300.4595766712
 31
0.0
  0
LINE
  5
299
330
1C5
100
AcDbEntity
  8
DV3_Default
  6
Continuous
 62
     7
 48
25.4
100
AcDbLine
 10
98.0262334706
 20
300.4595766712
 30
0.0
 11
98.0262334706
 21
292.4595766712
 31
0.0
  0
LINE
  5
29A
330
1C5
100
AcDbEntity
  8
DV3_Default
  6
Continuous
 62
     7
 48
25.4
100
AcDbLine
 10
230.0262334706
 20
304.4595766712
 30
0.0
 11
201.0283977106
 21
304.4595766712
 31
0.0
  0
LINE
  5
29B
330
1C5
100
AcDbEntity
  8
DV3_Default
  6
Continuous
 62
     7
 48
25.4
100
AcDbLine
 10
236.5262334706
 20
302.9595766712
 30
0.0
 11
204.0283977106
 21
302.9595766712
 31
0.0
  0
LINE
  5
29C
330
1C5
100
AcDbEntity
  8
DV3_Default
  6
Continuous
 62
     7
 48
25.4
100
AcDbLine
 10
180.5262334706
 20
315.4595766712
 30
0.0
 11
180.5262334706
 21
308.4595766712
 31
0.0
  0
LINE
  5
29D
330
1C5
100
AcDbEntity
  8
DV3_Default
  6
Continuous
 62
     7
 48
25.4
100
AcDbLine
 10
180.5262334706
 20
269.4595766712
 30
0.0
 11
180.5262334706
 21
276.4595766712
 31
0.0
  0
LINE
  5
29E
330
1C5
100
AcDbEntity
  8
DV3_Default
  6
Continuous
 62
     7
 48
25.4
100
AcDbLine
 10
231.0262334706
 20
330.2595766712
 30
0.0
 11
231.0262334706
 21
305.4595766712
 31
0.0
  0
LINE
  5
29F
330
1C5
100
AcDbEntity
  8
DV3_Default
  6
Continuous
 62
     7
 48
25.4
100
AcDbLine
 10
245.4013686188
 20
355.4656048111
 30
0.0
 11
245.4013686188
 21
346.4119690977
 31
0.0
  0
LINE
  5
2A0
330
1C5
100
AcDbEntity
  8
DV3_Default
  6
Continuous
 62
     7
 48
25.4
100
AcDbLine
 10
247.9152477811
 20
366.4656048111
 30
0.0
 11
247.9152477811
 21
355.4656048111
 31
0.0
  0
LINE
  5
2A1
330
1C5
100
AcDbEntity
  8
DV3_Default
  6
Continuous
 62
     7
 48
25.4
100
AcDbLine
 10
247.4152477811
 20
346.4119690977
 30
0.0
 11
247.4152477811
 21
335.4119690977
 31
0.0
  0
LINE
  5
2A2
330
1C5
100
AcDbEntity
  8
DV3_Default
  6
Continuous
 62
     7
 48
25.4
100
AcDbLine
 10
231.0262334706
 20
330.2595766712
 30
0.0
 11
240.5262334706
 21
330.2595766712
 31
0.0
  0
LINE
  5
2A3
330
1C5
100
AcDbEntity
  8
DV3_Default
  6
Continuous
 62
     7
 48
25.4
100
AcDbLine
 10
240.5262334706
 20
330.2595766712
 30
0.0
 11
241.4013686188
 21
330.7648361846
 31
0.0
  0
LINE
  5
2A4
330
1C5
100
AcDbEntity
  8
DV3_Default
  6
Continuous
 62
     7
 48
25.4
100
AcDbLine
 10
240.5262334706
 20
374.9595766712
 30
0.0
 11
241.5262334706
 21
375.9595766712
 31
0.0
  0
LINE
  5
2A5
330
1C5
100
AcDbEntity
  8
DV3_Default
  6
Continuous
 62
     7
 48
25.4
100
AcDbLine
 10
241.4013686188
 20
374.9595766712
 30
0.0
 11
240.9638010447
 21
375.3971442453
 31
0.0
  0
LINE
  5
2A6
330
1C5
100
AcDbEntity
  8
DV3_Default
  6
Continuous
 62
     7
 48
25.4
100
AcDbLine
 10
240.9638010447
 20
375.3971442453
 30
0.0
 11
191.1617157322
 21
375.3971442453
 31
0.0
  0
SPLINE
  5
2A7
330
1C5
100
AcDbEntity
  8
DV3_Default
  6
Continuous
 62
     7
 48
25.4
100
AcDbSpline
210
0.0
220
0.0
230
1.0
 70
     8
 71
     3
 72
    13
 73
     9
 74
     0
 42
0.0000000001
 43
0.0000000001
 40
0.0
 40
0.0
 40
0.0
 40
0.0
 40
0.186899661721262
 40
0.2739090705245473
 40
0.5131508477082275
 40
0.6702012051209854
 40
0.8597411338463024
 40
1.0
 40
1.0
 40
1.0
 40
1.0
 10
167.5262334706463
 20
360.130801542193
 30
0.0
 10
172.029884567172
 20
358.0121416103427
 30
0.0
 10
173.9199315651675
 20
357.439151967314
 30
0.0
 10
191.5140765464381
 20
358.1042442496373
 30
0.0
 10
194.8368761672191
 20
340.7565024347516
 30
0.0
 10
193.3535214266378
 20
325.5556853000731
 30
0.0
 10
206.9474433899963
 20
316.6102906106993
 30
0.0
 10
208.5521939009503
 20
308.4155086649909
 30
0.0
 10
208.3664467035812
 20
304.4595766436857
 30
0.0
  0
LINE
  5
2A8
330
1C5
100
AcDbEntity
  8
DV3_Default
  6
HIDDEN2
 62
     7
 48
25.4
100
AcDbLine
 10
236.5262334706
 20
330.2595766712
 30
0.0
 11
236.5262334706
 21
374.9595766712
 31
0.0
  0
LINE
  5
2A9
330
1C5
100
AcDbEntity
  8
DV3_Default
  6
HIDDEN2
 62
     7
 48
25.4
100
AcDbLine
 10
236.5262334706
 20
374.9595766712
 30
0.0
 11
191.1617157322
 21
374.9595766712
 31
0.0
  0
LINE
  5
2AA
330
1C5
100
AcDbEntity
  8
DV3_Default
  6
Continuous
 62
     7
 48
25.4
100
AcDbLine
 10
231.0262334706
 20
328.2027750068
 30
0.0
 11
236.5262334706
 21
325.0273485263
 31
0.0
  0
LINE
  5
2AB
330
1C5
100
AcDbEntity
  8
DV3_Default
  6
Continuous
 62
     7
 48
25.4
100
AcDbLine
 10
178.5262334706
 20
292.4595766712
 30
0.0
 11
152.5262334706
 21
292.4595766712
 31
0.0
  0
LINE
  5
2AC
330
1C5
100
AcDbEntity
  8
DV3_Default
  6
Continuous
 62
     7
 48
25.4
100
AcDbLine
 10
236.5262334706
 20
292.4595766712
 30
0.0
 11
236.5262334706
 21
281.9595766712
 31
0.0
  0
LINE
  5
2AD
330
1C5
100
AcDbEntity
  8
DV3_Default
  6
Continuous
 62
     7
 48
25.4
100
AcDbLine
 10
236.5262334706
 20
292.4595766712
 30
0.0
 11
236.5262334706
 21
280.4595766712
 31
0.0
  0
ARC
  5
2AE
330
1C5
100
AcDbEntity
  8
DV3_Default
  6
Continuous
 62
     7
 48
25.4
100
AcDbCircle
 10
230.0262334706
 20
279.4595766712
 30
0.0
 40
1.0
100
AcDbArc
 50
0.0
 51
90.0
  0
LINE
  5
2AF
330
1C5
100
AcDbEntity
  8
DV3_Default
  6
Continuous
 62
     7
 48
25.4
100
AcDbLine
 10
186.5262334706
 20
268.4595766712
 30
0.0
 11
181.5262334706
 21
268.4595766712
 31
0.0
  0
ARC
  5
2B0
330
1C5
100
AcDbEntity
  8
DV3_Default
  6
Continuous
 62
     7
 48
25.4
100
AcDbCircle
 10
186.5262334706
 20
267.4595766712
 30
0.0
 40
1.0
100
AcDbArc
 50
0.0
 51
90.0
  0
ARC
  5
2B1
330
1C5
100
AcDbEntity
  8
DV3_Default
  6
Continuous
 62
     7
 48
25.4
100
AcDbCircle
 10
181.5262334706
 20
269.4595766712
 30
0.0
 40
1.0
100
AcDbArc
 50
180.0
 51
270.0
  0
LINE
  5
2B2
330
1C5
100
AcDbEntity
  8
DV3_Default
  6
CENTER2
 62
     7
 48
25.4
100
AcDbLine
 10
184.0262334706
 20
266.262445436
 30
0.0
 11
184.0262334706
 21
277.6567079065
 31
0.0
  0
LINE
  5
2B3
330
1C5
100
AcDbEntity
  8
DV3_Default
  6
Continuous
 62
     7
 48
25.4
100
AcDbLine
 10
201.0283977106
 20
292.4595766712
 30
0.0
 11
201.0283977106
 21
275.4595766712
 31
0.0
  0
LINE
  5
2B4
330
1C5
100
AcDbEntity
  8
DV3_Default
  6
Continuous
 62
     7
 48
25.4
100
AcDbLine
 10
201.0283977106
 20
275.4595766712
 30
0.0
 11
152.5262334706
 21
275.4595766712
 31
0.0
  0
LINE
  5
2B5
330
1C5
100
AcDbEntity
  8
DV3_Default
  6
Continuous
 62
     7
 48
25.4
100
AcDbLine
 10
184.0262334706
 20
268.4595766712
 30
0.0
 11
181.5262334706
 21
268.4595766712
 31
0.0
  0
LINE
  5
2B6
330
1C5
100
AcDbEntity
  8
DV3_Default
  6
Continuous
 62
     7
 48
25.4
100
AcDbLine
 10
181.5262334706
 20
268.4595766712
 30
0.0
 11
181.5262334706
 21
275.4595766712
 31
0.0
  0
LINE
  5
2B7
330
1C5
100
AcDbEntity
  8
DV3_Default
  6
Continuous
 62
     7
 48
25.4
100
AcDbLine
 10
186.5262334706
 20
275.4595766712
 30
0.0
 11
186.5262334706
 21
268.4595766712
 31
0.0
  0
LINE
  5
2B8
330
1C5
100
AcDbEntity
  8
DV3_Default
  6
Continuous
 62
     7
 48
25.4
100
AcDbLine
 10
182.0262334706
 20
268.4595766712
 30
0.0
 11
182.0262334706
 21
275.4595766712
 31
0.0
  0
LINE
  5
2B9
330
1C5
100
AcDbEntity
  8
DV3_Default
  6
Continuous
 62
     7
 48
25.4
100
AcDbLine
 10
186.0262334706
 20
268.4595766712
 30
0.0
 11
186.0262334706
 21
275.4595766712
 31
0.0
  0
LINE
  5
2BA
330
1C5
100
AcDbEntity
  8
DV3_Default
  6
Continuous
 62
     7
 48
25.4
100
AcDbLine
 10
181.5262334706
 20
274.4595766712
 30
0.0
 11
186.5262334706
 21
274.4595766712
 31
0.0
  0
LINE
  5
2BB
330
1C5
100
AcDbEntity
  8
DV3_Default
  6
Continuous
 62
     7
 48
25.4
100
AcDbLine
 10
181.5262334706
 20
269.4595766712
 30
0.0
 11
186.5262334706
 21
269.4595766712
 31
0.0
  0
LINE
  5
2BC
330
1C5
100
AcDbEntity
  8
DV3_Default
  6
Continuous
 62
     7
 48
25.4
100
AcDbLine
 10
181.5262334706
 20
274.4595766712
 30
0.0
 11
182.8752562045
 21
275.4595766712
 31
0.0
  0
LINE
  5
2BD
330
1C5
100
AcDbEntity
  8
DV3_Default
  6
Continuous
 62
     7
 48
25.4
100
AcDbLine
 10
185.1772562045
 20
275.4595766712
 30
0.0
 11
186.5262334706
 21
274.4595766712
 31
0.0
  0
LINE
  5
2BE
330
1C5
100
AcDbEntity
  8
DV3_Default
  6
Continuous
 62
     7
 48
25.4
100
AcDbLine
 10
181.5262334706
 20
269.4595766712
 30
0.0
 11
182.3922588744
 21
268.9595766712
 31
0.0
  0
LINE
  5
2BF
330
1C5
100
AcDbEntity
  8
DV3_Default
  6
Continuous
 62
     7
 48
25.4
100
AcDbLine
 10
186.5262334706
 20
269.4595766712
 30
0.0
 11
185.6602080669
 21
268.9595766712
 31
0.0
  0
LINE
  5
2C0
330
1C5
100
AcDbEntity
  8
DV3_Default
  6
Continuous
 62
     7
 48
25.4
100
AcDbLine
 10
185.6602080669
 20
268.9595766712
 30
0.0
 11
182.3922588744
 21
268.9595766712
 31
0.0
  0
LINE
  5
2C1
330
1C5
100
AcDbEntity
  8
DV3_Default
  6
Continuous
 62
     7
 48
25.4
100
AcDbLine
 10
177.0283977106
 20
275.4595766712
 30
0.0
 11
177.0283977106
 21
276.4595766712
 31
0.0
  0
LINE
  5
2C2
330
1C5
100
AcDbEntity
  8
DV3_Default
  6
Continuous
 62
     7
 48
25.4
100
AcDbLine
 10
177.0283977106
 20
276.4595766712
 30
0.0
 11
201.0283977106
 21
276.4595766712
 31
0.0
  0
LINE
  5
2C3
330
1C5
100
AcDbEntity
  8
DV3_Default
  6
Continuous
 62
     7
 48
25.4
100
AcDbLine
 10
201.0283977106
 20
275.4595766712
 30
0.0
 11
201.0283977106
 21
274.9595766712
 31
0.0
  0
LINE
  5
2C4
330
1C5
100
AcDbEntity
  8
DV3_Default
  6
Continuous
 62
     7
 48
25.4
100
AcDbLine
 10
201.0283977106
 20
274.9595766712
 30
0.0
 11
198.0283977106
 21
274.9595766712
 31
0.0
  0
LINE
  5
2C5
330
1C5
100
AcDbEntity
  8
DV3_Default
  6
Continuous
 62
     7
 48
25.4
100
AcDbLine
 10
198.0283977106
 20
274.9595766712
 30
0.0
 11
198.0283977106
 21
276.4595766712
 31
0.0
  0
LINE
  5
2C6
330
1C5
100
AcDbEntity
  8
DV3_Default
  6
Continuous
 62
     7
 48
25.4
100
AcDbLine
 10
204.0283977106
 20
280.4595766712
 30
0.0
 11
204.0283977106
 21
292.4595766712
 31
0.0
  0
LINE
  5
2C7
330
1C5
100
AcDbEntity
  8
DV3_Default
  6
Continuous
 62
     7
 48
25.4
100
AcDbLine
 10
201.0283977106
 20
279.4595766712
 30
0.0
 11
128.5262334706
 21
279.4595766712
 31
0.0
  0
LINE
  5
2C8
330
1C5
100
AcDbEntity
  8
DV3_Default
  6
Continuous
 62
     7
 48
25.4
100
AcDbLine
 10
128.5262334706
 20
279.4595766712
 30
0.0
 11
128.5262334706
 21
292.4595766712
 31
0.0
  0
LINE
  5
2C9
330
1C5
100
AcDbEntity
  8
DV3_Default
  6
Continuous
 62
     7
 48
25.4
100
AcDbLine
 10
128.5262334706
 20
280.4595766712
 30
0.0
 11
143.0262334706
 21
280.4595766712
 31
0.0
  0
LINE
  5
2CA
330
1C5
100
AcDbEntity
  8
DV3_Default
  6
Continuous
 62
     7
 48
25.4
100
AcDbLine
 10
144.5262334706
 20
281.9595766712
 30
0.0
 11
144.5262334706
 21
292.4595766712
 31
0.0
  0
LINE
  5
2CB
330
1C5
100
AcDbEntity
  8
DV3_Default
  6
Continuous
 62
     7
 48
25.4
100
AcDbLine
 10
143.0262334706
 20
280.4595766712
 30
0.0
 11
144.5262334706
 21
281.9595766712
 31
0.0
  0
LINE
  5
2CC
330
1C5
100
AcDbEntity
  8
DV3_Default
  6
Continuous
 62
     7
 48
25.4
100
AcDbLine
 10
143.0262334706
 20
280.4595766712
 30
0.0
 11
143.0262334706
 21
292.4595766712
 31
0.0
  0
LINE
  5
2CD
330
1C5
100
AcDbEntity
  8
DV3_Default
  6
Continuous
 62
     7
 48
25.4
100
AcDbLine
 10
230.0262334706
 20
280.4595766712
 30
0.0
 11
201.0283977106
 21
280.4595766712
 31
0.0
  0
LINE
  5
2CE
330
1C5
100
AcDbEntity
  8
DV3_Default
  6
Continuous
 62
     7
 48
25.4
100
AcDbLine
 10
236.5262334706
 20
281.9595766712
 30
0.0
 11
204.0283977106
 21
281.9595766712
 31
0.0
  0
LINE
  5
2CF
330
1C5
100
AcDbEntity
  8
DV3_Default
  6
Continuous
 62
     7
 48
25.4
100
AcDbLine
 10
178.5262334706
 20
292.4595766712
 30
0.0
 11
152.5262334706
 21
292.4595766712
 31
0.0
  0
LINE
  5
2D0
330
1C5
100
AcDbEntity
  8
DV3_Default
  6
Continuous
 62
     7
 48
25.4
100
AcDbLine
 10
236.5262334706
 20
292.4595766712
 30
0.0
 11
236.5262334706
 21
302.9595766712
 31
0.0
  0
LINE
  5
2D1
330
1C5
100
AcDbEntity
  8
DV3_Default
  6
Continuous
 62
     7
 48
25.4
100
AcDbLine
 10
236.5262334706
 20
292.4595766712
 30
0.0
 11
236.5262334706
 21
304.4595766712
 31
0.0
  0
ARC
  5
2D2
330
1C5
100
AcDbEntity
  8
DV3_Default
  6
Continuous
 62
     7
 48
25.4
100
AcDbCircle
 10
230.0262334706
 20
305.4595766712
 30
0.0
 40
1.0
100
AcDbArc
 50
270.0
 51
360.0
  0
LINE
  5
2D3
330
1C5
100
AcDbEntity
  8
DV3_Default
  6
Continuous
 62
     7
 48
25.4
100
AcDbLine
 10
201.0283977106
 20
292.4595766712
 30
0.0
 11
201.0283977106
 21
309.4595766712
 31
0.0
  0
LINE
  5
2D4
330
1C5
100
AcDbEntity
  8
DV3_Default
  6
Continuous
 62
     7
 48
25.4
100
AcDbLine
 10
201.0283977106
 20
309.4595766712
 30
0.0
 11
152.5262334706
 21
309.4595766712
 31
0.0
  0
LINE
  5
2D5
330
1C5
100
AcDbEntity
  8
DV3_Default
  6
Continuous
 62
     7
 48
25.4
100
AcDbLine
 10
177.0283977106
 20
309.4595766712
 30
0.0
 11
177.0283977106
 21
308.4595766712
 31
0.0
  0
LINE
  5
2D6
330
1C5
100
AcDbEntity
  8
DV3_Default
  6
Continuous
 62
     7
 48
25.4
100
AcDbLine
 10
177.0283977106
 20
308.4595766712
 30
0.0
 11
201.0283977106
 21
308.4595766712
 31
0.0
  0
LINE
  5
2D7
330
1C5
100
AcDbEntity
  8
DV3_Default
  6
Continuous
 62
     7
 48
25.4
100
AcDbLine
 10
201.0283977106
 20
309.4595766712
 30
0.0
 11
201.0283977106
 21
309.9595766712
 31
0.0
  0
LINE
  5
2D8
330
1C5
100
AcDbEntity
  8
DV3_Default
  6
Continuous
 62
     7
 48
25.4
100
AcDbLine
 10
201.0283977106
 20
309.9595766712
 30
0.0
 11
198.0283977106
 21
309.9595766712
 31
0.0
  0
LINE
  5
2D9
330
1C5
100
AcDbEntity
  8
DV3_Default
  6
Continuous
 62
     7
 48
25.4
100
AcDbLine
 10
198.0283977106
 20
309.9595766712
 30
0.0
 11
198.0283977106
 21
308.4595766712
 31
0.0
  0
LINE
  5
2DA
330
1C5
100
AcDbEntity
  8
DV3_Default
  6
Continuous
 62
     7
 48
25.4
100
AcDbLine
 10
204.0283977106
 20
304.4595766712
 30
0.0
 11
204.0283977106
 21
292.4595766712
 31
0.0
  0
LINE
  5
2DB
330
1C5
100
AcDbEntity
  8
DV3_Default
  6
Continuous
 62
     7
 48
25.4
100
AcDbLine
 10
162.5262334706
 20
305.4595766712
 30
0.0
 11
128.5262334706
 21
305.4595766712
 31
0.0
  0
LINE
  5
2DC
330
1C5
100
AcDbEntity
  8
DV3_Default
  6
Continuous
 62
     7
 48
25.4
100
AcDbLine
 10
128.5262334706
 20
305.4595766712
 30
0.0
 11
128.5262334706
 21
292.4595766712
 31
0.0
  0
LINE
  5
2DD
330
1C5
100
AcDbEntity
  8
DV3_Default
  6
Continuous
 62
     7
 48
25.4
100
AcDbLine
 10
128.5262334706
 20
304.4595766712
 30
0.0
 11
143.0262334706
 21
304.4595766712
 31
0.0
  0
LINE
  5
2DE
330
1C5
100
AcDbEntity
  8
DV3_Default
  6
Continuous
 62
     7
 48
25.4
100
AcDbLine
 10
144.5262334706
 20
302.9595766712
 30
0.0
 11
144.5262334706
 21
292.4595766712
 31
0.0
  0
LINE
  5
2DF
330
1C5
100
AcDbEntity
  8
DV3_Default
  6
Continuous
 62
     7
 48
25.4
100
AcDbLine
 10
143.0262334706
 20
304.4595766712
 30
0.0
 11
144.5262334706
 21
302.9595766712
 31
0.0
  0
LINE
  5
2E0
330
1C5
100
AcDbEntity
  8
DV3_Default
  6
Continuous
 62
     7
 48
25.4
100
AcDbLine
 10
143.0262334706
 20
304.4595766712
 30
0.0
 11
143.0262334706
 21
292.4595766712
 31
0.0
  0
LINE
  5
2E1
330
1C5
100
AcDbEntity
  8
DV3_Default
  6
Continuous
 62
     7
 48
25.4
100
AcDbLine
 10
230.0262334706
 20
304.4595766712
 30
0.0
 11
201.0283977106
 21
304.4595766712
 31
0.0
  0
LINE
  5
2E2
330
1C5
100
AcDbEntity
  8
DV3_Default
  6
Continuous
 62
     7
 48
25.4
100
AcDbLine
 10
236.5262334706
 20
302.9595766712
 30
0.0
 11
204.0283977106
 21
302.9595766712
 31
0.0
  0
LINE
  5
2E3
330
1C5
100
AcDbEntity
  8
DV3_Default
  6
Continuous
 62
     7
 48
25.4
100
AcDbLine
 10
180.5262334706
 20
315.4595766712
 30
0.0
 11
180.5262334706
 21
308.4595766712
 31
0.0
  0
LINE
  5
2E4
330
1C5
100
AcDbEntity
  8
DV3_Default
  6
Continuous
 62
     7
 48
25.4
100
AcDbLine
 10
180.5262334706
 20
269.4595766712
 30
0.0
 11
180.5262334706
 21
276.4595766712
 31
0.0
  0
LINE
  5
2E5
330
1C5
100
AcDbEntity
  8
DV3_Default
  6
Continuous
 62
     7
 48
25.4
100
AcDbLine
 10
178.5262334706
 20
292.4595766712
 30
0.0
 11
152.5262334706
 21
292.4595766712
 31
0.0
  0
LINE
  5
2E6
330
1C5
100
AcDbEntity
  8
DV3_Default
  6
Continuous
 62
     7
 48
25.4
100
AcDbLine
 10
236.5262334706
 20
292.4595766712
 30
0.0
 11
236.5262334706
 21
281.9595766712
 31
0.0
  0
LINE
  5
2E7
330
1C5
100
AcDbEntity
  8
DV3_Default
  6
Continuous
 62
     7
 48
25.4
100
AcDbLine
 10
236.5262334706
 20
292.4595766712
 30
0.0
 11
236.5262334706
 21
280.4595766712
 31
0.0
  0
ARC
  5
2E8
330
1C5
100
AcDbEntity
  8
DV3_Default
  6
Continuous
 62
     7
 48
25.4
100
AcDbCircle
 10
230.0262334706
 20
279.4595766712
 30
0.0
 40
1.0
100
AcDbArc
 50
0.0
 51
90.0
  0
LINE
  5
2E9
330
1C5
100
AcDbEntity
  8
DV3_Default
  6
Continuous
 62
     7
 48
25.4
100
AcDbLine
 10
186.5262334706
 20
268.4595766712
 30
0.0
 11
181.5262334706
 21
268.4595766712
 31
0.0
  0
ARC
  5
2EA
330
1C5
100
AcDbEntity
  8
DV3_Default
  6
Continuous
 62
     7
 48
25.4
100
AcDbCircle
 10
186.5262334706
 20
267.4595766712
 30
0.0
 40
1.0
100
AcDbArc
 50
0.0
 51
90.0
  0
ARC
  5
2EB
330
1C5
100
AcDbEntity
  8
DV3_Default
  6
Continuous
 62
     7
 48
25.4
100
AcDbCircle
 10
181.5262334706
 20
269.4595766712
 30
0.0
 40
1.0
100
AcDbArc
 50
180.0
 51
270.0
  0
LINE
  5
2EC
330
1C5
100
AcDbEntity
  8
DV3_Default
  6
CENTER2
 62
     7
 48
25.4
100
AcDbLine
 10
184.0262334706
 20
266.262445436
 30
0.0
 11
184.0262334706
 21
277.6567079065
 31
0.0
  0
LINE
  5
2ED
330
1C5
100
AcDbEntity
  8
DV3_Default
  6
Continuous
 62
     7
 48
25.4
100
AcDbLine
 10
201.0283977106
 20
292.4595766712
 30
0.0
 11
201.0283977106
 21
275.4595766712
 31
0.0
  0
LINE
  5
2EE
330
1C5
100
AcDbEntity
  8
DV3_Default
  6
Continuous
 62
     7
 48
25.4
100
AcDbLine
 10
201.0283977106
 20
275.4595766712
 30
0.0
 11
152.5262334706
 21
275.4595766712
 31
0.0
  0
LINE
  5
2EF
330
1C5
100
AcDbEntity
  8
DV3_Default
  6
Continuous
 62
     7
 48
25.4
100
AcDbLine
 10
184.0262334706
 20
268.4595766712
 30
0.0
 11
181.5262334706
 21
268.4595766712
 31
0.0
  0
LINE
  5
2F0
330
1C5
100
AcDbEntity
  8
DV3_Default
  6
Continuous
 62
     7
 48
25.4
100
AcDbLine
 10
181.5262334706
 20
268.4595766712
 30
0.0
 11
181.5262334706
 21
275.4595766712
 31
0.0
  0
LINE
  5
2F1
330
1C5
100
AcDbEntity
  8
DV3_Default
  6
Continuous
 62
     7
 48
25.4
100
AcDbLine
 10
186.5262334706
 20
275.4595766712
 30
0.0
 11
186.5262334706
 21
268.4595766712
 31
0.0
  0
LINE
  5
2F2
330
1C5
100
AcDbEntity
  8
DV3_Default
  6
Continuous
 62
     7
 48
25.4
100
AcDbLine
 10
182.0262334706
 20
268.4595766712
 30
0.0
 11
182.0262334706
 21
275.4595766712
 31
0.0
  0
LINE
  5
2F3
330
1C5
100
AcDbEntity
  8
DV3_Default
  6
Continuous
 62
     7
 48
25.4
100
AcDbLine
 10
186.0262334706
 20
268.4595766712
 30
0.0
 11
186.0262334706
 21
275.4595766712
 31
0.0
  0
LINE
  5
2F4
330
1C5
100
AcDbEntity
  8
DV3_Default
  6
Continuous
 62
     7
 48
25.4
100
AcDbLine
 10
181.5262334706
 20
274.4595766712
 30
0.0
 11
186.5262334706
 21
274.4595766712
 31
0.0
  0
LINE
  5
2F5
330
1C5
100
AcDbEntity
  8
DV3_Default
  6
Continuous
 62
     7
 48
25.4
100
AcDbLine
 10
181.5262334706
 20
269.4595766712
 30
0.0
 11
186.5262334706
 21
269.4595766712
 31
0.0
  0
LINE
  5
2F6
330
1C5
100
AcDbEntity
  8
DV3_Default
  6
Continuous
 62
     7
 48
25.4
100
AcDbLine
 10
181.5262334706
 20
274.4595766712
 30
0.0
 11
182.8752562045
 21
275.4595766712
 31
0.0
  0
LINE
  5
2F7
330
1C5
100
AcDbEntity
  8
DV3_Default
  6
Continuous
 62
     7
 48
25.4
100
AcDbLine
 10
185.1772562045
 20
275.4595766712
 30
0.0
 11
186.5262334706
 21
274.4595766712
 31
0.0
  0
LINE
  5
2F8
330
1C5
100
AcDbEntity
  8
DV3_Default
  6
Continuous
 62
     7
 48
25.4
100
AcDbLine
 10
181.5262334706
 20
269.4595766712
 30
0.0
 11
182.3922588744
 21
268.9595766712
 31
0.0
  0
LINE
  5
2F9
330
1C5
100
AcDbEntity
  8
DV3_Default
  6
Continuous
 62
     7
 48
25.4
100
AcDbLine
 10
186.5262334706
 20
269.4595766712
 30
0.0
 11
185.6602080669
 21
268.9595766712
 31
0.0
  0
LINE
  5
2FA
330
1C5
100
AcDbEntity
  8
DV3_Default
  6
Continuous
 62
     7
 48
25.4
100
AcDbLine
 10
185.6602080669
 20
268.9595766712
 30
0.0
 11
182.3922588744
 21
268.9595766712
 31
0.0
  0
LINE
  5
2FB
330
1C5
100
AcDbEntity
  8
DV3_Default
  6
Continuous
 62
     7
 48
25.4
100
AcDbLine
 10
177.0283977106
 20
275.4595766712
 30
0.0
 11
177.0283977106
 21
276.4595766712
 31
0.0
  0
LINE
  5
2FC
330
1C5
100
AcDbEntity
  8
DV3_Default
  6
Continuous
 62
     7
 48
25.4
100
AcDbLine
 10
177.0283977106
 20
276.4595766712
 30
0.0
 11
201.0283977106
 21
276.4595766712
 31
0.0
  0
LINE
  5
2FD
330
1C5
100
AcDbEntity
  8
DV3_Default
  6
Continuous
 62
     7
 48
25.4
100
AcDbLine
 10
201.0283977106
 20
275.4595766712
 30
0.0
 11
201.0283977106
 21
274.9595766712
 31
0.0
  0
LINE
  5
2FE
330
1C5
100
AcDbEntity
  8
DV3_Default
  6
Continuous
 62
     7
 48
25.4
100
AcDbLine
 10
201.0283977106
 20
274.9595766712
 30
0.0
 11
198.0283977106
 21
274.9595766712
 31
0.0
  0
LINE
  5
2FF
330
1C5
100
AcDbEntity
  8
DV3_Default
  6
Continuous
 62
     7
 48
25.4
100
AcDbLine
 10
198.0283977106
 20
274.9595766712
 30
0.0
 11
198.0283977106
 21
276.4595766712
 31
0.0
  0
LINE
  5
300
330
1C5
100
AcDbEntity
  8
DV3_Default
  6
Continuous
 62
     7
 48
25.4
100
AcDbLine
 10
204.0283977106
 20
280.4595766712
 30
0.0
 11
204.0283977106
 21
292.4595766712
 31
0.0
  0
LINE
  5
301
330
1C5
100
AcDbEntity
  8
DV3_Default
  6
Continuous
 62
     7
 48
25.4
100
AcDbLine
 10
201.0283977106
 20
279.4595766712
 30
0.0
 11
128.5262334706
 21
279.4595766712
 31
0.0
  0
LINE
  5
302
330
1C5
100
AcDbEntity
  8
DV3_Default
  6
Continuous
 62
     7
 48
25.4
100
AcDbLine
 10
128.5262334706
 20
279.4595766712
 30
0.0
 11
128.5262334706
 21
292.4595766712
 31
0.0
  0
LINE
  5
303
330
1C5
100
AcDbEntity
  8
DV3_Default
  6
Continuous
 62
     7
 48
25.4
100
AcDbLine
 10
128.5262334706
 20
280.4595766712
 30
0.0
 11
143.0262334706
 21
280.4595766712
 31
0.0
  0
LINE
  5
304
330
1C5
100
AcDbEntity
  8
DV3_Default
  6
Continuous
 62
     7
 48
25.4
100
AcDbLine
 10
144.5262334706
 20
281.9595766712
 30
0.0
 11
144.5262334706
 21
292.4595766712
 31
0.0
  0
LINE
  5
305
330
1C5
100
AcDbEntity
  8
DV3_Default
  6
Continuous
 62
     7
 48
25.4
100
AcDbLine
 10
143.0262334706
 20
280.4595766712
 30
0.0
 11
144.5262334706
 21
281.9595766712
 31
0.0
  0
LINE
  5
306
330
1C5
100
AcDbEntity
  8
DV3_Default
  6
Continuous
 62
     7
 48
25.4
100
AcDbLine
 10
143.0262334706
 20
280.4595766712
 30
0.0
 11
143.0262334706
 21
292.4595766712
 31
0.0
  0
LINE
  5
307
330
1C5
100
AcDbEntity
  8
DV3_Default
  6
Continuous
 62
     7
 48
25.4
100
AcDbLine
 10
230.0262334706
 20
280.4595766712
 30
0.0
 11
201.0283977106
 21
280.4595766712
 31
0.0
  0
LINE
  5
308
330
1C5
100
AcDbEntity
  8
DV3_Default
  6
Continuous
 62
     7
 48
25.4
100
AcDbLine
 10
236.5262334706
 20
281.9595766712
 30
0.0
 11
204.0283977106
 21
281.9595766712
 31
0.0
  0
LINE
  5
309
330
1C5
100
AcDbEntity
  8
DV3_Default
  6
Continuous
 62
     7
 48
25.4
100
AcDbLine
 10
178.5262334706
 20
292.4595766712
 30
0.0
 11
152.5262334706
 21
292.4595766712
 31
0.0
  0
LINE
  5
30A
330
1C5
100
AcDbEntity
  8
DV3_Default
  6
Continuous
 62
     7
 48
25.4
100
AcDbLine
 10
236.5262334706
 20
292.4595766712
 30
0.0
 11
236.5262334706
 21
302.9595766712
 31
0.0
  0
LINE
  5
30B
330
1C5
100
AcDbEntity
  8
DV3_Default
  6
Continuous
 62
     7
 48
25.4
100
AcDbLine
 10
236.5262334706
 20
292.4595766712
 30
0.0
 11
236.5262334706
 21
304.4595766712
 31
0.0
  0
ARC
  5
30C
330
1C5
100
AcDbEntity
  8
DV3_Default
  6
Continuous
 62
     7
 48
25.4
100
AcDbCircle
 10
230.0262334706
 20
305.4595766712
 30
0.0
 40
1.0
100
AcDbArc
 50
270.0
 51
360.0
  0
LINE
  5
30D
330
1C5
100
AcDbEntity
  8
DV3_Default
  6
Continuous
 62
     7
 48
25.4
100
AcDbLine
 10
201.0283977106
 20
292.4595766712
 30
0.0
 11
201.0283977106
 21
309.4595766712
 31
0.0
  0
LINE
  5
30E
330
1C5
100
AcDbEntity
  8
DV3_Default
  6
Continuous
 62
     7
 48
25.4
100
AcDbLine
 10
201.0283977106
 20
309.4595766712
 30
0.0
 11
152.5262334706
 21
309.4595766712
 31
0.0
  0
LINE
  5
30F
330
1C5
100
AcDbEntity
  8
DV3_Default
  6
Continuous
 62
     7
 48
25.4
100
AcDbLine
 10
177.0283977106
 20
309.4595766712
 30
0.0
 11
177.0283977106
 21
308.4595766712
 31
0.0
  0
LINE
  5
310
330
1C5
100
AcDbEntity
  8
DV3_Default
  6
Continuous
 62
     7
 48
25.4
100
AcDbLine
 10
177.0283977106
 20
308.4595766712
 30
0.0
 11
201.0283977106
 21
308.4595766712
 31
0.0
  0
LINE
  5
311
330
1C5
100
AcDbEntity
  8
DV3_Default
  6
Continuous
 62
     7
 48
25.4
100
AcDbLine
 10
201.0283977106
 20
309.4595766712
 30
0.0
 11
201.0283977106
 21
309.9595766712
 31
0.0
  0
LINE
  5
312
330
1C5
100
AcDbEntity
  8
DV3_Default
  6
Continuous
 62
     7
 48
25.4
100
AcDbLine
 10
201.0283977106
 20
309.9595766712
 30
0.0
 11
198.0283977106
 21
309.9595766712
 31
0.0
  0
LINE
  5
313
330
1C5
100
AcDbEntity
  8
DV3_Default
  6
Continuous
 62
     7
 48
25.4
100
AcDbLine
 10
198.0283977106
 20
309.9595766712
 30
0.0
 11
198.0283977106
 21
308.4595766712
 31
0.0
  0
LINE
  5
314
330
1C5
100
AcDbEntity
  8
DV3_Default
  6
Continuous
 62
     7
 48
25.4
100
AcDbLine
 10
204.0283977106
 20
304.4595766712
 30
0.0
 11
204.0283977106
 21
292.4595766712
 31
0.0
  0
LINE
  5
315
330
1C5
100
AcDbEntity
  8
DV3_Default
  6
Continuous
 62
     7
 48
25.4
100
AcDbLine
 10
201.0283977106
 20
305.4595766712
 30
0.0
 11
128.5262334706
 21
305.4595766712
 31
0.0
  0
LINE
  5
316
330
1C5
100
AcDbEntity
  8
DV3_Default
  6
Continuous
 62
     7
 48
25.4
100
AcDbLine
 10
128.5262334706
 20
305.4595766712
 30
0.0
 11
128.5262334706
 21
292.4595766712
 31
0.0
  0
LINE
  5
317
330
1C5
100
AcDbEntity
  8
DV3_Default
  6
Continuous
 62
     7
 48
25.4
100
AcDbLine
 10
128.5262334706
 20
304.4595766712
 30
0.0
 11
143.0262334706
 21
304.4595766712
 31
0.0
  0
LINE
  5
318
330
1C5
100
AcDbEntity
  8
DV3_Default
  6
Continuous
 62
     7
 48
25.4
100
AcDbLine
 10
144.5262334706
 20
302.9595766712
 30
0.0
 11
144.5262334706
 21
292.4595766712
 31
0.0
  0
LINE
  5
319
330
1C5
100
AcDbEntity
  8
DV3_Default
  6
Continuous
 62
     7
 48
25.4
100
AcDbLine
 10
143.0262334706
 20
304.4595766712
 30
0.0
 11
144.5262334706
 21
302.9595766712
 31
0.0
  0
LINE
  5
31A
330
1C5
100
AcDbEntity
  8
DV3_Default
  6
Continuous
 62
     7
 48
25.4
100
AcDbLine
 10
143.0262334706
 20
304.4595766712
 30
0.0
 11
143.0262334706
 21
292.4595766712
 31
0.0
  0
LINE
  5
31B
330
1C5
100
AcDbEntity
  8
DV3_Default
  6
Continuous
 62
     7
 48
25.4
100
AcDbLine
 10
230.0262334706
 20
304.4595766712
 30
0.0
 11
201.0283977106
 21
304.4595766712
 31
0.0
  0
LINE
  5
31C
330
1C5
100
AcDbEntity
  8
DV3_Default
  6
Continuous
 62
     7
 48
25.4
100
AcDbLine
 10
236.5262334706
 20
302.9595766712
 30
0.0
 11
204.0283977106
 21
302.9595766712
 31
0.0
  0
LINE
  5
31D
330
1C5
100
AcDbEntity
  8
DV3_Default
  6
Continuous
 62
     7
 48
25.4
100
AcDbLine
 10
180.5262334706
 20
315.4595766712
 30
0.0
 11
180.5262334706
 21
308.4595766712
 31
0.0
  0
LINE
  5
31E
330
1C5
100
AcDbEntity
  8
DV3_Default
  6
Continuous
 62
     7
 48
25.4
100
AcDbLine
 10
180.5262334706
 20
269.4595766712
 30
0.0
 11
180.5262334706
 21
276.4595766712
 31
0.0
  0
LINE
  5
31F
330
1C5
100
AcDbEntity
  8
DV3_Default
  6
CENTER2
 62
     7
 48
25.4
100
AcDbLine
 10
78.5262334706
 20
270.6342835421
 30
0.0
 11
78.5262334706
 21
289.330304868
 31
0.0
  0
LINE
  5
320
330
1C5
100
AcDbEntity
  8
DV3_Default
  6
CENTER2
 62
     7
 48
25.4
100
AcDbLine
 10
87.2421447785
 20
279.4595766712
 30
0.0
 11
107.9664971481
 21
279.4595766712
 31
0.0
  0
CIRCLE
  5
321
330
1C5
100
AcDbEntity
  8
DV3_Default
  6
Continuous
 62
     7
 48
25.4
100
AcDbCircle
 10
92.3312250348
 20
279.4595766712
 30
0.0
 40
2.35
  0
LINE
  5
322
330
1C5
100
AcDbEntity
  8
DV3_Default
  6
Continuous
 62
     7
 48
25.4
100
AcDbLine
 10
91.0262334706
 20
281.8095766712
 30
0.0
 11
106.0262334706
 21
281.8095766712
 31
0.0
  0
LINE
  5
323
330
1C5
100
AcDbEntity
  8
DV3_Default
  6
Continuous
 62
     7
 48
25.4
100
AcDbLine
 10
106.0262334706
 20
281.8095766712
 30
0.0
 11
107.3830066032
 21
279.4595766712
 31
0.0
  0
LINE
  5
324
330
1C5
100
AcDbEntity
  8
DV3_Default
  6
Continuous
 62
     7
 48
25.4
100
AcDbLine
 10
107.3830066032
 20
279.4595766712
 30
0.0
 11
106.0262334706
 21
277.1095766712
 31
0.0
  0
LINE
  5
325
330
1C5
100
AcDbEntity
  8
DV3_Default
  6
Continuous
 62
     7
 48
25.4
100
AcDbLine
 10
106.0262334706
 20
277.1095766712
 30
0.0
 11
91.0262334706
 21
277.1095766712
 31
0.0
  0
LINE
  5
326
330
1C5
100
AcDbEntity
  8
DV3_Default
  6
Continuous
 62
     7
 48
25.4
100
AcDbLine
 10
106.0262334706
 20
281.8095766712
 30
0.0
 11
106.0262334706
 21
277.1095766712
 31
0.0
  0
LINE
  5
327
330
1C5
100
AcDbEntity
  8
DV3_Default
  6
Continuous
 62
     7
 48
25.4
100
AcDbLine
 10
91.0262334706
 20
281.8095766712
 30
0.0
 11
89.5628151918
 21
279.4595766712
 31
0.0
  0
LINE
  5
328
330
1C5
100
AcDbEntity
  8
DV3_Default
  6
Continuous
 62
     7
 48
25.4
100
AcDbLine
 10
89.5628151918
 20
279.4595766712
 30
0.0
 11
91.0262334706
 21
277.1095766712
 31
0.0
  0
LINE
  5
329
330
1C5
100
AcDbEntity
  8
DV3_Default
  6
Continuous
 62
     7
 48
25.4
100
AcDbLine
 10
94.6812250348
 20
279.4595766712
 30
0.0
 11
94.6812250348
 21
281.4595766712
 31
0.0
  0
LINE
  5
32A
330
1C5
100
AcDbEntity
  8
DV3_Default
  6
Continuous
 62
     7
 48
25.4
100
AcDbLine
 10
94.6812250348
 20
279.4595766712
 30
0.0
 11
94.6812250348
 21
277.4595766712
 31
0.0
  0
LINE
  5
32B
330
1C5
100
AcDbEntity
  8
DV3_Default
  6
Continuous
 62
     7
 48
25.4
100
AcDbLine
 10
94.6812250348
 20
277.4595766712
 30
0.0
 11
95.7530218046
 21
281.4595766712
 31
0.0
  0
LINE
  5
32C
330
1C5
100
AcDbEntity
  8
DV3_Default
  6
Continuous
 62
     7
 48
25.4
100
AcDbLine
 10
95.7530218046
 20
281.4595766712
 30
0.0
 11
95.7530218046
 21
277.4595766712
 31
0.0
  0
LINE
  5
32D
330
1C5
100
AcDbEntity
  8
DV3_Default
  6
Continuous
 62
     7
 48
25.4
100
AcDbLine
 10
95.7530218046
 20
277.4595766712
 30
0.0
 11
96.8248185743
 21
281.4595766712
 31
0.0
  0
LINE
  5
32E
330
1C5
100
AcDbEntity
  8
DV3_Default
  6
Continuous
 62
     7
 48
25.4
100
AcDbLine
 10
96.8248185743
 20
281.4595766712
 30
0.0
 11
96.8248185743
 21
277.4595766712
 31
0.0
  0
LINE
  5
32F
330
1C5
100
AcDbEntity
  8
DV3_Default
  6
Continuous
 62
     7
 48
25.4
100
AcDbLine
 10
96.8248185743
 20
277.4595766712
 30
0.0
 11
97.896615344
 21
281.4595766712
 31
0.0
  0
LINE
  5
330
330
1C5
100
AcDbEntity
  8
DV3_Default
  6
Continuous
 62
     7
 48
25.4
100
AcDbLine
 10
97.896615344
 20
281.4595766712
 30
0.0
 11
97.896615344
 21
277.4595766712
 31
0.0
  0
LINE
  5
331
330
1C5
100
AcDbEntity
  8
DV3_Default
  6
Continuous
 62
     7
 48
25.4
100
AcDbLine
 10
97.896615344
 20
277.4595766712
 30
0.0
 11
98.9684121137
 21
281.4595766712
 31
0.0
  0
LINE
  5
332
330
1C5
100
AcDbEntity
  8
DV3_Default
  6
Continuous
 62
     7
 48
25.4
100
AcDbLine
 10
98.9684121137
 20
281.4595766712
 30
0.0
 11
98.9684121137
 21
277.4595766712
 31
0.0
  0
LINE
  5
333
330
1C5
100
AcDbEntity
  8
DV3_Default
  6
Continuous
 62
     7
 48
25.4
100
AcDbLine
 10
98.9684121137
 20
277.4595766712
 30
0.0
 11
100.0402088834
 21
281.4595766712
 31
0.0
  0
LINE
  5
334
330
1C5
100
AcDbEntity
  8
DV3_Default
  6
Continuous
 62
     7
 48
25.4
100
AcDbLine
 10
100.0402088834
 20
281.4595766712
 30
0.0
 11
100.0402088834
 21
277.4595766712
 31
0.0
  0
LINE
  5
335
330
1C5
100
AcDbEntity
  8
DV3_Default
  6
Continuous
 62
     7
 48
25.4
100
AcDbLine
 10
100.0402088834
 20
277.4595766712
 30
0.0
 11
101.0684898529
 21
281.2971734939
 31
0.0
  0
LINE
  5
336
330
1C5
100
AcDbEntity
  8
DV3_Default
  6
Continuous
 62
     7
 48
25.4
100
AcDbLine
 10
101.0684898529
 20
281.2971734939
 30
0.0
 11
101.0684898529
 21
277.4595766712
 31
0.0
  0
LINE
  5
337
330
1C5
100
AcDbEntity
  8
DV3_Default
  6
Continuous
 62
     7
 48
25.4
100
AcDbLine
 10
101.0684898529
 20
277.4595766712
 30
0.0
 11
102.0967708225
 21
281.2971734939
 31
0.0
  0
LINE
  5
338
330
1C5
100
AcDbEntity
  8
DV3_Default
  6
Continuous
 62
     7
 48
25.4
100
AcDbLine
 10
102.0967708225
 20
281.2971734939
 30
0.0
 11
102.0967708225
 21
277.4595766712
 31
0.0
  0
LINE
  5
339
330
1C5
100
AcDbEntity
  8
DV3_Default
  6
Continuous
 62
     7
 48
25.4
100
AcDbLine
 10
102.0967708225
 20
277.4595766712
 30
0.0
 11
103.125051792
 21
281.2971734939
 31
0.0
  0
LINE
  5
33A
330
1C5
100
AcDbEntity
  8
DV3_Default
  6
Continuous
 62
     7
 48
25.4
100
AcDbLine
 10
103.125051792
 20
281.2971734939
 30
0.0
 11
103.125051792
 21
277.4595766712
 31
0.0
  0
LINE
  5
33B
330
1C5
100
AcDbEntity
  8
DV3_Default
  6
Continuous
 62
     7
 48
25.4
100
AcDbLine
 10
103.125051792
 20
277.4595766712
 30
0.0
 11
104.1533327615
 21
281.2971734939
 31
0.0
  0
LINE
  5
33C
330
1C5
100
AcDbEntity
  8
DV3_Default
  6
Continuous
 62
     7
 48
25.4
100
AcDbLine
 10
104.1533327615
 20
281.2971734939
 30
0.0
 11
104.1533327615
 21
277.4595766712
 31
0.0
  0
LINE
  5
33D
330
1C5
100
AcDbEntity
  8
DV3_Default
  6
Continuous
 62
     7
 48
25.4
100
AcDbLine
 10
104.1533327615
 20
277.4595766712
 30
0.0
 11
105.181613731
 21
281.2971734939
 31
0.0
  0
LINE
  5
33E
330
1C5
100
AcDbEntity
  8
DV3_Default
  6
Continuous
 62
     7
 48
25.4
100
AcDbLine
 10
105.181613731
 20
281.2971734939
 30
0.0
 11
105.181613731
 21
277.4595766712
 31
0.0
  0
LINE
  5
33F
330
1C5
100
AcDbEntity
  8
DV3_Default
  6
Continuous
 62
     7
 48
25.4
100
AcDbLine
 10
105.181613731
 20
277.4595766712
 30
0.0
 11
106.0262334706
 21
281.2971734939
 31
0.0
  0
LINE
  5
340
330
1C5
100
AcDbEntity
  8
DV3_Default
  6
Continuous
 62
     7
 48
25.4
100
AcDbLine
 10
74.5262334706
 20
275.4595766712
 30
0.0
 11
74.5262334706
 21
284.4595766712
 31
0.0
  0
LINE
  5
341
330
1C5
100
AcDbEntity
  8
DV3_Default
  6
Continuous
 62
     7
 48
25.4
100
AcDbLine
 10
78.5262334706
 20
284.4595766712
 30
0.0
 11
82.5262334706
 21
284.4595766712
 31
0.0
  0
LINE
  5
342
330
1C5
100
AcDbEntity
  8
DV3_Default
  6
Continuous
 62
     7
 48
25.4
100
AcDbLine
 10
82.5262334706
 20
284.4595766712
 30
0.0
 11
82.5262334706
 21
275.4595766712
 31
0.0
  0
LINE
  5
343
330
1C5
100
AcDbEntity
  8
DV3_Default
  6
Continuous
 62
     7
 48
25.4
100
AcDbLine
 10
75.5262334706
 20
284.4595766712
 30
0.0
 11
75.5262334706
 21
275.4595766712
 31
0.0
  0
LINE
  5
344
330
1C5
100
AcDbEntity
  8
DV3_Default
  6
Continuous
 62
     7
 48
25.4
100
AcDbLine
 10
81.5262334706
 20
284.4595766712
 30
0.0
 11
81.5262334706
 21
275.4595766712
 31
0.0
  0
LINE
  5
345
330
1C5
100
AcDbEntity
  8
DV3_Default
  6
Continuous
 62
     7
 48
25.4
100
AcDbLine
 10
74.5262334706
 20
282.4595766712
 30
0.0
 11
82.5262334706
 21
282.4595766712
 31
0.0
  0
LINE
  5
346
330
1C5
100
AcDbEntity
  8
DV3_Default
  6
Continuous
 62
     7
 48
25.4
100
AcDbLine
 10
75.8329578809
 20
276.4595766712
 30
0.0
 11
81.2195090604
 21
276.4595766712
 31
0.0
  0
LINE
  5
347
330
1C5
100
AcDbEntity
  8
DV3_Default
  6
Continuous
 62
     7
 48
25.4
100
AcDbLine
 10
75.8329578809
 20
276.4595766712
 30
0.0
 11
74.5262334706
 21
277.2140143613
 31
0.0
  0
LINE
  5
348
330
1C5
100
AcDbEntity
  8
DV3_Default
  6
Continuous
 62
     7
 48
25.4
100
AcDbLine
 10
74.5262334706
 20
277.2140143613
 30
0.0
 11
82.5262334706
 21
277.2140143613
 31
0.0
  0
LINE
  5
349
330
1C5
100
AcDbEntity
  8
DV3_Default
  6
Continuous
 62
     7
 48
25.4
100
AcDbLine
 10
82.5262334706
 20
277.2140143613
 30
0.0
 11
81.2195090604
 21
276.4595766712
 31
0.0
  0
LINE
  5
34A
330
1C5
100
AcDbEntity
  8
DV3_Default
  6
Continuous
 62
     7
 48
25.4
100
AcDbLine
 10
74.5262334706
 20
282.4595766712
 30
0.0
 11
76.5262334706
 21
284.4595766712
 31
0.0
  0
LINE
  5
34B
330
1C5
100
AcDbEntity
  8
DV3_Default
  6
Continuous
 62
     7
 48
25.4
100
AcDbLine
 10
82.5262334706
 20
282.4595766712
 30
0.0
 11
80.5262334706
 21
284.4595766712
 31
0.0
  0
LINE
  5
34C
330
1C5
100
AcDbEntity
  8
DV3_Default
  6
CENTER2
 62
     7
 48
25.4
100
AcDbLine
 10
233.5289633908
 20
360.9656048111
 30
0.0
 11
277.7645901918
 21
360.9656048111
 31
0.0
  0
LINE
  5
34D
330
1C5
100
AcDbEntity
  8
DV3_Default
  6
CENTER2
 62
     7
 48
25.4
100
AcDbLine
 10
233.2017696013
 20
340.9119690977
 30
0.0
 11
277.1102026127
 21
340.9119690977
 31
0.0
  0
LINE
  5
34E
330
1C5
100
AcDbEntity
  8
DV3_Default
  6
Continuous
 62
     7
 48
25.4
100
AcDbLine
 10
271.5262334706
 20
375.9595766712
 30
0.0
 11
271.5262334706
 21
303.9595766712
 31
0.0
  0
LINE
  5
34F
330
1C5
100
AcDbEntity
  8
DV3_Default
  6
Continuous
 62
     7
 48
25.4
100
AcDbLine
 10
241.5262334706
 20
375.9595766712
 30
0.0
 11
271.5262334706
 21
375.9595766712
 31
0.0
  0
LINE
  5
350
330
1C5
100
AcDbEntity
  8
DV3_Default
  6
Continuous
 62
     7
 48
25.4
100
AcDbLine
 10
152.5262334706
 20
333.7410766712
 30
0.0
 11
162.5262334706
 21
332.5132310622
 31
0.0
  0
LINE
  5
351
330
1C5
100
AcDbEntity
  8
DV3_Default
  6
Continuous
 62
     7
 48
25.4
100
AcDbLine
 10
162.5262334706
 20
332.5132310622
 30
0.0
 11
167.5262334706
 21
332.5132310622
 31
0.0
  0
LINE
  5
352
330
1C5
100
AcDbEntity
  8
DV3_Default
  6
Continuous
 62
     7
 48
25.4
100
AcDbLine
 10
152.5262334706
 20
251.1780766712
 30
0.0
 11
162.5262334706
 21
252.4059222803
 31
0.0
  0
LINE
  5
353
330
1C5
100
AcDbEntity
  8
DV3_Default
  6
Continuous
 62
     7
 48
25.4
100
AcDbLine
 10
162.5262334706
 20
252.4059222803
 30
0.0
 11
167.5262334706
 21
252.4059222803
 31
0.0
  0
LINE
  5
354
330
1C5
100
AcDbEntity
  8
DV3_Default
  6
Continuous
 62
     7
 48
25.4
100
AcDbLine
 10
162.5262334706
 20
275.4595766712
 30
0.0
 11
162.5262334706
 21
252.4059222803
 31
0.0
  0
LINE
  5
355
330
1C5
100
AcDbEntity
  8
DV3_Default
  6
Continuous
 62
     7
 48
25.4
100
AcDbLine
 10
162.5262334706
 20
332.5132310622
 30
0.0
 11
162.5262334706
 21
309.4595766712
 31
0.0
  0
LINE
  5
356
330
1C5
100
AcDbEntity
  8
DV3_Default
  6
Continuous
 62
     7
 48
25.4
100
AcDbLine
 10
31.5262334706
 20
284.4595766712
 30
0.0
 11
30.0262334706
 21
285.9595766712
 31
0.0
  0
LINE
  5
357
330
1C5
100
AcDbEntity
  8
DV3_Default
  6
Continuous
 62
     7
 48
25.4
100
AcDbLine
 10
30.0262334706
 20
298.9595766712
 30
0.0
 11
31.5262334706
 21
300.4595766712
 31
0.0
  0
LINE
  5
358
330
1C5
100
AcDbEntity
  8
DV3_Default
  6
Continuous
 62
     7
 48
25.4
100
AcDbLine
 10
31.5262334706
 20
300.4595766712
 30
0.0
 11
31.5262334706
 21
284.4595766712
 31
0.0
  0
LINE
  5
359
330
1C5
100
AcDbEntity
  8
DV3_Default
  6
Continuous
 62
     7
 48
25.4
100
AcDbLine
 10
30.0262334706
 20
298.9595766712
 30
0.0
 11
98.0262334706
 21
298.9595766712
 31
0.0
  0
LINE
  5
35A
330
1C5
100
AcDbEntity
  8
DV3_Default
  6
Continuous
 62
     7
 48
25.4
100
AcDbLine
 10
30.0262334706
 20
285.9595766712
 30
0.0
 11
98.0262334706
 21
285.9595766712
 31
0.0
  0
LINE
  5
35B
330
1C5
100
AcDbEntity
  8
DV3_Default
  6
Continuous
 62
     7
 48
25.4
100
AcDbLine
 10
91.0262334706
 20
309.4595766712
 30
0.0
 11
91.0262334706
 21
298.9595766712
 31
0.0
  0
LINE
  5
35C
330
1C5
100
AcDbEntity
  8
DV3_Default
  6
Continuous
 62
     7
 48
25.4
100
AcDbLine
 10
66.0262334706
 20
308.4595766712
 30
0.0
 11
66.0262334706
 21
298.9595766712
 31
0.0
  0
LINE
  5
35D
330
1C5
100
AcDbEntity
  8
DV3_Default
  6
Continuous
 62
     7
 48
25.4
100
AcDbLine
 10
66.0262334706
 20
276.4595766712
 30
0.0
 11
66.0262334706
 21
285.9595766712
 31
0.0
  0
LINE
  5
35E
330
1C5
100
AcDbEntity
  8
DV3_Default
  6
Continuous
 62
     7
 48
25.4
100
AcDbLine
 10
91.0262334706
 20
275.4595766712
 30
0.0
 11
91.0262334706
 21
285.9595766712
 31
0.0
  0
LINE
  5
35F
330
1C5
100
AcDbEntity
  8
DV3_Default
  6
Continuous
 62
     7
 48
25.4
100
AcDbLine
 10
191.1617157322
 20
375.3971442453
 30
0.0
 11
191.1617157322
 21
365.3971442453
 31
0.0
  0
LINE
  5
360
330
1C5
100
AcDbEntity
  8
DV3_Default
  6
Continuous
 62
     7
 48
25.4
100
AcDbLine
 10
162.5262334706
 20
374.9595766712
 30
0.0
 11
191.1617157322
 21
374.9595766712
 31
0.0
  0
ENDBLK
  5
362
330
1C5
100
AcDbEntity
  8
0
100
AcDbBlockEnd
  0
BLOCK
  5
36D
330
363
100
AcDbEntity
  8
0
100
AcDbBlockBegin
  2
GDimGGroup12
 70
     0
 71
     0
 10
0.0
 20
0.0
 30
0.0
  3
GDimGGroup12
  1

  0
HATCH
  5
365
330
363
100
AcDbEntity
  8
Default
  6
Continuous
 62
     7
 48
25.4
100
AcDbHatch
 10
0.0
 20
0.0
 30
0.0
210
0.0
220
0.0
230
1.0
  2
SOLID
 70
     1
 71
     0
 91
        1
 92
        1
 93
        3
 72
     1
 10
171.5262336606361
 20
216.3188961406987
 11
171.5262336606361
 21
217.652229537362
 72
     1
 10
171.5262336606361
 20
217.652229537362
 11
167.5262334706463
 21
216.9855628390303
 72
     1
 10
167.5262334706463
 20
216.9855628390303
 11
171.5262336606361
 21
216.3188961406987
 97
        0
 75
     0
 76
     1
 98
        0
  0
LWPOLYLINE
  5
366
330
363
100
AcDbEntity
  8
Default
  6
Continuous
 62
     7
 48
25.4
370
    30
100
AcDbPolyline
 90
        4
 70
     1
 43
0.00035
 10
171.5262336606
 20
216.3188961407
 10
167.5262334706
 20
216.985562839
 10
171.5262336606
 20
217.6522295374
 10
171.5262336606
 20
216.3188961407
  0
HATCH
  5
367
330
363
100
AcDbEntity
  8
Default
  6
Continuous
 62
     7
 48
25.4
100
AcDbHatch
 10
0.0
 20
0.0
 30
0.0
210
0.0
220
0.0
230
1.0
  2
SOLID
 70
     1
 71
     0
 91
        1
 92
        1
 93
        3
 72
     1
 10
158.5262332806565
 20
216.3188961406987
 11
162.5262334706463
 21
216.9855628390303
 72
     1
 10
162.5262334706463
 20
216.9855628390303
 11
158.5262332806565
 21
217.652229537362
 72
     1
 10
158.5262332806565
 20
217.652229537362
 11
158.5262332806565
 21
216.3188961406987
 97
        0
 75
     0
 76
     1
 98
        0
  0
LWPOLYLINE
  5
368
330
363
100
AcDbEntity
  8
Default
  6
Continuous
 62
     7
 48
25.4
370
    30
100
AcDbPolyline
 90
        4
 70
     1
 43
0.00035
 10
158.5262332807
 20
216.3188961407
 10
162.5262334706
 20
216.985562839
 10
158.5262332807
 20
217.6522295374
 10
158.5262332807
 20
216.3188961407
  0
LINE
  5
369
330
363
100
AcDbEntity
  8
Default
  6
Continuous
 62
     7
 48
25.4
100
AcDbLine
 10
167.5262334706
 20
229.2595766712
 30
0.0
 11
167.5262334706
 21
214.985562744
 31
0.0
  0
LINE
  5
36A
330
363
100
AcDbEntity
  8
Default
  6
Continuous
 62
     7
 48
25.4
100
AcDbLine
 10
162.5262334706
 20
216.2095766712
 30
0.0
 11
162.5262334706
 21
218.985562934
 31
0.0
  0
LINE
  5
36B
330
363
100
AcDbEntity
  8
Default
  6
Continuous
 62
     7
 48
25.4
100
AcDbLine
 10
179.4245825099
 20
216.985562839
 30
0.0
 11
154.5262332024
 21
216.985562839
 31
0.0
  0
TEXT
  5
36C
330
363
100
AcDbEntity
  8
Default
  6
Continuous
 62
     7
 48
25.4
100
AcDbText
 10
174.8941480631
 20
217.985562839
 30
0.0
 40
4.0
  1
5
  7
SEACAD_arial_ttf
 11
174.8941480631
 21
221.985562839
 31
0.0
100
AcDbText
 73
     3
  0
ENDBLK
  5
36E
330
363
100
AcDbEntity
  8
0
100
AcDbBlockEnd
  0
BLOCK
  5
379
330
36F
100
AcDbEntity
  8
0
100
AcDbBlockBegin
  2
GDimGGroup13
 70
     0
 71
     0
 10
0.0
 20
0.0
 30
0.0
  3
GDimGGroup13
  1

  0
HATCH
  5
371
330
36F
100
AcDbEntity
  8
Default
  6
Continuous
 62
     7
 48
25.4
100
AcDbHatch
 10
0.0
 20
0.0
 30
0.0
210
0.0
220
0.0
230
1.0
  2
SOLID
 70
     1
 71
     0
 91
        1
 92
        1
 93
        3
 72
     1
 10
311.1425802408482
 20
356.9656046211316
 11
310.4759135425165
 21
360.9656048111214
 72
     1
 10
310.4759135425165
 20
360.9656048111214
 11
309.8092468441849
 21
356.9656046211316
 72
     1
 10
309.8092468441849
 20
356.9656046211316
 11
311.1425802408482
 21
356.9656046211316
 97
        0
 75
     0
 76
     1
 98
        0
  0
LWPOLYLINE
  5
372
330
36F
100
AcDbEntity
  8
Default
  6
Continuous
 62
     7
 48
25.4
370
    30
100
AcDbPolyline
 90
        4
 70
     1
 43
0.00035
 10
311.1425802408
 20
356.9656046211
 10
310.4759135425
 20
360.9656048111
 10
309.8092468442
 20
356.9656046211
 10
311.1425802408
 20
356.9656046211
  0
HATCH
  5
373
330
36F
100
AcDbEntity
  8
Default
  6
Continuous
 62
     7
 48
25.4
100
AcDbHatch
 10
0.0
 20
0.0
 30
0.0
210
0.0
220
0.0
230
1.0
  2
SOLID
 70
     1
 71
     0
 91
        1
 92
        1
 93
        3
 72
     1
 10
311.1425802408482
 20
344.9119687184287
 11
309.8092468441849
 21
344.9119687184287
 72
     1
 10
309.8092468441849
 20
344.9119687184287
 11
310.4759135425165
 21
340.9119685284389
 72
     1
 10
310.4759135425165
 20
340.9119685284389
 11
311.1425802408482
 21
344.9119687184287
 97
        0
 75
     0
 76
     1
 98
        0
  0
LWPOLYLINE
  5
374
330
36F
100
AcDbEntity
  8
Default
  6
Continuous
 62
     7
 48
25.4
370
    30
100
AcDbPolyline
 90
        4
 70
     1
 43
0.00035
 10
311.1425802408
 20
344.9119687184
 10
310.4759135425
 20
340.9119685284
 10
309.8092468442
 20
344.9119687184
 10
311.1425802408
 20
344.9119687184
  0
LINE
  5
375
330
36F
100
AcDbEntity
  8
Default
  6
Continuous
 62
     7
 48
25.4
100
AcDbLine
 10
277.7645901918
 20
360.9656048111
 30
0.0
 11
312.4759136375
 21
360.9656048111
 31
0.0
  0
LINE
  5
376
330
36F
100
AcDbEntity
  8
Default
  6
Continuous
 62
     7
 48
25.4
100
AcDbLine
 10
277.1102026127
 20
340.9119690977
 30
0.0
 11
312.4759136375
 21
340.9119690977
 31
0.0
  0
LINE
  5
377
330
36F
100
AcDbEntity
  8
Default
  6
Continuous
 62
     7
 48
25.4
100
AcDbLine
 10
310.4759135425
 20
360.9656048111
 30
0.0
 11
310.4759135425
 21
340.9119685284
 31
0.0
  0
TEXT
  5
378
330
36F
100
AcDbEntity
  8
Default
  6
Continuous
 62
     7
 48
25.4
100
AcDbText
 10
309.4759135425
 20
347.8083518872
 30
0.0
 40
4.0
  1
20
 50
90.0
  7
SEACAD_arial_ttf
 11
305.4759135425
 21
347.8083518872
 31
0.0
100
AcDbText
 73
     3
  0
ENDBLK
  5
37A
330
36F
100
AcDbEntity
  8
0
100
AcDbBlockEnd
  0
BLOCK
  5
387
330
37B
100
AcDbEntity
  8
0
100
AcDbBlockBegin
  2
GDimGGroup14
 70
     0
 71
     0
 10
0.0
 20
0.0
 30
0.0
  3
GDimGGroup14
  1

  0
HATCH
  5
37D
330
37B
100
AcDbEntity
  8
Default
  6
Continuous
 62
     7
 48
25.4
100
AcDbHatch
 10
0.0
 20
0.0
 30
0.0
210
0.0
220
0.0
230
1.0
  2
SOLID
 70
     1
 71
     0
 91
        1
 92
        1
 93
        3
 72
     1
 10
290.4527490969675
 20
296.4595768612317
 11
289.1194157003042
 21
296.4595768612317
 72
     1
 10
289.1194157003042
 20
296.4595768612317
 11
289.7860823986359
 21
292.4595766712419
 72
     1
 10
289.7860823986359
 20
292.4595766712419
 11
290.4527490969675
 21
296.4595768612317
 97
        0
 75
     0
 76
     1
 98
        0
  0
LWPOLYLINE
  5
37E
330
37B
100
AcDbEntity
  8
Default
  6
Continuous
 62
     7
 48
25.4
370
    30
100
AcDbPolyline
 90
        4
 70
     1
 43
0.00035
 10
290.452749097
 20
296.4595768612
 10
289.7860823986
 20
292.4595766712
 10
289.1194157003
 20
296.4595768612
 10
290.452749097
 20
296.4595768612
  0
HATCH
  5
37F
330
37B
100
AcDbEntity
  8
Default
  6
Continuous
 62
     7
 48
25.4
100
AcDbHatch
 10
0.0
 20
0.0
 30
0.0
210
0.0
220
0.0
230
1.0
  2
SOLID
 70
     1
 71
     0
 91
        1
 92
        1
 93
        3
 72
     1
 10
290.4527490969675
 20
326.2595755991033
 11
289.7860823986359
 21
330.2595757890931
 72
     1
 10
289.7860823986359
 20
330.2595757890931
 11
289.1194157003042
 21
326.2595755991033
 72
     1
 10
289.1194157003042
 20
326.2595755991033
 11
290.4527490969675
 21
326.2595755991033
 97
        0
 75
     0
 76
     1
 98
        0
  0
LWPOLYLINE
  5
380
330
37B
100
AcDbEntity
  8
Default
  6
Continuous
 62
     7
 48
25.4
370
    30
100
AcDbPolyline
 90
        4
 70
     1
 43
0.00035
 10
290.452749097
 20
326.2595755991
 10
289.7860823986
 20
330.2595757891
 10
289.1194157003
 20
326.2595755991
 10
290.452749097
 20
326.2595755991
  0
LINE
  5
381
330
37B
100
AcDbEntity
  8
Default
  6
Continuous
 62
     7
 48
25.4
100
AcDbLine
 10
281.3168947441
 20
292.4595766712
 30
0.0
 11
291.7860824936
 21
292.4595766712
 31
0.0
  0
LINE
  5
382
330
37B
100
AcDbEntity
  8
Default
  6
Continuous
 62
     7
 48
25.4
100
AcDbLine
 10
236.5262334706
 20
330.2595766712
 30
0.0
 11
291.7860824936
 21
330.2595766712
 31
0.0
  0
LINE
  5
383
330
37B
100
AcDbEntity
  8
Default
  6
Continuous
 62
     7
 48
25.4
100
AcDbLine
 10
289.7860823986
 20
262.9842267383
 30
0.0
 11
289.7860823986
 21
330.2595757891
 31
0.0
  0
TEXT
  5
384
330
37B
100
AcDbEntity
  8
Default
  6
Continuous
 62
     7
 48
25.4
100
AcDbText
 10
282.7860823986
 20
279.0972711384
 30
0.0
 40
4.0
  1
37.8
 50
90.0
  7
SEACAD_arial_ttf
 11
278.7860823986
 21
279.0972711384
 31
0.0
100
AcDbText
 73
     3
  0
TEXT
  5
385
330
37B
100
AcDbEntity
  8
Default
  6
Continuous
 62
     7
 48
25.4
100
AcDbText
 10
282.7860823986
 20
264.3842276602
 30
0.0
 40
4.0
  1
MAX
 50
90.0
  7
SEACAD_arial_ttf
 11
278.7860823986
 21
264.3842276602
 31
0.0
100
AcDbText
 73
     3
  0
TEXT
  5
386
330
37B
100
AcDbEntity
  8
Default
  6
Continuous
 62
     7
 48
25.4
100
AcDbText
 10
288.7860823986
 20
264.3842276602
 30
0.0
 40
4.0
  1
MIN 33.55
 50
90.0
  7
SEACAD_arial_ttf
 11
284.7860823986
 21
264.3842276602
 31
0.0
100
AcDbText
 73
     3
  0
ENDBLK
  5
388
330
37B
100
AcDbEntity
  8
0
100
AcDbBlockEnd
  0
BLOCK
  5
395
330
389
100
AcDbEntity
  8
0
100
AcDbBlockBegin
  2
GDimGGroup15
 70
     0
 71
     0
 10
0.0
 20
0.0
 30
0.0
  3
GDimGGroup15
  1

  0
HATCH
  5
38B
330
389
100
AcDbEntity
  8
Default
  6
Continuous
 62
     7
 48
25.4
100
AcDbHatch
 10
0.0
 20
0.0
 30
0.0
210
0.0
220
0.0
230
1.0
  2
SOLID
 70
     1
 71
     0
 91
        1
 92
        1
 93
        3
 72
     1
 10
311.1425835967886
 20
326.2595764812521
 11
310.4759168984569
 21
330.2595766712419
 72
     1
 10
310.4759168984569
 20
330.2595766712419
 11
309.8092502001253
 21
326.2595764812521
 72
     1
 10
309.8092502001253
 20
326.2595764812521
 11
311.1425835967886
 21
326.2595764812521
 97
        0
 75
     0
 76
     1
 98
        0
  0
LWPOLYLINE
  5
38C
330
389
100
AcDbEntity
  8
Default
  6
Continuous
 62
     7
 48
25.4
370
    30
100
AcDbPolyline
 90
        4
 70
     1
 43
0.00035
 10
311.1425835968
 20
326.2595764813
 10
310.4759168985
 20
330.2595766712
 10
309.8092502001
 20
326.2595764813
 10
311.1425835968
 20
326.2595764813
  0
HATCH
  5
38D
330
389
100
AcDbEntity
  8
Default
  6
Continuous
 62
     7
 48
25.4
100
AcDbHatch
 10
0.0
 20
0.0
 30
0.0
210
0.0
220
0.0
230
1.0
  2
SOLID
 70
     1
 71
     0
 91
        1
 92
        1
 93
        3
 72
     1
 10
311.1425835967886
 20
344.9119692877029
 11
309.8092502001253
 21
344.9119692877029
 72
     1
 10
309.8092502001253
 20
344.9119692877029
 11
310.4759168984569
 21
340.9119690977131
 72
     1
 10
310.4759168984569
 20
340.9119690977131
 11
311.1425835967886
 21
344.9119692877029
 97
        0
 75
     0
 76
     1
 98
        0
  0
LWPOLYLINE
  5
38E
330
389
100
AcDbEntity
  8
Default
  6
Continuous
 62
     7
 48
25.4
370
    30
100
AcDbPolyline
 90
        4
 70
     1
 43
0.00035
 10
311.1425835968
 20
344.9119692877
 10
310.4759168985
 20
340.9119690977
 10
309.8092502001
 20
344.9119692877
 10
311.1425835968
 20
344.9119692877
  0
LINE
  5
38F
330
389
100
AcDbEntity
  8
Default
  6
Continuous
 62
     7
 48
25.4
100
AcDbLine
 10
240.5262331652
 20
330.2595766712
 30
0.0
 11
312.4759169935
 21
330.2595766712
 31
0.0
  0
LINE
  5
390
330
389
100
AcDbEntity
  8
Default
  6
Continuous
 62
     7
 48
25.4
100
AcDbLine
 10
277.1102017273
 20
340.9119690977
 30
0.0
 11
312.4759169935
 21
340.9119690977
 31
0.0
  0
LINE
  5
391
330
389
100
AcDbEntity
  8
Default
  6
Continuous
 62
     7
 48
25.4
100
AcDbLine
 10
310.4759168985
 20
270.3075485755
 30
0.0
 11
310.4759168985
 21
348.9119692225
 31
0.0
  0
TEXT
  5
392
330
389
100
AcDbEntity
  8
Default
  6
Continuous
 62
     7
 48
25.4
100
AcDbText
 10
303.4759168985
 20
286.4205923905
 30
0.0
 40
4.0
  1
13.75
 50
90.0
  7
SEACAD_arial_ttf
 11
299.4759168985
 21
286.4205923905
 31
0.0
100
AcDbText
 73
     3
  0
TEXT
  5
393
330
389
100
AcDbEntity
  8
Default
  6
Continuous
 62
     7
 48
25.4
100
AcDbText
 10
303.4759168985
 20
271.7075489123
 30
0.0
 40
4.0
  1
MAX
 50
90.0
  7
SEACAD_arial_ttf
 11
299.4759168985
 21
271.7075489123
 31
0.0
100
AcDbText
 73
     3
  0
TEXT
  5
394
330
389
100
AcDbEntity
  8
Default
  6
Continuous
 62
     7
 48
25.4
100
AcDbText
 10
309.4759168985
 20
271.7075489123
 30
0.0
 40
4.0
  1
MIN 7.75
 50
90.0
  7
SEACAD_arial_ttf
 11
305.4759168985
 21
271.7075489123
 31
0.0
100
AcDbText
 73
     3
  0
ENDBLK
  5
396
330
389
100
AcDbEntity
  8
0
100
AcDbBlockEnd
  0
BLOCK
  5
3A1
330
397
100
AcDbEntity
  8
0
100
AcDbBlockBegin
  2
GDimGGroup16
 70
     0
 71
     0
 10
0.0
 20
0.0
 30
0.0
  3
GDimGGroup16
  1

  0
HATCH
  5
399
330
397
100
AcDbEntity
  8
Default
  6
Continuous
 62
     7
 48
25.4
100
AcDbHatch
 10
0.0
 20
0.0
 30
0.0
210
0.0
220
0.0
230
1.0
  2
SOLID
 70
     1
 71
     0
 91
        1
 92
        1
 93
        3
 72
     1
 10
175.7655572623836
 20
279.4595768612317
 11
174.4322238657204
 21
279.4595768612317
 72
     1
 10
174.4322238657204
 20
279.4595768612317
 11
175.098890564052
 21
275.4595766712419
 72
     1
 10
175.098890564052
 20
275.4595766712419
 11
175.7655572623836
 21
279.4595768612317
 97
        0
 75
     0
 76
     1
 98
        0
  0
LWPOLYLINE
  5
39A
330
397
100
AcDbEntity
  8
Default
  6
Continuous
 62
     7
 48
25.4
370
    30
100
AcDbPolyline
 90
        4
 70
     1
 43
0.00035
 10
175.7655572624
 20
279.4595768612
 10
175.0988905641
 20
275.4595766712
 10
174.4322238657
 20
279.4595768612
 10
175.7655572624
 20
279.4595768612
  0
HATCH
  5
39B
330
397
100
AcDbEntity
  8
Default
  6
Continuous
 62
     7
 48
25.4
100
AcDbHatch
 10
0.0
 20
0.0
 30
0.0
210
0.0
220
0.0
230
1.0
  2
SOLID
 70
     1
 71
     0
 91
        1
 92
        1
 93
        3
 72
     1
 10
175.7655572623836
 20
305.459578328996
 11
175.098890564052
 21
309.4595785189858
 72
     1
 10
175.098890564052
 20
309.4595785189858
 11
174.4322238657204
 21
305.459578328996
 72
     1
 10
174.4322238657204
 20
305.459578328996
 11
175.7655572623836
 21
305.459578328996
 97
        0
 75
     0
 76
     1
 98
        0
  0
LWPOLYLINE
  5
39C
330
397
100
AcDbEntity
  8
Default
  6
Continuous
 62
     7
 48
25.4
370
    30
100
AcDbPolyline
 90
        4
 70
     1
 43
0.00035
 10
175.7655572624
 20
305.459578329
 10
175.0988905641
 20
309.459578519
 10
174.4322238657
 20
305.459578329
 10
175.7655572624
 20
305.459578329
  0
LINE
  5
39D
330
397
100
AcDbEntity
  8
Default
  6
Continuous
 62
     7
 48
25.4
100
AcDbLine
 10
175.0988905641
 20
275.4595766712
 30
0.0
 11
175.0988905641
 21
309.459578519
 31
0.0
  0
TEXT
  5
39E
330
397
100
AcDbEntity
  8
Default
  6
Continuous
 62
     7
 48
25.4
100
AcDbText
 10
174.0988905641
 20
293.0098445669
 30
0.0
 40
4.0
  1
34
 50
90.0
  7
SEACAD_arial_ttf
 11
170.0988905641
 21
293.0098445669
 31
0.0
100
AcDbText
 73
     3
  0
TEXT
  5
3A0
330
397
100
AcDbEntity
  8
Default
  6
Continuous
 62
     7
 48
25.4
100
AcDbText
 10
174.0988905641
 20
285.6484410581
 30
0.0
 40
4.0
  1
O
 50
90.0
  7
SEACAD_semeca1_ttf
 11
170.0988905641
 21
285.6484410581
 31
0.0
100
AcDbText
 73
     3
  0
ENDBLK
  5
3A2
330
397
100
AcDbEntity
  8
0
100
AcDbBlockEnd
  0
BLOCK
  5
3AE
330
3A3
100
AcDbEntity
  8
0
100
AcDbBlockBegin
  2
GDimGGroup17
 70
     0
 71
     0
 10
0.0
 20
0.0
 30
0.0
  3
GDimGGroup17
  1

  0
HATCH
  5
3A5
330
3A3
100
AcDbEntity
  8
Default
  6
Continuous
 62
     7
 48
25.4
100
AcDbHatch
 10
0.0
 20
0.0
 30
0.0
210
0.0
220
0.0
230
1.0
  2
SOLID
 70
     1
 71
     0
 91
        1
 92
        1
 93
        3
 72
     1
 10
156.8161100390879
 20
272.4595768612316
 11
157.4827767374195
 21
268.4595766712418
 72
     1
 10
157.4827767374195
 20
268.4595766712418
 11
158.1494434357511
 21
272.4595768612316
 72
     1
 10
158.1494434357511
 20
272.4595768612316
 11
156.8161100390879
 21
272.4595768612316
 97
        0
 75
     0
 76
     1
 98
        0
  0
LWPOLYLINE
  5
3A6
330
3A3
100
AcDbEntity
  8
Default
  6
Continuous
 62
     7
 48
25.4
370
    30
100
AcDbPolyline
 90
        4
 70
     1
 43
0.00035
 10
156.8161100391
 20
272.4595768612
 10
157.4827767374
 20
268.4595766712
 10
158.1494434358
 20
272.4595768612
 10
156.8161100391
 20
272.4595768612
  0
HATCH
  5
3A7
330
3A3
100
AcDbEntity
  8
Default
  6
Continuous
 62
     7
 48
25.4
100
AcDbHatch
 10
0.0
 20
0.0
 30
0.0
210
0.0
220
0.0
230
1.0
  2
SOLID
 70
     1
 71
     0
 91
        1
 92
        1
 93
        3
 72
     1
 10
156.8161100390879
 20
312.4595768984845
 11
158.1494434357511
 21
312.4595768984845
 72
     1
 10
158.1494434357511
 20
312.4595768984845
 11
157.4827767374195
 21
316.4595770884743
 72
     1
 10
157.4827767374195
 20
316.4595770884743
 11
156.8161100390879
 21
312.4595768984845
 97
        0
 75
     0
 76
     1
 98
        0
  0
LWPOLYLINE
  5
3A8
330
3A3
100
AcDbEntity
  8
Default
  6
Continuous
 62
     7
 48
25.4
370
    30
100
AcDbPolyline
 90
        4
 70
     1
 43
0.00035
 10
156.8161100391
 20
312.4595768985
 10
157.4827767374
 20
316.4595770885
 10
158.1494434358
 20
312.4595768985
 10
156.8161100391
 20
312.4595768985
  0
LINE
  5
3A9
330
3A3
100
AcDbEntity
  8
Default
  6
Continuous
 62
     7
 48
25.4
100
AcDbLine
 10
182.0262334706
 20
268.4595766712
 30
0.0
 11
155.4827766424
 21
268.4595766712
 31
0.0
  0
LINE
  5
3AA
330
3A3
100
AcDbEntity
  8
Default
  6
Continuous
 62
     7
 48
25.4
100
AcDbLine
 10
182.7762334706
 20
316.4595766712
 30
0.0
 11
155.4827766424
 21
316.4595766712
 31
0.0
  0
LINE
  5
3AB
330
3A3
100
AcDbEntity
  8
Default
  6
Continuous
 62
     7
 48
25.4
100
AcDbLine
 10
157.4827767374
 20
268.4595766712
 30
0.0
 11
157.4827767374
 21
316.4595770885
 31
0.0
  0
TEXT
  5
3AC
330
3A3
100
AcDbEntity
  8
Default
  6
Continuous
 62
     7
 48
25.4
100
AcDbText
 10
156.4827767374
 20
293.0098438516
 30
0.0
 40
4.0
  1
48
 50
90.0
  7
SEACAD_arial_ttf
 11
152.4827767374
 21
293.0098438516
 31
0.0
100
AcDbText
 73
     3
  0
TEXT
  5
3AD
330
3A3
100
AcDbEntity
  8
Default
  6
Continuous
 62
     7
 48
25.4
100
AcDbText
 10
156.4827767374
 20
285.6484403429
 30
0.0
 40
4.0
  1
O
 50
90.0
  7
SEACAD_semeca1_ttf
 11
152.4827767374
 21
285.6484403429
 31
0.0
100
AcDbText
 73
     3
  0
ENDBLK
  5
3AF
330
3A3
100
AcDbEntity
  8
0
100
AcDbBlockEnd
  0
BLOCK
  5
3B9
330
3B0
100
AcDbEntity
  8
0
100
AcDbBlockBegin
  2
GDimGGroup18
 70
     0
 71
     0
 10
0.0
 20
0.0
 30
0.0
  3
GDimGGroup18
  1

  0
HATCH
  5
3B2
330
3B0
100
AcDbEntity
  8
Default
  6
Continuous
 62
     7
 48
25.4
100
AcDbHatch
 10
0.0
 20
0.0
 30
0.0
210
0.0
220
0.0
230
1.0
  2
SOLID
 70
     1
 71
     0
 91
        1
 92
        1
 93
        3
 72
     1
 10
220.1093616280285
 20
285.9595768612317
 11
220.7760283263601
 21
281.9595766712419
 72
     1
 10
220.7760283263601
 20
281.9595766712419
 11
221.4426950246917
 21
285.9595768612317
 72
     1
 10
221.4426950246917
 20
285.9595768612317
 11
220.1093616280285
 21
285.9595768612317
 97
        0
 75
     0
 76
     1
 98
        0
  0
LWPOLYLINE
  5
3B3
330
3B0
100
AcDbEntity
  8
Default
  6
Continuous
 62
     7
 48
25.4
370
    30
100
AcDbPolyline
 90
        4
 70
     1
 43
0.00035
 10
220.109361628
 20
285.9595768612
 10
220.7760283264
 20
281.9595766712
 10
221.4426950247
 20
285.9595768612
 10
220.109361628
 20
285.9595768612
  0
HATCH
  5
3B4
330
3B0
100
AcDbEntity
  8
Default
  6
Continuous
 62
     7
 48
25.4
100
AcDbHatch
 10
0.0
 20
0.0
 30
0.0
210
0.0
220
0.0
230
1.0
  2
SOLID
 70
     1
 71
     0
 91
        1
 92
        1
 93
        3
 72
     1
 10
220.1093616280285
 20
298.95957619813
 11
221.4426950246917
 21
298.95957619813
 72
     1
 10
221.4426950246917
 20
298.95957619813
 11
220.7760283263601
 21
302.9595763881198
 72
     1
 10
220.7760283263601
 20
302.9595763881198
 11
220.1093616280285
 21
298.95957619813
 97
        0
 75
     0
 76
     1
 98
        0
  0
LWPOLYLINE
  5
3B5
330
3B0
100
AcDbEntity
  8
Default
  6
Continuous
 62
     7
 48
25.4
370
    30
100
AcDbPolyline
 90
        4
 70
     1
 43
0.00035
 10
220.109361628
 20
298.9595761981
 10
220.7760283264
 20
302.9595763881
 10
221.4426950247
 20
298.9595761981
 10
220.109361628
 20
298.9595761981
  0
LINE
  5
3B6
330
3B0
100
AcDbEntity
  8
Default
  6
Continuous
 62
     7
 48
25.4
100
AcDbLine
 10
220.7760283264
 20
281.9595766712
 30
0.0
 11
220.7760283264
 21
302.9595763881
 31
0.0
  0
TEXT
  5
3B7
330
3B0
100
AcDbEntity
  8
Default
  6
Continuous
 62
     7
 48
25.4
100
AcDbText
 10
219.7760283264
 20
293.0098435015
 30
0.0
 40
4.0
  1
21
 50
90.0
  7
SEACAD_arial_ttf
 11
215.7760283264
 21
293.0098435015
 31
0.0
100
AcDbText
 73
     3
  0
TEXT
  5
3B8
330
3B0
100
AcDbEntity
  8
Default
  6
Continuous
 62
     7
 48
25.4
100
AcDbText
 10
219.7760283264
 20
285.6484399927
 30
0.0
 40
4.0
  1
O
 50
90.0
  7
SEACAD_semeca1_ttf
 11
215.7760283264
 21
285.6484399927
 31
0.0
100
AcDbText
 73
     3
  0
ENDBLK
  5
3BA
330
3B0
100
AcDbEntity
  8
0
100
AcDbBlockEnd
  0
BLOCK
  5
3C5
330
3BB
100
AcDbEntity
  8
0
100
AcDbBlockBegin
  2
GDimGGroup19
 70
     0
 71
     0
 10
0.0
 20
0.0
 30
0.0
  3
GDimGGroup19
  1

  0
HATCH
  5
3BD
330
3BB
100
AcDbEntity
  8
Default
  6
Continuous
 62
     7
 48
25.4
100
AcDbHatch
 10
0.0
 20
0.0
 30
0.0
210
0.0
220
0.0
230
1.0
  2
SOLID
 70
     1
 71
     0
 91
        1
 92
        1
 93
        3
 72
     1
 10
34.02623366063601
 20
333.8148827421607
 11
30.0262334706462
 21
333.148216043829
 72
     1
 10
30.0262334706462
 20
333.148216043829
 11
34.02623366063601
 21
332.4815493454973
 72
     1
 10
34.02623366063601
 20
332.4815493454973
 11
34.02623366063601
 21
333.8148827421607
 97
        0
 75
     0
 76
     1
 98
        0
  0
LWPOLYLINE
  5
3BE
330
3BB
100
AcDbEntity
  8
Default
  6
Continuous
 62
     7
 48
25.4
370
    30
100
AcDbPolyline
 90
        4
 70
     1
 43
0.00035
 10
34.0262336606
 20
333.8148827422
 10
30.0262334706
 20
333.1482160438
 10
34.0262336606
 20
332.4815493455
 10
34.0262336606
 20
333.8148827422
  0
HATCH
  5
3BF
330
3BB
100
AcDbEntity
  8
Default
  6
Continuous
 62
     7
 48
25.4
100
AcDbHatch
 10
0.0
 20
0.0
 30
0.0
210
0.0
220
0.0
230
1.0
  2
SOLID
 70
     1
 71
     0
 91
        1
 92
        1
 93
        3
 72
     1
 10
62.02623173093564
 20
333.8148827421607
 11
62.02623173093564
 21
332.4815493454973
 72
     1
 10
62.02623173093564
 20
332.4815493454973
 11
66.02623192092544
 21
333.148216043829
 72
     1
 10
66.02623192092544
 20
333.148216043829
 11
62.02623173093564
 21
333.8148827421607
 97
        0
 75
     0
 76
     1
 98
        0
  0
LWPOLYLINE
  5
3C0
330
3BB
100
AcDbEntity
  8
Default
  6
Continuous
 62
     7
 48
25.4
370
    30
100
AcDbPolyline
 90
        4
 70
     1
 43
0.00035
 10
62.0262317309
 20
333.8148827422
 10
66.0262319209
 20
333.1482160438
 10
62.0262317309
 20
332.4815493455
 10
62.0262317309
 20
333.8148827422
  0
LINE
  5
3C1
330
3BB
100
AcDbEntity
  8
Default
  6
Continuous
 62
     7
 48
25.4
100
AcDbLine
 10
30.0262334706
 20
298.9595766712
 30
0.0
 11
30.0262334706
 21
335.1482161388
 31
0.0
  0
LINE
  5
3C2
330
3BB
100
AcDbEntity
  8
Default
  6
Continuous
 62
     7
 48
25.4
100
AcDbLine
 10
66.0262334706
 20
308.4595766712
 30
0.0
 11
66.0262334706
 21
335.1482161388
 31
0.0
  0
LINE
  5
3C3
330
3BB
100
AcDbEntity
  8
Default
  6
Continuous
 62
     7
 48
25.4
100
AcDbLine
 10
30.0262334706
 20
333.1482160438
 30
0.0
 11
66.0262319209
 21
333.1482160438
 31
0.0
  0
TEXT
  5
3C4
330
3BB
100
AcDbEntity
  8
Default
  6
Continuous
 62
     7
 48
25.4
100
AcDbText
 10
44.8957979132
 20
334.1482160438
 30
0.0
 40
4.0
  1
36
  7
SEACAD_arial_ttf
 11
44.8957979132
 21
338.1482160438
 31
0.0
100
AcDbText
 73
     3
  0
ENDBLK
  5
3C6
330
3BB
100
AcDbEntity
  8
0
100
AcDbBlockEnd
  0
BLOCK
  5
3D1
330
3C7
100
AcDbEntity
  8
0
100
AcDbBlockBegin
  2
GDimGGroup20
 70
     0
 71
     0
 10
0.0
 20
0.0
 30
0.0
  3
GDimGGroup20
  1

  0
HATCH
  5
3C9
330
3C7
100
AcDbEntity
  8
Default
  6
Continuous
 62
     7
 48
25.4
100
AcDbHatch
 10
0.0
 20
0.0
 30
0.0
210
0.0
220
0.0
230
1.0
  2
SOLID
 70
     1
 71
     0
 91
        1
 92
        1
 93
        3
 72
     1
 10
267.5262332806565
 20
395.5559148657263
 11
267.5262332806565
 21
394.222581469063
 72
     1
 10
267.5262332806565
 20
394.222581469063
 11
271.5262334706463
 21
394.8892481673947
 72
     1
 10
271.5262334706463
 20
394.8892481673947
 11
267.5262332806565
 21
395.5559148657263
 97
        0
 75
     0
 76
     1
 98
        0
  0
LWPOLYLINE
  5
3CA
330
3C7
100
AcDbEntity
  8
Default
  6
Continuous
 62
     7
 48
25.4
370
    30
100
AcDbPolyline
 90
        4
 70
     1
 43
0.00035
 10
267.5262332807
 20
395.5559148657
 10
271.5262334706
 20
394.8892481674
 10
267.5262332807
 20
394.2225814691
 10
267.5262332807
 20
395.5559148657
  0
HATCH
  5
3CB
330
3C7
100
AcDbEntity
  8
Default
  6
Continuous
 62
     7
 48
25.4
100
AcDbHatch
 10
0.0
 20
0.0
 30
0.0
210
0.0
220
0.0
230
1.0
  2
SOLID
 70
     1
 71
     0
 91
        1
 92
        1
 93
        3
 72
     1
 10
240.5262335116244
 20
395.5559148657263
 11
236.5262333216346
 21
394.8892481673947
 72
     1
 10
236.5262333216346
 20
394.8892481673947
 11
240.5262335116244
 21
394.222581469063
 72
     1
 10
240.5262335116244
 20
394.222581469063
 11
240.5262335116244
 21
395.5559148657263
 97
        0
 75
     0
 76
     1
 98
        0
  0
LWPOLYLINE
  5
3CC
330
3C7
100
AcDbEntity
  8
Default
  6
Continuous
 62
     7
 48
25.4
370
    30
100
AcDbPolyline
 90
        4
 70
     1
 43
0.00035
 10
240.5262335116
 20
395.5559148657
 10
236.5262333216
 20
394.8892481674
 10
240.5262335116
 20
394.2225814691
 10
240.5262335116
 20
395.5559148657
  0
LINE
  5
3CD
330
3C7
100
AcDbEntity
  8
Default
  6
Continuous
 62
     7
 48
25.4
100
AcDbLine
 10
271.5262334706
 20
375.9595766712
 30
0.0
 11
271.5262334706
 21
396.8892482624
 31
0.0
  0
LINE
  5
3CE
330
3C7
100
AcDbEntity
  8
Default
  6
Continuous
 62
     7
 48
25.4
100
AcDbLine
 10
236.5262334706
 20
374.9595766712
 30
0.0
 11
236.5262334706
 21
396.8892482624
 31
0.0
  0
LINE
  5
3CF
330
3C7
100
AcDbEntity
  8
Default
  6
Continuous
 62
     7
 48
25.4
100
AcDbLine
 10
271.5262334706
 20
394.8892481674
 30
0.0
 11
236.5262333216
 21
394.8892481674
 31
0.0
  0
TEXT
  5
3D0
330
3C7
100
AcDbEntity
  8
Default
  6
Continuous
 62
     7
 48
25.4
100
AcDbText
 10
250.8957986135
 20
395.8892481674
 30
0.0
 40
4.0
  1
35
  7
SEACAD_arial_ttf
 11
250.8957986135
 21
399.8892481674
 31
0.0
100
AcDbText
 73
     3
  0
ENDBLK
  5
3D2
330
3C7
100
AcDbEntity
  8
0
100
AcDbBlockEnd
  0
BLOCK
  5
3DD
330
3D3
100
AcDbEntity
  8
0
100
AcDbBlockBegin
  2
GDimGGroup21
 70
     0
 71
     0
 10
0.0
 20
0.0
 30
0.0
  3
GDimGGroup21
  1

  0
HATCH
  5
3D5
330
3D3
100
AcDbEntity
  8
Default
  6
Continuous
 62
     7
 48
25.4
100
AcDbHatch
 10
0.0
 20
0.0
 30
0.0
210
0.0
220
0.0
230
1.0
  2
SOLID
 70
     1
 71
     0
 91
        1
 92
        1
 93
        3
 72
     1
 10
148.5262332806564
 20
184.029217909817
 11
152.5262334706463
 21
184.6958846081486
 72
     1
 10
152.5262334706463
 20
184.6958846081486
 11
148.5262332806564
 21
185.3625513064802
 72
     1
 10
148.5262332806564
 20
185.3625513064802
 11
148.5262332806564
 21
184.029217909817
 97
        0
 75
     0
 76
     1
 98
        0
  0
LWPOLYLINE
  5
3D6
330
3D3
100
AcDbEntity
  8
Default
  6
Continuous
 62
     7
 48
25.4
370
    30
100
AcDbPolyline
 90
        4
 70
     1
 43
0.00035
 10
148.5262332807
 20
184.0292179098
 10
152.5262334706
 20
184.6958846081
 10
148.5262332807
 20
185.3625513065
 10
148.5262332807
 20
184.0292179098
  0
HATCH
  5
3D7
330
3D3
100
AcDbEntity
  8
Default
  6
Continuous
 62
     7
 48
25.4
100
AcDbHatch
 10
0.0
 20
0.0
 30
0.0
210
0.0
220
0.0
230
1.0
  2
SOLID
 70
     1
 71
     0
 91
        1
 92
        1
 93
        3
 72
     1
 10
142.5262332285024
 20
184.029217909817
 11
142.5262332285024
 21
185.3625513064802
 72
     1
 10
142.5262332285024
 20
185.3625513064802
 11
138.5262330385126
 21
184.6958846081486
 72
     1
 10
138.5262330385126
 20
184.6958846081486
 11
142.5262332285024
 21
184.029217909817
 97
        0
 75
     0
 76
     1
 98
        0
  0
LWPOLYLINE
  5
3D8
330
3D3
100
AcDbEntity
  8
Default
  6
Continuous
 62
     7
 48
25.4
370
    30
100
AcDbPolyline
 90
        4
 70
     1
 43
0.00035
 10
142.5262332285
 20
184.0292179098
 10
138.5262330385
 20
184.6958846081
 10
142.5262332285
 20
185.3625513065
 10
142.5262332285
 20
184.0292179098
  0
LINE
  5
3D9
330
3D3
100
AcDbEntity
  8
Default
  6
Continuous
 62
     7
 48
25.4
100
AcDbLine
 10
152.5262334706
 20
229.2595766712
 30
0.0
 11
152.5262334706
 21
182.6958845132
 31
0.0
  0
LINE
  5
3DA
330
3D3
100
AcDbEntity
  8
Default
  6
Continuous
 62
     7
 48
25.4
100
AcDbLine
 10
138.5262334706
 20
235.0595766712
 30
0.0
 11
138.5262334706
 21
182.6958845132
 31
0.0
  0
LINE
  5
3DB
330
3D3
100
AcDbEntity
  8
Default
  6
Continuous
 62
     7
 48
25.4
100
AcDbLine
 10
152.5262334706
 20
184.6958846081
 30
0.0
 11
138.5262330385
 21
184.6958846081
 31
0.0
  0
TEXT
  5
3DC
330
3D3
100
AcDbEntity
  8
Default
  6
Continuous
 62
     7
 48
25.4
100
AcDbText
 10
142.395798472
 20
185.6958846081
 30
0.0
 40
4.0
  1
14
  7
SEACAD_arial_ttf
 11
142.395798472
 21
189.6958846081
 31
0.0
100
AcDbText
 73
     3
  0
ENDBLK
  5
3DE
330
3D3
100
AcDbEntity
  8
0
100
AcDbBlockEnd
  0
BLOCK
  5
3E8
330
3DF
100
AcDbEntity
  8
0
100
AcDbBlockBegin
  2
GDimGGroup22
 70
     0
 71
     0
 10
0.0
 20
0.0
 30
0.0
  3
GDimGGroup22
  1

  0
HATCH
  5
3E1
330
3DF
100
AcDbEntity
  8
Default
  6
Continuous
 62
     7
 48
25.4
100
AcDbHatch
 10
0.0
 20
0.0
 30
0.0
210
0.0
220
0.0
230
1.0
  2
SOLID
 70
     1
 71
     0
 91
        1
 92
        1
 93
        3
 72
     1
 10
232.5262332806565
 20
217.9589744079054
 11
232.5262332806565
 21
216.6256410112422
 72
     1
 10
232.5262332806565
 20
216.6256410112422
 11
236.5262334706463
 21
217.2923077095738
 72
     1
 10
236.5262334706463
 20
217.2923077095738
 11
232.5262332806565
 21
217.9589744079054
 97
        0
 75
     0
 76
     1
 98
        0
  0
LWPOLYLINE
  5
3E2
330
3DF
100
AcDbEntity
  8
Default
  6
Continuous
 62
     7
 48
25.4
370
    30
100
AcDbPolyline
 90
        4
 70
     1
 43
0.00035
 10
232.5262332807
 20
217.9589744079
 10
236.5262334706
 20
217.2923077096
 10
232.5262332807
 20
216.6256410112
 10
232.5262332807
 20
217.9589744079
  0
HATCH
  5
3E3
330
3DF
100
AcDbEntity
  8
Default
  6
Continuous
 62
     7
 48
25.4
100
AcDbHatch
 10
0.0
 20
0.0
 30
0.0
210
0.0
220
0.0
230
1.0
  2
SOLID
 70
     1
 71
     0
 91
        1
 92
        1
 93
        3
 72
     1
 10
227.5262333924152
 20
217.9589744079054
 11
223.5262332024254
 21
217.2923077095738
 72
     1
 10
223.5262332024254
 20
217.2923077095738
 11
227.5262333924152
 21
216.6256410112422
 72
     1
 10
227.5262333924152
 20
216.6256410112422
 11
227.5262333924152
 21
217.9589744079054
 97
        0
 75
     0
 76
     1
 98
        0
  0
LWPOLYLINE
  5
3E4
330
3DF
100
AcDbEntity
  8
Default
  6
Continuous
 62
     7
 48
25.4
370
    30
100
AcDbPolyline
 90
        4
 70
     1
 43
0.00035
 10
227.5262333924
 20
217.9589744079
 10
223.5262332024
 20
217.2923077096
 10
227.5262333924
 20
216.6256410112
 10
227.5262333924
 20
217.9589744079
  0
LINE
  5
3E5
330
3DF
100
AcDbEntity
  8
Default
  6
Continuous
 62
     7
 48
25.4
100
AcDbLine
 10
223.5262334706
 20
231.5595762093
 30
0.0
 11
223.5262334706
 21
215.2923076146
 31
0.0
  0
LINE
  5
3E6
330
3DF
100
AcDbEntity
  8
Default
  6
Continuous
 62
     7
 48
25.4
100
AcDbLine
 10
236.5262334706
 20
217.2923077096
 30
0.0
 11
223.5262332024
 21
217.2923077096
 31
0.0
  0
TEXT
  5
3E7
330
3DF
100
AcDbEntity
  8
Default
  6
Continuous
 62
     7
 48
25.4
100
AcDbText
 10
226.8957985539
 20
218.2923077096
 30
0.0
 40
4.0
  1
13
  7
SEACAD_arial_ttf
 11
226.8957985539
 21
222.2923077096
 31
0.0
100
AcDbText
 73
     3
  0
ENDBLK
  5
3E9
330
3DF
100
AcDbEntity
  8
0
100
AcDbBlockEnd
  0
BLOCK
  5
3F5
330
3EA
100
AcDbEntity
  8
0
100
AcDbBlockBegin
  2
GDimGGroup23
 70
     0
 71
     0
 10
0.0
 20
0.0
 30
0.0
  3
GDimGGroup23
  1

  0
HATCH
  5
3EC
330
3EA
100
AcDbEntity
  8
Default
  6
Continuous
 62
     7
 48
25.4
100
AcDbHatch
 10
0.0
 20
0.0
 30
0.0
210
0.0
220
0.0
230
1.0
  2
SOLID
 70
     1
 71
     0
 91
        1
 92
        1
 93
        3
 72
     1
 10
252.8492279977428
 20
235.5595768612317
 11
251.5158946010795
 21
235.5595768612317
 72
     1
 10
251.5158946010795
 20
235.5595768612317
 11
252.1825612994111
 21
231.5595766712419
 72
     1
 10
252.1825612994111
 20
231.5595766712419
 11
252.8492279977428
 21
235.5595768612317
 97
        0
 75
     0
 76
     1
 98
        0
  0
LWPOLYLINE
  5
3ED
330
3EA
100
AcDbEntity
  8
Default
  6
Continuous
 62
     7
 48
25.4
370
    30
100
AcDbPolyline
 90
        4
 70
     1
 43
0.00035
 10
252.8492279977
 20
235.5595768612
 10
252.1825612994
 20
231.5595766712
 10
251.5158946011
 20
235.5595768612
 10
252.8492279977
 20
235.5595768612
  0
HATCH
  5
3EE
330
3EA
100
AcDbEntity
  8
Default
  6
Continuous
 62
     7
 48
25.4
100
AcDbHatch
 10
0.0
 20
0.0
 30
0.0
210
0.0
220
0.0
230
1.0
  2
SOLID
 70
     1
 71
     0
 91
        1
 92
        1
 93
        3
 72
     1
 10
252.8492279977428
 20
244.5595774051241
 11
252.1825612994111
 21
248.5595775951139
 72
     1
 10
252.1825612994111
 20
248.5595775951139
 11
251.5158946010795
 21
244.5595774051241
 72
     1
 10
251.5158946010795
 20
244.5595774051241
 11
252.8492279977428
 21
244.5595774051241
 97
        0
 75
     0
 76
     1
 98
        0
  0
LWPOLYLINE
  5
3EF
330
3EA
100
AcDbEntity
  8
Default
  6
Continuous
 62
     7
 48
25.4
370
    30
100
AcDbPolyline
 90
        4
 70
     1
 43
0.00035
 10
252.8492279977
 20
244.5595774051
 10
252.1825612994
 20
248.5595775951
 10
251.5158946011
 20
244.5595774051
 10
252.8492279977
 20
244.5595774051
  0
LINE
  5
3F0
330
3EA
100
AcDbEntity
  8
Default
  6
Continuous
 62
     7
 48
25.4
100
AcDbLine
 10
236.5262334706
 20
231.5595766712
 30
0.0
 11
254.1825613944
 21
231.5595766712
 31
0.0
  0
LINE
  5
3F1
330
3EA
100
AcDbEntity
  8
Default
  6
Continuous
 62
     7
 48
25.4
100
AcDbLine
 10
236.5262334706
 20
248.5595766712
 30
0.0
 11
254.1825613944
 21
248.5595766712
 31
0.0
  0
LINE
  5
3F2
330
3EA
100
AcDbEntity
  8
Default
  6
Continuous
 62
     7
 48
25.4
100
AcDbLine
 10
252.1825612994
 20
231.5595766712
 30
0.0
 11
252.1825612994
 21
248.5595775951
 31
0.0
  0
TEXT
  5
3F3
330
3EA
100
AcDbEntity
  8
Default
  6
Continuous
 62
     7
 48
25.4
100
AcDbText
 10
251.1825612994
 20
240.609844105
 30
0.0
 40
4.0
  1
17
 50
90.0
  7
SEACAD_arial_ttf
 11
247.1825612994
 21
240.609844105
 31
0.0
100
AcDbText
 73
     3
  0
TEXT
  5
3F4
330
3EA
100
AcDbEntity
  8
Default
  6
Continuous
 62
     7
 48
25.4
100
AcDbText
 10
251.1825612994
 20
233.2484405962
 30
0.0
 40
4.0
  1
O
 50
90.0
  7
SEACAD_semeca1_ttf
 11
247.1825612994
 21
233.2484405962
 31
0.0
100
AcDbText
 73
     3
  0
ENDBLK
  5
3F6
330
3EA
100
AcDbEntity
  8
0
100
AcDbBlockEnd
  0
BLOCK
  5
401
330
3F7
100
AcDbEntity
  8
0
100
AcDbBlockBegin
  2
GDimGGroup24
 70
     0
 71
     0
 10
0.0
 20
0.0
 30
0.0
  3
GDimGGroup24
  1

  0
HATCH
  5
3F9
330
3F7
100
AcDbEntity
  8
Default
  6
Continuous
 62
     7
 48
25.4
100
AcDbHatch
 10
0.0
 20
0.0
 30
0.0
210
0.0
220
0.0
230
1.0
  2
SOLID
 70
     1
 71
     0
 91
        1
 92
        1
 93
        3
 72
     1
 10
332.051297414385
 20
371.959576481252
 11
331.3846307160533
 21
375.9595766712418
 72
     1
 10
331.3846307160533
 20
375.9595766712418
 11
330.7179640177217
 21
371.959576481252
 72
     1
 10
330.7179640177217
 20
371.959576481252
 11
332.051297414385
 21
371.959576481252
 97
        0
 75
     0
 76
     1
 98
        0
  0
LWPOLYLINE
  5
3FA
330
3F7
100
AcDbEntity
  8
Default
  6
Continuous
 62
     7
 48
25.4
370
    30
100
AcDbPolyline
 90
        4
 70
     1
 43
0.00035
 10
332.0512974144
 20
371.9595764813
 10
331.3846307161
 20
375.9595766712
 10
330.7179640177
 20
371.9595764813
 10
332.0512974144
 20
371.9595764813
  0
HATCH
  5
3FB
330
3F7
100
AcDbEntity
  8
Default
  6
Continuous
 62
     7
 48
25.4
100
AcDbHatch
 10
0.0
 20
0.0
 30
0.0
210
0.0
220
0.0
230
1.0
  2
SOLID
 70
     1
 71
     0
 91
        1
 92
        1
 93
        3
 72
     1
 10
332.051297414385
 20
307.9595799606731
 11
330.7179640177217
 21
307.9595799606731
 72
     1
 10
330.7179640177217
 20
307.9595799606731
 11
331.3846307160533
 21
303.9595797706833
 72
     1
 10
331.3846307160533
 20
303.9595797706833
 11
332.051297414385
 21
307.9595799606731
 97
        0
 75
     0
 76
     1
 98
        0
  0
LWPOLYLINE
  5
3FC
330
3F7
100
AcDbEntity
  8
Default
  6
Continuous
 62
     7
 48
25.4
370
    30
100
AcDbPolyline
 90
        4
 70
     1
 43
0.00035
 10
332.0512974144
 20
307.9595799607
 10
331.3846307161
 20
303.9595797707
 10
330.7179640177
 20
307.9595799607
 10
332.0512974144
 20
307.9595799607
  0
LINE
  5
3FD
330
3F7
100
AcDbEntity
  8
Default
  6
Continuous
 62
     7
 48
25.4
100
AcDbLine
 10
256.5262334706
 20
375.9595766712
 30
0.0
 11
333.384630811
 21
375.9595766712
 31
0.0
  0
LINE
  5
3FE
330
3F7
100
AcDbEntity
  8
Default
  6
Continuous
 62
     7
 48
25.4
100
AcDbLine
 10
271.5262334706
 20
303.9595766712
 30
0.0
 11
333.384630811
 21
303.9595766712
 31
0.0
  0
LINE
  5
3FF
330
3F7
100
AcDbEntity
  8
Default
  6
Continuous
 62
     7
 48
25.4
100
AcDbLine
 10
331.3846307161
 20
375.9595766712
 30
0.0
 11
331.3846307161
 21
303.9595797707
 31
0.0
  0
TEXT
  5
400
330
3F7
100
AcDbEntity
  8
Default
  6
Continuous
 62
     7
 48
25.4
100
AcDbText
 10
330.3846307161
 20
336.8291434384
 30
0.0
 40
4.0
  1
72
 50
90.0
  7
SEACAD_arial_ttf
 11
326.3846307161
 21
336.8291434384
 31
0.0
100
AcDbText
 73
     3
  0
ENDBLK
  5
402
330
3F7
100
AcDbEntity
  8
0
100
AcDbBlockEnd
  0
BLOCK
  5
40D
330
403
100
AcDbEntity
  8
0
100
AcDbBlockBegin
  2
GDimGGroup25
 70
     0
 71
     0
 10
0.0
 20
0.0
 30
0.0
  3
GDimGGroup25
  1

  0
HATCH
  5
405
330
403
100
AcDbEntity
  8
Default
  6
Continuous
 62
     7
 48
25.4
100
AcDbHatch
 10
0.0
 20
0.0
 30
0.0
210
0.0
220
0.0
230
1.0
  2
SOLID
 70
     1
 71
     0
 91
        1
 92
        1
 93
        3
 72
     1
 10
311.1425802408482
 20
364.9656050011112
 11
309.8092468441849
 21
364.9656050011112
 72
     1
 10
309.8092468441849
 20
364.9656050011112
 11
310.4759135425165
 21
360.9656048111214
 72
     1
 10
310.4759135425165
 20
360.9656048111214
 11
311.1425802408482
 21
364.9656050011112
 97
        0
 75
     0
 76
     1
 98
        0
  0
LWPOLYLINE
  5
406
330
403
100
AcDbEntity
  8
Default
  6
Continuous
 62
     7
 48
25.4
370
    30
100
AcDbPolyline
 90
        4
 70
     1
 43
0.00035
 10
311.1425802408
 20
364.9656050011
 10
310.4759135425
 20
360.9656048111
 10
309.8092468442
 20
364.9656050011
 10
311.1425802408
 20
364.9656050011
  0
HATCH
  5
407
330
403
100
AcDbEntity
  8
Default
  6
Continuous
 62
     7
 48
25.4
100
AcDbHatch
 10
0.0
 20
0.0
 30
0.0
210
0.0
220
0.0
230
1.0
  2
SOLID
 70
     1
 71
     0
 91
        1
 92
        1
 93
        3
 72
     1
 10
311.1425802408482
 20
371.9595767661525
 11
310.4759135425165
 21
375.9595769561423
 72
     1
 10
310.4759135425165
 20
375.9595769561423
 11
309.8092468441849
 21
371.9595767661525
 72
     1
 10
309.8092468441849
 20
371.9595767661525
 11
311.1425802408482
 21
371.9595767661525
 97
        0
 75
     0
 76
     1
 98
        0
  0
LWPOLYLINE
  5
408
330
403
100
AcDbEntity
  8
Default
  6
Continuous
 62
     7
 48
25.4
370
    30
100
AcDbPolyline
 90
        4
 70
     1
 43
0.00035
 10
311.1425802408
 20
371.9595767662
 10
310.4759135425
 20
375.9595769561
 10
309.8092468442
 20
371.9595767662
 10
311.1425802408
 20
371.9595767662
  0
LINE
  5
409
330
403
100
AcDbEntity
  8
Default
  6
Continuous
 62
     7
 48
25.4
100
AcDbLine
 10
277.7645901918
 20
360.9656048111
 30
0.0
 11
312.4759136375
 21
360.9656048111
 31
0.0
  0
LINE
  5
40A
330
403
100
AcDbEntity
  8
Default
  6
Continuous
 62
     7
 48
25.4
100
AcDbLine
 10
271.5262334706
 20
375.9595766712
 30
0.0
 11
312.4759136375
 21
375.9595766712
 31
0.0
  0
LINE
  5
40B
330
403
100
AcDbEntity
  8
Default
  6
Continuous
 62
     7
 48
25.4
100
AcDbLine
 10
310.4759135425
 20
360.9656048111
 30
0.0
 11
310.4759135425
 21
375.9595769561
 31
0.0
  0
TEXT
  5
40C
330
403
100
AcDbEntity
  8
Default
  6
Continuous
 62
     7
 48
25.4
100
AcDbText
 10
309.4759135425
 20
365.332156101
 30
0.0
 40
4.0
  1
15
 50
90.0
  7
SEACAD_arial_ttf
 11
305.4759135425
 21
365.332156101
 31
0.0
100
AcDbText
 73
     3
  0
ENDBLK
  5
40E
330
403
100
AcDbEntity
  8
0
100
AcDbBlockEnd
  0
BLOCK
  5
47F
330
40F
100
AcDbEntity
  8
0
100
AcDbBlockBegin
  2
SE3
 70
     0
 71
     0
 10
0.0
 20
0.0
 30
0.0
  3
SE3
  1

  0
LINE
  5
412
330
40F
100
AcDbEntity
  8
DV4_Default
  6
Continuous
 62
     7
 48
25.4
100
AcDbLine
 10
430.8073093626
 20
145.6166081125
 30
0.0
 11
295.6294136585
 21
145.6166081125
 31
0.0
  0
LINE
  5
413
330
40F
100
AcDbEntity
  8
DV4_Default
  6
Continuous
 62
     7
 48
25.4
100
AcDbLine
 10
430.8073093626
 20
38.5166081125
 30
0.0
 11
295.6294136585
 21
38.5166081125
 31
0.0
  0
LINE
  5
414
330
40F
100
AcDbEntity
  8
DV4_Default
  6
Continuous
 62
     7
 48
25.4
100
AcDbLine
 10
295.6294136585
 20
38.5166081125
 30
0.0
 11
295.6294136585
 21
145.6166081125
 31
0.0
  0
TEXT
  5
415
330
40F
100
AcDbEntity
  8
DV4_Default
  6
Continuous
 62
     7
 48
25.4
100
AcDbText
 10
293.9893891914
 20
32.8213391239
 30
0.0
 40
3.5
  1
0
  7
SEACAD_arial_ttf
 11
293.9893891914
 21
36.3213391239
 31
0.0
100
AcDbText
 73
     3
  0
TEXT
  5
416
330
40F
100
AcDbEntity
  8
DV4_Default
  6
Continuous
 62
     7
 48
25.4
100
AcDbText
 10
315.1072472551
 20
32.7662483897
 30
0.0
 40
3.5
  1
1000
  7
SEACAD_arial_ttf
 11
315.1072472551
 21
36.2662483897
 31
0.0
100
AcDbText
 73
     3
  0
TEXT
  5
417
330
40F
100
AcDbEntity
  8
DV4_Default
  6
Continuous
 62
     7
 48
25.4
100
AcDbText
 10
340.5754422086
 20
32.7714506874
 30
0.0
 40
3.5
  1
2000
  7
SEACAD_arial_ttf
 11
340.5754422086
 21
36.2714506874
 31
0.0
100
AcDbText
 73
     3
  0
TEXT
  5
418
330
40F
100
AcDbEntity
  8
DV4_Default
  6
Continuous
 62
     7
 48
25.4
100
AcDbText
 10
365.683147402
 20
32.7671816548
 30
0.0
 40
3.5
  1
3000
  7
SEACAD_arial_ttf
 11
365.683147402
 21
36.2671816548
 31
0.0
100
AcDbText
 73
     3
  0
TEXT
  5
419
330
40F
100
AcDbEntity
  8
DV4_Default
  6
Continuous
 62
     7
 48
25.4
100
AcDbText
 10
391.1884536639
 20
32.7854506785
 30
0.0
 40
3.5
  1
4000
  7
SEACAD_arial_ttf
 11
391.1884536639
 21
36.2854506785
 31
0.0
100
AcDbText
 73
     3
  0
TEXT
  5
41A
330
40F
100
AcDbEntity
  8
DV4_Default
  6
Continuous
 62
     7
 48
25.4
100
AcDbText
 10
416.455998966
 20
32.8578335782
 30
0.0
 40
3.5
  1
5000
  7
SEACAD_arial_ttf
 11
416.455998966
 21
36.3578335782
 31
0.0
100
AcDbText
 73
     3
  0
TEXT
  5
41B
330
40F
100
AcDbEntity
  8
DV4_Default
  6
Continuous
 62
     7
 48
25.4
100
AcDbText
 10
288.6670515783
 20
54.6982939921
 30
0.0
 40
3.5
  1
10
  7
SEACAD_arial_ttf
 11
288.6670515783
 21
58.1982939921
 31
0.0
100
AcDbText
 73
     3
  0
TEXT
  5
41C
330
40F
100
AcDbEntity
  8
DV4_Default
  6
Continuous
 62
     7
 48
25.4
100
AcDbText
 10
288.3256208228
 20
72.5333660158
 30
0.0
 40
3.5
  1
20
  7
SEACAD_arial_ttf
 11
288.3256208228
 21
76.0333660158
 31
0.0
100
AcDbText
 73
     3
  0
TEXT
  5
41D
330
40F
100
AcDbEntity
  8
DV4_Default
  6
Continuous
 62
     7
 48
25.4
100
AcDbText
 10
288.2749435818
 20
89.8894115286
 30
0.0
 40
3.5
  1
30
  7
SEACAD_arial_ttf
 11
288.2749435818
 21
93.3894115286
 31
0.0
100
AcDbText
 73
     3
  0
TEXT
  5
41E
330
40F
100
AcDbEntity
  8
DV4_Default
  6
Continuous
 62
     7
 48
25.4
100
AcDbText
 10
288.5712050893
 20
125.5988990164
 30
0.0
 40
3.5
  1
50
  7
SEACAD_arial_ttf
 11
288.5712050893
 21
129.0988990164
 31
0.0
100
AcDbText
 73
     3
  0
TEXT
  5
41F
330
40F
100
AcDbEntity
  8
DV4_Default
  6
Continuous
 62
     7
 48
25.4
100
AcDbText
 10
288.3593551644
 20
107.7031342902
 30
0.0
 40
3.5
  1
40
  7
SEACAD_arial_ttf
 11
288.3593551644
 21
111.2031342902
 31
0.0
100
AcDbText
 73
     3
  0
TEXT
  5
420
330
40F
100
AcDbEntity
  8
DV4_Default
  6
Continuous
 62
     7
 48
25.4
100
AcDbText
 10
288.5076222639
 20
143.5596683238
 30
0.0
 40
3.5
  1
60
  7
SEACAD_arial_ttf
 11
288.5076222639
 21
147.0596683238
 31
0.0
100
AcDbText
 73
     3
  0
TEXT
  5
421
330
40F
100
AcDbEntity
  8
DV4_Default
  6
Continuous
 62
     7
 48
25.4
100
AcDbText
 10
347.4151143735
 20
130.5761718655
 30
0.0
 40
4.2
  1
Input Force
  7
SEACAD_arial_ttf
 11
347.4151143735
 21
134.7761718655
 31
0.0
100
AcDbText
 73
     3
  0
TEXT
  5
422
330
40F
100
AcDbEntity
  8
DV4_Default
  6
Continuous
 62
     7
 48
25.4
100
AcDbText
 10
347.3274249495
 20
121.2435731097
 30
0.0
 40
3.5
  1
18KN
  7
SEACAD_arial_ttf
 11
347.3274249495
 21
124.7435731097
 31
0.0
100
AcDbText
 73
     3
  0
TEXT
  5
423
330
40F
100
AcDbEntity
  8
DV4_Default
  6
Continuous
 62
     7
 48
25.4
100
AcDbText
 10
347.3261118159
 20
101.7810729512
 30
0.0
 40
3.5
  1
14KN
  7
SEACAD_arial_ttf
 11
347.3261118159
 21
105.2810729512
 31
0.0
100
AcDbText
 73
     3
  0
TEXT
  5
424
330
40F
100
AcDbEntity
  8
DV4_Default
  6
Continuous
 62
     7
 48
25.4
100
AcDbText
 10
347.3541037076
 20
111.8763426422
 30
0.0
 40
3.5
  1
16KN
  7
SEACAD_arial_ttf
 11
347.3541037076
 21
115.3763426422
 31
0.0
100
AcDbText
 73
     3
  0
TEXT
  5
425
330
40F
100
AcDbEntity
  8
DV4_Default
  6
Continuous
 62
     7
 48
25.4
100
AcDbText
 10
347.4526589638
 20
90.117463989
 30
0.0
 40
3.5
  1
12KN
  7
SEACAD_arial_ttf
 11
347.4526589638
 21
93.617463989
 31
0.0
100
AcDbText
 73
     3
  0
TEXT
  5
426
330
40F
100
AcDbEntity
  8
DV4_Default
  6
Continuous
 62
     7
 48
25.4
100
AcDbText
 10
347.3195735454
 20
79.2742007442
 30
0.0
 40
3.5
  1
10KN
  7
SEACAD_arial_ttf
 11
347.3195735454
 21
82.7742007442
 31
0.0
100
AcDbText
 73
     3
  0
TEXT
  5
427
330
40F
100
AcDbEntity
  8
DV4_Default
  6
Continuous
 62
     7
 48
25.4
100
AcDbText
 10
350.1555143872
 20
69.4728378718
 30
0.0
 40
3.5
  1
8KN
  7
SEACAD_arial_ttf
 11
350.1555143872
 21
72.9728378718
 31
0.0
100
AcDbText
 73
     3
  0
TEXT
  5
428
330
40F
100
AcDbEntity
  8
DV4_Default
  6
Continuous
 62
     7
 48
25.4
100
AcDbText
 10
350.1616720697
 20
58.7743756689
 30
0.0
 40
3.5
  1
6KN
  7
SEACAD_arial_ttf
 11
350.1616720697
 21
62.2743756689
 31
0.0
100
AcDbText
 73
     3
  0
TEXT
  5
429
330
40F
100
AcDbEntity
  8
DV4_Default
  6
Continuous
 62
     7
 48
25.4
100
AcDbText
 10
353.145108736
 20
19.5702559341
 30
0.0
 40
4.2
  1
Speed in min-
  7
SEACAD_arial_ttf
 11
353.145108736
 21
23.7702559341
 31
0.0
100
AcDbText
 73
     3
  0
TEXT
  5
42A
330
40F
100
AcDbEntity
  8
DV4_Default
  6
Continuous
 62
     7
 48
25.4
100
AcDbText
 10
389.5755435186
 20
19.5702559341
 30
0.0
 40
3.2102777778
  1
¹
  7
SEACAD_arial_ttf
 11
389.5755435186
 21
22.7805337119
 31
0.0
100
AcDbText
 73
     3
  0
TEXT
  5
42B
330
40F
100
AcDbEntity
  8
DV4_Default
  6
Continuous
 62
     7
 48
25.4
100
AcDbText
 10
248.4605241036
 20
98.3108672818
 30
0.0
 40
4.2
  1
Total Gripping 
  7
SEACAD_arial_ttf
 11
248.4605241036
 21
102.5108672818
 31
0.0
100
AcDbText
 73
     3
  0
TEXT
  5
42C
330
40F
100
AcDbEntity
  8
DV4_Default
  6
Continuous
 62
     7
 48
25.4
100
AcDbText
 10
248.4605241036
 20
91.7369542383
 30
0.0
 40
4.2
  1
Force in KN
  7
SEACAD_arial_ttf
 11
248.4605241036
 21
95.9369542383
 31
0.0
100
AcDbText
 73
     3
  0
TEXT
  5
42D
330
40F
100
AcDbEntity
  8
DV4_Default
  6
Continuous
 62
     7
 48
25.4
100
AcDbText
 10
310.6883215472
 20
165.8028574351
 30
0.0
 40
4.2
  1
Gripping Characteristic Graph For N-06A5
  7
SEACAD_arial_ttf
 11
310.6883215472
 21
170.0028574351
 31
0.0
100
AcDbText
 73
     3
  0
LWPOLYLINE
  5
42E
330
40F
100
AcDbEntity
  8
DV4_Default
  6
Continuous
 62
     7
 48
25.4
100
AcDbPolyline
 90
        2
 70
     0
 43
0.0
 10
401.4821266415
 20
41.7156504838
 10
414.7652011771
 20
62.2821344716
  0
HATCH
  5
42F
330
40F
100
AcDbEntity
  8
DV4_Default
  6
Continuous
 62
     7
 48
25.4
100
AcDbHatch
 10
0.0
 20
0.0
 30
0.0
210
0.0
220
0.0
230
1.0
  2
SOLID
 70
     1
 71
     0
 91
        1
 92
        1
 93
        3
 72
     1
 10
413.0745476817335
 20
58.37423336313584
 11
414.7652011770627
 21
62.28213447164864
 72
     1
 10
414.7652011770627
 20
62.28213447164864
 11
411.898506970612
 21
59.13379131343251
 72
     1
 10
411.898506970612
 20
59.13379131343251
 11
413.0745476817335
 21
58.37423336313584
 97
        0
 75
     0
 76
     1
 98
        0
  0
LWPOLYLINE
  5
430
330
40F
100
AcDbEntity
  8
DV4_Default
  6
Continuous
 62
     7
 48
25.4
370
    20
100
AcDbPolyline
 90
        4
 70
     1
 43
0.00025
 10
413.0745476817
 20
58.3742333631
 10
414.7652011771
 20
62.2821344716
 10
411.8985069706
 20
59.1337913134
 10
413.0745476817
 20
58.3742333631
  0
LINE
  5
431
330
40F
100
AcDbEntity
  8
DV4_Default
  6
Continuous
 62
     7
 48
25.4
100
AcDbLine
 10
401.4821266415
 20
41.7156504838
 30
0.0
 11
348.5256049024
 21
41.7156504838
 31
0.0
  0
TEXT
  5
432
330
40F
100
AcDbEntity
  8
DV4_Default
  6
Continuous
 62
     7
 48
25.4
100
AcDbText
 10
348.5256049024
 20
42.7656504838
 30
0.0
 40
4.2
  1
Gripping Force Limit
  7
SEACAD_arial_ttf
 11
348.5256049024
 21
46.9656504838
 31
0.0
100
AcDbText
 73
     3
  0
TEXT
  5
433
330
40F
100
AcDbEntity
  8
DV4_Default
  6
Continuous
 62
     7
 48
25.4
100
AcDbText
 10
35.3157290373
 20
147.2854220515
 30
0.0
 40
3.5
  1
SPINDLE NOSE SIZE
  7
SEACAD_arial_ttf
 11
35.3157290373
 21
150.7854220515
 31
0.0
100
AcDbText
 73
     3
  0
TEXT
  5
434
330
40F
100
AcDbEntity
  8
DV4_Default
  6
Continuous
 62
     7
 48
25.4
100
AcDbText
 10
141.0009193513
 20
147.2854220515
 30
0.0
 40
3.5
  1
A2-5
  7
SEACAD_arial_ttf
 11
141.0009193513
 21
150.7854220515
 31
0.0
100
AcDbText
 73
     3
  0
TEXT
  5
435
330
40F
100
AcDbEntity
  8
DV4_Default
  6
Continuous
 62
     7
 48
25.4
100
AcDbText
 10
35.3623425494
 20
79.838360714
 30
0.0
 40
3.5
  1
TOTAL GRIPPING FORCE AT MAX. SPEED
  7
SEACAD_arial_ttf
 11
35.3623425494
 21
83.338360714
 31
0.0
100
AcDbText
 73
     3
  0
TEXT
  5
436
330
40F
100
AcDbEntity
  8
DV4_Default
  6
Continuous
 62
     7
 48
25.4
100
AcDbText
 10
140.7210994631
 20
21.3077829244
 30
0.0
 40
3.5
  1
SB06B1
  7
SEACAD_arial_ttf
 11
140.7210994631
 21
24.8077829244
 31
0.0
100
AcDbText
 73
     3
  0
LINE
  5
437
330
40F
100
AcDbEntity
  8
DV4_Default
  6
Continuous
 62
     7
 48
25.4
100
AcDbLine
 10
33.460512965
 20
27.243106708
 30
0.0
 11
201.460512965
 21
27.243106708
 31
0.0
  0
LINE
  5
438
330
40F
100
AcDbEntity
  8
DV4_Default
  6
Continuous
 62
     7
 48
25.4
100
AcDbLine
 10
201.460512965
 20
153.243106708
 30
0.0
 11
33.460512965
 21
153.243106708
 31
0.0
  0
LINE
  5
439
330
40F
100
AcDbEntity
  8
DV4_Default
  6
Continuous
 62
     7
 48
25.4
100
AcDbLine
 10
33.460512965
 20
144.843106708
 30
0.0
 11
201.460512965
 21
144.843106708
 31
0.0
  0
LINE
  5
43A
330
40F
100
AcDbEntity
  8
DV4_Default
  6
Continuous
 62
     7
 48
25.4
100
AcDbLine
 10
201.460512965
 20
136.443106708
 30
0.0
 11
33.460512965
 21
136.443106708
 31
0.0
  0
LINE
  5
43B
330
40F
100
AcDbEntity
  8
DV4_Default
  6
Continuous
 62
     7
 48
25.4
100
AcDbLine
 10
33.460512965
 20
128.043106708
 30
0.0
 11
201.460512965
 21
128.043106708
 31
0.0
  0
LINE
  5
43C
330
40F
100
AcDbEntity
  8
DV4_Default
  6
Continuous
 62
     7
 48
25.4
100
AcDbLine
 10
201.460512965
 20
119.643106708
 30
0.0
 11
33.460512965
 21
119.643106708
 31
0.0
  0
LINE
  5
43D
330
40F
100
AcDbEntity
  8
DV4_Default
  6
Continuous
 62
     7
 48
25.4
100
AcDbLine
 10
33.460512965
 20
111.243106708
 30
0.0
 11
201.460512965
 21
111.243106708
 31
0.0
  0
LINE
  5
43E
330
40F
100
AcDbEntity
  8
DV4_Default
  6
Continuous
 62
     7
 48
25.4
100
AcDbLine
 10
201.460512965
 20
102.843106708
 30
0.0
 11
33.460512965
 21
102.843106708
 31
0.0
  0
LINE
  5
43F
330
40F
100
AcDbEntity
  8
DV4_Default
  6
Continuous
 62
     7
 48
25.4
100
AcDbLine
 10
33.460512965
 20
94.443106708
 30
0.0
 11
201.460512965
 21
94.443106708
 31
0.0
  0
LINE
  5
440
330
40F
100
AcDbEntity
  8
DV4_Default
  6
Continuous
 62
     7
 48
25.4
100
AcDbLine
 10
201.460512965
 20
86.043106708
 30
0.0
 11
33.460512965
 21
86.043106708
 31
0.0
  0
LINE
  5
441
330
40F
100
AcDbEntity
  8
DV4_Default
  6
Continuous
 62
     7
 48
25.4
100
AcDbLine
 10
33.460512965
 20
77.643106708
 30
0.0
 11
201.460512965
 21
77.643106708
 31
0.0
  0
LINE
  5
442
330
40F
100
AcDbEntity
  8
DV4_Default
  6
Continuous
 62
     7
 48
25.4
100
AcDbLine
 10
201.460512965
 20
69.243106708
 30
0.0
 11
33.460512965
 21
69.243106708
 31
0.0
  0
LINE
  5
443
330
40F
100
AcDbEntity
  8
DV4_Default
  6
Continuous
 62
     7
 48
25.4
100
AcDbLine
 10
33.460512965
 20
60.843106708
 30
0.0
 11
201.460512965
 21
60.843106708
 31
0.0
  0
LINE
  5
444
330
40F
100
AcDbEntity
  8
DV4_Default
  6
Continuous
 62
     7
 48
25.4
100
AcDbLine
 10
201.460512965
 20
52.443106708
 30
0.0
 11
33.460512965
 21
52.443106708
 31
0.0
  0
LINE
  5
445
330
40F
100
AcDbEntity
  8
DV4_Default
  6
Continuous
 62
     7
 48
25.4
100
AcDbLine
 10
33.460512965
 20
44.043106708
 30
0.0
 11
201.460512965
 21
44.043106708
 31
0.0
  0
LINE
  5
446
330
40F
100
AcDbEntity
  8
DV4_Default
  6
Continuous
 62
     7
 48
25.4
100
AcDbLine
 10
201.460512965
 20
35.643106708
 30
0.0
 11
33.460512965
 21
35.643106708
 31
0.0
  0
TEXT
  5
447
330
40F
100
AcDbEntity
  8
DV4_Default
  6
Continuous
 62
     7
 48
25.4
100
AcDbText
 10
89.2091412406
 20
166.9571282546
 30
0.0
 40
4.2
  1
Specifications
  7
SEACAD_arial_ttf
 11
89.2091412406
 21
171.1571282546
 31
0.0
100
AcDbText
 73
     3
  0
TEXT
  5
448
330
40F
100
AcDbEntity
  8
DV4_Default
  6
Continuous
 62
     7
 48
25.4
100
AcDbText
 10
35.195553121
 20
138.9883004857
 30
0.0
 40
3.5
  1
MAX. GRIPPING RANGE
  7
SEACAD_arial_ttf
 11
35.195553121
 21
142.4883004857
 31
0.0
100
AcDbText
 73
     3
  0
TEXT
  5
449
330
40F
100
AcDbEntity
  8
DV4_Default
  6
Continuous
 62
     7
 48
25.4
100
AcDbText
 10
35.1920017834
 20
130.4620687506
 30
0.0
 40
3.5
  1
MIN. GRIPPING RANGE
  7
SEACAD_arial_ttf
 11
35.1920017834
 21
133.9620687506
 31
0.0
100
AcDbText
 73
     3
  0
TEXT
  5
44A
330
40F
100
AcDbEntity
  8
DV4_Default
  6
Continuous
 62
     7
 48
25.4
100
AcDbText
 10
35.3234130178
 20
121.9946208205
 30
0.0
 40
3.5
  1
JAW STROKE
  7
SEACAD_arial_ttf
 11
35.3234130178
 21
125.4946208205
 31
0.0
100
AcDbText
 73
     3
  0
TEXT
  5
44B
330
40F
100
AcDbEntity
  8
DV4_Default
  6
Continuous
 62
     7
 48
25.4
100
AcDbText
 10
35.1224189864
 20
113.6860621745
 30
0.0
 40
3.5
  1
PLUNGER STROKE
  7
SEACAD_arial_ttf
 11
35.1224189864
 21
117.1860621745
 31
0.0
100
AcDbText
 73
     3
  0
TEXT
  5
44C
330
40F
100
AcDbEntity
  8
DV4_Default
  6
Continuous
 62
     7
 48
25.4
100
AcDbText
 10
35.2071332557
 20
105.2796468389
 30
0.0
 40
3.5
  1
MAX. DRAW BAR PULL FORCE
  7
SEACAD_arial_ttf
 11
35.2071332557
 21
108.7796468389
 31
0.0
100
AcDbText
 73
     3
  0
TEXT
  5
44D
330
40F
100
AcDbEntity
  8
DV4_Default
  6
Continuous
 62
     7
 48
25.4
100
AcDbText
 10
35.2810485331
 20
96.8916398759
 30
0.0
 40
3.5
  1
MAX. GRIPPING FORCE
  7
SEACAD_arial_ttf
 11
35.2810485331
 21
100.3916398759
 31
0.0
100
AcDbText
 73
     3
  0
TEXT
  5
44E
330
40F
100
AcDbEntity
  8
DV4_Default
  6
Continuous
 62
     7
 48
25.4
100
AcDbText
 10
35.2896545455
 20
88.4940418302
 30
0.0
 40
3.5
  1
MAX. SPEED
  7
SEACAD_arial_ttf
 11
35.2896545455
 21
91.9940418302
 31
0.0
100
AcDbText
 73
     3
  0
TEXT
  5
44F
330
40F
100
AcDbEntity
  8
DV4_Default
  6
Continuous
 62
     7
 48
25.4
100
AcDbText
 10
35.1476629467
 20
71.7336734317
 30
0.0
 40
3.5
  1
NET WEIGHT WITH SOFT TOP JAWS
  7
SEACAD_arial_ttf
 11
35.1476629467
 21
75.2336734317
 31
0.0
100
AcDbText
 73
     3
  0
TEXT
  5
450
330
40F
100
AcDbEntity
  8
DV4_Default
  6
Continuous
 62
     7
 48
25.4
100
AcDbText
 10
35.232377216
 20
63.2922359046
 30
0.0
 40
3.5
  1
MOMENT OF INERTIA
  7
SEACAD_arial_ttf
 11
35.232377216
 21
66.7922359046
 31
0.0
100
AcDbText
 73
     3
  0
TEXT
  5
451
330
40F
100
AcDbEntity
  8
DV4_Default
  6
Continuous
 62
     7
 48
25.4
100
AcDbText
 10
35.2780112509
 20
54.8908542535
 30
0.0
 40
3.5
  1
MATCHING CYLINDER (HYDRAULIC)
  7
SEACAD_arial_ttf
 11
35.2780112509
 21
58.3908542535
 31
0.0
100
AcDbText
 73
     3
  0
TEXT
  5
452
330
40F
100
AcDbEntity
  8
DV4_Default
  6
Continuous
 62
     7
 48
25.4
100
AcDbText
 10
35.2136944061
 20
38.1020701105
 30
0.0
 40
3.5
  1
MAX. PRESSURE
  7
SEACAD_arial_ttf
 11
35.2136944061
 21
41.6020701105
 31
0.0
100
AcDbText
 73
     3
  0
TEXT
  5
453
330
40F
100
AcDbEntity
  8
DV4_Default
  6
Continuous
 62
     7
 48
25.4
100
AcDbText
 10
35.2677368747
 20
29.8399445525
 30
0.0
 40
3.5
  1
MATCHING HARD TOP JAW
  7
SEACAD_arial_ttf
 11
35.2677368747
 21
33.3399445525
 31
0.0
100
AcDbText
 73
     3
  0
TEXT
  5
454
330
40F
100
AcDbEntity
  8
DV4_Default
  6
Continuous
 62
     7
 48
25.4
100
AcDbText
 10
35.2677368747
 20
21.5656163949
 30
0.0
 40
3.5
  1
MATCHING SOFT TOP JAW
  7
SEACAD_arial_ttf
 11
35.2677368747
 21
25.0656163949
 31
0.0
100
AcDbText
 73
     3
  0
LINE
  5
455
330
40F
100
AcDbEntity
  8
DV4_Default
  6
Continuous
 62
     7
 48
25.4
100
AcDbLine
 10
33.460512965
 20
18.843106708
 30
0.0
 11
201.460512965
 21
18.843106708
 31
0.0
  0
LINE
  5
456
330
40F
100
AcDbEntity
  8
DV4_Default
  6
Continuous
 62
     7
 48
25.4
100
AcDbLine
 10
138.3325260151
 20
153.243106708
 30
0.0
 11
138.3325260151
 21
18.843106708
 31
0.0
  0
LINE
  5
457
330
40F
100
AcDbEntity
  8
DV4_Default
  6
Continuous
 62
     7
 48
25.4
100
AcDbLine
 10
33.460512965
 20
153.243106708
 30
0.0
 11
33.460512965
 21
18.843106708
 31
0.0
  0
LINE
  5
458
330
40F
100
AcDbEntity
  8
DV4_Default
  6
Continuous
 62
     7
 48
25.4
100
AcDbLine
 10
201.460512965
 20
153.243106708
 30
0.0
 11
201.460512965
 21
18.843106708
 31
0.0
  0
TEXT
  5
459
330
40F
100
AcDbEntity
  8
DV4_Default
  6
Continuous
 62
     7
 48
25.4
100
AcDbText
 10
140.4362528447
 20
138.7560108428
 30
0.0
 40
3.5
  1
165mm
  7
SEACAD_arial_ttf
 11
140.4362528447
 21
142.2560108428
 31
0.0
100
AcDbText
 73
     3
  0
TEXT
  5
45A
330
40F
100
AcDbEntity
  8
DV4_Default
  6
Continuous
 62
     7
 48
25.4
100
AcDbText
 10
140.4725312721
 20
130.5088034973
 30
0.0
 40
3.5
  1
19mm
  7
SEACAD_arial_ttf
 11
140.4725312721
 21
134.0088034973
 31
0.0
100
AcDbText
 73
     3
  0
TEXT
  5
45B
330
40F
100
AcDbEntity
  8
DV4_Default
  6
Continuous
 62
     7
 48
25.4
100
AcDbText
 10
140.8793077729
 20
121.9789980319
 30
0.0
 40
3.5
  1
8.5mm
  7
SEACAD_arial_ttf
 11
140.8793077729
 21
125.4789980319
 31
0.0
100
AcDbText
 73
     3
  0
TEXT
  5
45C
330
40F
100
AcDbEntity
  8
DV4_Default
  6
Continuous
 62
     7
 48
25.4
100
AcDbText
 10
140.8687369863
 20
113.8783876557
 30
0.0
 40
3.5
  1
20mm
  7
SEACAD_arial_ttf
 11
140.8687369863
 21
117.3783876557
 31
0.0
100
AcDbText
 73
     3
  0
TEXT
  5
45D
330
40F
100
AcDbEntity
  8
DV4_Default
  6
Continuous
 62
     7
 48
25.4
100
AcDbText
 10
140.4228553797
 20
105.2505308063
 30
0.0
 40
3.5
  1
18kN
  7
SEACAD_arial_ttf
 11
140.4228553797
 21
108.7505308063
 31
0.0
100
AcDbText
 73
     3
  0
TEXT
  5
45E
330
40F
100
AcDbEntity
  8
DV4_Default
  6
Continuous
 62
     7
 48
25.4
100
AcDbText
 10
140.8585153789
 20
96.941913237
 30
0.0
 40
3.5
  1
52.5kN
  7
SEACAD_arial_ttf
 11
140.8585153789
 21
100.441913237
 31
0.0
100
AcDbText
 73
     3
  0
TEXT
  5
45F
330
40F
100
AcDbEntity
  8
DV4_Default
  6
Continuous
 62
     7
 48
25.4
100
AcDbText
 10
140.8017396688
 20
88.6919864817
 30
0.0
 40
3.5
  1
5270min-
  7
SEACAD_arial_ttf
 11
140.8017396688
 21
92.1919864817
 31
0.0
100
AcDbText
 73
     3
  0
TEXT
  5
460
330
40F
100
AcDbEntity
  8
DV4_Default
  6
Continuous
 62
     7
 48
25.4
100
AcDbText
 10
161.3452179297
 20
88.6919864817
 30
0.0
 40
3.2102777778
  1
¹
  7
SEACAD_arial_ttf
 11
161.3452179297
 21
91.9022642595
 31
0.0
100
AcDbText
 73
     3
  0
TEXT
  5
461
330
40F
100
AcDbEntity
  8
DV4_Default
  6
Continuous
 62
     7
 48
25.4
100
AcDbText
 10
140.4285385291
 20
80.0523494317
 30
0.0
 40
3.5
  1
17.5kN
  7
SEACAD_arial_ttf
 11
140.4285385291
 21
83.5523494317
 31
0.0
100
AcDbText
 73
     3
  0
TEXT
  5
462
330
40F
100
AcDbEntity
  8
DV4_Default
  6
Continuous
 62
     7
 48
25.4
100
AcDbText
 10
140.4413338061
 20
71.5641622813
 30
0.0
 40
3.5
  1
14kg
  7
SEACAD_arial_ttf
 11
140.4413338061
 21
75.0641622813
 31
0.0
100
AcDbText
 73
     3
  0
TEXT
  5
463
330
40F
100
AcDbEntity
  8
DV4_Default
  6
Continuous
 62
     7
 48
25.4
100
AcDbText
 10
140.7774873641
 20
63.2445389397
 30
0.0
 40
3.5
  1
0.050kg.m
  7
SEACAD_arial_ttf
 11
140.7774873641
 21
66.7445389397
 31
0.0
100
AcDbText
 73
     3
  0
TEXT
  5
464
330
40F
100
AcDbEntity
  8
DV4_Default
  6
Continuous
 62
     7
 48
25.4
100
AcDbText
 10
163.9079221467
 20
63.2445389397
 30
0.0
 40
3.2102777778
  1
²
  7
SEACAD_arial_ttf
 11
163.9079221467
 21
66.4548167175
 31
0.0
100
AcDbText
 73
     3
  0
TEXT
  5
465
330
40F
100
AcDbEntity
  8
DV4_Default
  6
Continuous
 62
     7
 48
25.4
100
AcDbText
 10
141.0000288096
 20
54.78742225
 30
0.0
 40
3.5
  1
Y1020R
  7
SEACAD_arial_ttf
 11
141.0000288096
 21
58.28742225
 31
0.0
100
AcDbText
 73
     3
  0
TEXT
  5
466
330
40F
100
AcDbEntity
  8
DV4_Default
  6
Continuous
 62
     7
 48
25.4
100
AcDbText
 10
140.8694468682
 20
38.1622533382
 30
0.0
 40
3.5
  1
2.60MPa
  7
SEACAD_arial_ttf
 11
140.8694468682
 21
41.6622533382
 31
0.0
100
AcDbText
 73
     3
  0
TEXT
  5
467
330
40F
100
AcDbEntity
  8
DV4_Default
  6
Continuous
 62
     7
 48
25.4
100
AcDbText
 10
140.5864274703
 20
29.8780292318
 30
0.0
 40
3.5
  1
HB06B1
  7
SEACAD_arial_ttf
 11
140.5864274703
 21
33.3780292318
 31
0.0
100
AcDbText
 73
     3
  0
ARC
  5
468
330
40F
100
AcDbEntity
  8
DV4_Default
  6
Continuous
 62
     7
 48
25.4
100
AcDbCircle
 10
323.7353716862
 20
281.4776810325
 30
0.0
 40
237.3459868825478
100
AcDbArc
 50
281.7665105226
 51
296.8156772639
  0
LINE
  5
469
330
40F
100
AcDbEntity
  8
DV4_Default
  6
Continuous
 62
     7
 48
25.4
100
AcDbLine
 10
295.6294136585
 20
56.3666081125
 30
0.0
 11
430.8073093626
 21
56.3666081125
 31
0.0
  0
LINE
  5
46A
330
40F
100
AcDbEntity
  8
DV4_Default
  6
Continuous
 62
     7
 48
25.4
100
AcDbLine
 10
430.8073093626
 20
74.2166081125
 30
0.0
 11
295.6294136585
 21
74.2166081125
 31
0.0
  0
LINE
  5
46B
330
40F
100
AcDbEntity
  8
DV4_Default
  6
Continuous
 62
     7
 48
25.4
100
AcDbLine
 10
295.6294136585
 20
91.9266081125
 30
0.0
 11
430.8073093626
 21
91.9266081125
 31
0.0
  0
LINE
  5
46C
330
40F
100
AcDbEntity
  8
DV4_Default
  6
Continuous
 62
     7
 48
25.4
100
AcDbLine
 10
430.8073093626
 20
109.6366081125
 30
0.0
 11
295.6294136585
 21
109.6366081125
 31
0.0
  0
LINE
  5
46D
330
40F
100
AcDbEntity
  8
DV4_Default
  6
Continuous
 62
     7
 48
25.4
100
AcDbLine
 10
295.6294136585
 20
127.3466081125
 30
0.0
 11
430.8073093626
 21
127.3466081125
 31
0.0
  0
TEXT
  5
46E
330
40F
100
AcDbEntity
  8
DV4_Default
  6
Continuous
 62
     7
 48
25.4
100
AcDbText
 10
430.5248768886
 20
32.9007870083
 30
0.0
 40
3.5
  1
5270
  7
SEACAD_arial_ttf
 11
430.5248768886
 21
36.4007870083
 31
0.0
100
AcDbText
 73
     3
  0
LINE
  5
46F
330
40F
100
AcDbEntity
  8
DV4_Default
  6
Continuous
 62
     7
 48
25.4
100
AcDbLine
 10
320.8294136585
 20
38.5166081125
 30
0.0
 11
320.8294136585
 21
145.6166081125
 31
0.0
  0
LINE
  5
470
330
40F
100
AcDbEntity
  8
DV4_Default
  6
Continuous
 62
     7
 48
25.4
100
AcDbLine
 10
346.0294136585
 20
145.6166081125
 30
0.0
 11
346.0294136585
 21
38.5166081125
 31
0.0
  0
LINE
  5
471
330
40F
100
AcDbEntity
  8
DV4_Default
  6
Continuous
 62
     7
 48
25.4
100
AcDbLine
 10
371.2294136585
 20
38.5166081125
 30
0.0
 11
371.2294136585
 21
145.6166081125
 31
0.0
  0
LINE
  5
472
330
40F
100
AcDbEntity
  8
DV4_Default
  6
Continuous
 62
     7
 48
25.4
100
AcDbLine
 10
396.4294136585
 20
145.6166081125
 30
0.0
 11
396.4294136585
 21
38.5166081125
 31
0.0
  0
LINE
  5
473
330
40F
100
AcDbEntity
  8
DV4_Default
  6
Continuous
 62
     7
 48
25.4
100
AcDbLine
 10
421.6294136585
 20
38.5166081125
 30
0.0
 11
421.6294136585
 21
145.6166081125
 31
0.0
  0
ARC
  5
474
330
40F
100
AcDbEntity
  8
DV4_Default
  6
Continuous
 62
     7
 48
25.4
100
AcDbCircle
 10
276.3647770497
 20
-157.2929025234
 30
0.0
 40
227.5478444764526
100
AcDbArc
 50
65.1096283931
 51
85.1434159654
  0
ARC
  5
475
330
40F
100
AcDbEntity
  8
DV4_Default
  6
Continuous
 62
     7
 48
25.4
100
AcDbCircle
 10
282.753621233
 20
-124.4835794762
 30
0.0
 40
204.5967971866763
100
AcDbArc
 50
59.8040520441
 51
86.3918477388
  0
ARC
  5
476
330
40F
100
AcDbEntity
  8
DV4_Default
  6
Continuous
 62
     7
 48
25.4
100
AcDbCircle
 10
283.2789003935
 20
-115.7354460874
 30
0.0
 40
205.6830022601459
100
AcDbArc
 50
56.4586455336
 51
86.5575268538
  0
ARC
  5
477
330
40F
100
AcDbEntity
  8
DV4_Default
  6
Continuous
 62
     7
 48
25.4
100
AcDbCircle
 10
288.7221461064
 20
-89.6757914712
 30
0.0
 40
189.0326681790955
100
AcDbArc
 50
51.7425508648
 51
87.9059418505
  0
ARC
  5
478
330
40F
100
AcDbEntity
  8
DV4_Default
  6
Continuous
 62
     7
 48
25.4
100
AcDbCircle
 10
279.2445638305
 20
-100.0495043805
 30
0.0
 40
211.2457990628653
100
AcDbArc
 50
50.1746836976
 51
85.5515016493
  0
ARC
  5
479
330
40F
100
AcDbEntity
  8
DV4_Default
  6
Continuous
 62
     7
 48
25.4
100
AcDbCircle
 10
280.4410517921
 20
-79.9234493168
 30
0.0
 40
212.0938851134834
100
AcDbArc
 50
44.8495713345
 51
85.8934481317
  0
LINE
  5
47A
330
40F
100
AcDbEntity
  8
DV4_Default
  6
Continuous
 62
     7
 48
25.4
100
AcDbLine
 10
430.8073093626
 20
38.5166081125
 30
0.0
 11
430.8073093626
 21
145.6166081125
 31
0.0
  0
ARC
  5
47B
330
40F
100
AcDbEntity
  8
DV4_Default
  6
Continuous
 62
     7
 48
25.4
100
AcDbCircle
 10
280.8550432947
 20
-82.3646390687
 30
0.0
 40
204.3209256830745
100
AcDbArc
 50
46.3895499383
 51
85.8533444729
  0
TEXT
  5
47C
330
40F
100
AcDbEntity
  8
DV4_Default
  6
Continuous
 62
     7
 48
25.4
100
AcDbText
 10
284.4778879084
 20
131.0566552576
 30
0.0
 40
3.5
  1
52.5
  7
SEACAD_arial_ttf
 11
284.4778879084
 21
134.5566552576
 31
0.0
100
AcDbText
 73
     3
  0
TEXT
  5
47D
330
40F
100
AcDbEntity
  8
DV4_Default
  6
Continuous
 62
     7
 48
25.4
100
AcDbText
 10
35.2780112509
 20
46.426808459
 30
0.0
 40
3.5
  1
MATCHING CYLINDER (AIR)
  7
SEACAD_arial_ttf
 11
35.2780112509
 21
49.926808459
 31
0.0
100
AcDbText
 73
     3
  0
TEXT
  5
47E
330
40F
100
AcDbEntity
  8
DV4_Default
  6
Continuous
 62
     7
 48
25.4
100
AcDbText
 10
141.0000288096
 20
46.4428896414
 30
0.0
 40
3.5
  1
AY1720R
  7
SEACAD_arial_ttf
 11
141.0000288096
 21
49.9428896414
 31
0.0
100
AcDbText
 73
     3
  0
ENDBLK
  5
480
330
40F
100
AcDbEntity
  8
0
100
AcDbBlockEnd
  0
BLOCK
  5
48B
330
481
100
AcDbEntity
  8
0
100
AcDbBlockBegin
  2
GDimGGroup26
 70
     0
 71
     0
 10
0.0
 20
0.0
 30
0.0
  3
GDimGGroup26
  1

  0
HATCH
  5
483
330
481
100
AcDbEntity
  8
Default
  6
Continuous
 62
     7
 48
25.4
100
AcDbHatch
 10
0.0
 20
0.0
 30
0.0
210
0.0
220
0.0
230
1.0
  2
SOLID
 70
     1
 71
     0
 91
        1
 92
        1
 93
        3
 72
     1
 10
232.5262332806565
 20
184.0292186518948
 11
236.5262334706463
 21
184.6958853502265
 72
     1
 10
236.5262334706463
 20
184.6958853502265
 11
232.5262332806565
 21
185.3625520485581
 72
     1
 10
232.5262332806565
 20
185.3625520485581
 11
232.5262332806565
 21
184.0292186518948
 97
        0
 75
     0
 76
     1
 98
        0
  0
LWPOLYLINE
  5
484
330
481
100
AcDbEntity
  8
Default
  6
Continuous
 62
     7
 48
25.4
370
    30
100
AcDbPolyline
 90
        4
 70
     1
 43
0.00035
 10
232.5262332807
 20
184.0292186519
 10
236.5262334706
 20
184.6958853502
 10
232.5262332807
 20
185.3625520486
 10
232.5262332807
 20
184.0292186519
  0
HATCH
  5
485
330
481
100
AcDbEntity
  8
Default
  6
Continuous
 62
     7
 48
25.4
100
AcDbHatch
 10
0.0
 20
0.0
 30
0.0
210
0.0
220
0.0
230
1.0
  2
SOLID
 70
     1
 71
     0
 91
        1
 92
        1
 93
        3
 72
     1
 10
156.5262347931243
 20
184.0292186518948
 11
156.5262347931243
 21
185.3625520485581
 72
     1
 10
156.5262347931243
 20
185.3625520485581
 11
152.5262346031345
 21
184.6958853502265
 72
     1
 10
152.5262346031345
 20
184.6958853502265
 11
156.5262347931243
 21
184.0292186518948
 97
        0
 75
     0
 76
     1
 98
        0
  0
LWPOLYLINE
  5
486
330
481
100
AcDbEntity
  8
Default
  6
Continuous
 62
     7
 48
25.4
370
    30
100
AcDbPolyline
 90
        4
 70
     1
 43
0.00035
 10
156.5262347931
 20
184.0292186519
 10
152.5262346031
 20
184.6958853502
 10
156.5262347931
 20
185.3625520486
 10
156.5262347931
 20
184.0292186519
  0
LINE
  5
487
330
481
100
AcDbEntity
  8
Default
  6
Continuous
 62
     7
 48
25.4
100
AcDbLine
 10
236.5262334706
 20
209.9595766712
 30
0.0
 11
236.5262334706
 21
182.6958852552
 31
0.0
  0
LINE
  5
488
330
481
100
AcDbEntity
  8
Default
  6
Continuous
 62
     7
 48
25.4
100
AcDbLine
 10
152.5262334706
 20
223.4595766712
 30
0.0
 11
152.5262334706
 21
182.6958852552
 31
0.0
  0
LINE
  5
489
330
481
100
AcDbEntity
  8
Default
  6
Continuous
 62
     7
 48
25.4
100
AcDbLine
 10
236.5262334706
 20
184.6958853502
 30
0.0
 11
152.5262346031
 21
184.6958853502
 31
0.0
  0
TEXT
  5
48A
330
481
100
AcDbEntity
  8
Default
  6
Continuous
 62
     7
 48
25.4
100
AcDbText
 10
191.3957992543
 20
185.6958853502
 30
0.0
 40
4.0
  1
84
  7
SEACAD_arial_ttf
 11
191.3957992543
 21
189.6958853502
 31
0.0
100
AcDbText
 73
     3
  0
ENDBLK
  5
48C
330
481
100
AcDbEntity
  8
0
100
AcDbBlockEnd
  0
BLOCK
  5
497
330
48D
100
AcDbEntity
  8
0
100
AcDbBlockBegin
  2
GDimGGroup27
 70
     0
 71
     0
 10
0.0
 20
0.0
 30
0.0
  3
GDimGGroup27
  1

  0
HATCH
  5
48F
330
48D
100
AcDbEntity
  8
Default
  6
Continuous
 62
     7
 48
25.4
100
AcDbHatch
 10
0.0
 20
0.0
 30
0.0
210
0.0
220
0.0
230
1.0
  2
SOLID
 70
     1
 71
     0
 91
        1
 92
        1
 93
        3
 72
     1
 10
163.5262332806564
 20
197.0615015437644
 11
167.5262334706463
 21
197.728168242096
 72
     1
 10
167.5262334706463
 20
197.728168242096
 11
163.5262332806564
 21
198.3948349404276
 72
     1
 10
163.5262332806564
 20
198.3948349404276
 11
163.5262332806564
 21
197.0615015437644
 97
        0
 75
     0
 76
     1
 98
        0
  0
LWPOLYLINE
  5
490
330
48D
100
AcDbEntity
  8
Default
  6
Continuous
 62
     7
 48
25.4
370
    30
100
AcDbPolyline
 90
        4
 70
     1
 43
0.00035
 10
163.5262332807
 20
197.0615015438
 10
167.5262334706
 20
197.7281682421
 10
163.5262332807
 20
198.3948349404
 10
163.5262332807
 20
197.0615015438
  0
HATCH
  5
491
330
48D
100
AcDbEntity
  8
Default
  6
Continuous
 62
     7
 48
25.4
100
AcDbHatch
 10
0.0
 20
0.0
 30
0.0
210
0.0
220
0.0
230
1.0
  2
SOLID
 70
     1
 71
     0
 91
        1
 92
        1
 93
        3
 72
     1
 10
156.5262339959122
 20
197.0615015437644
 11
156.5262339959122
 21
198.3948349404276
 72
     1
 10
156.5262339959122
 20
198.3948349404276
 11
152.5262338059224
 21
197.728168242096
 72
     1
 10
152.5262338059224
 20
197.728168242096
 11
156.5262339959122
 21
197.0615015437644
 97
        0
 75
     0
 76
     1
 98
        0
  0
LWPOLYLINE
  5
492
330
48D
100
AcDbEntity
  8
Default
  6
Continuous
 62
     7
 48
25.4
370
    30
100
AcDbPolyline
 90
        4
 70
     1
 43
0.00035
 10
156.5262339959
 20
197.0615015438
 10
152.5262338059
 20
197.7281682421
 10
156.5262339959
 20
198.3948349404
 10
156.5262339959
 20
197.0615015438
  0
LINE
  5
493
330
48D
100
AcDbEntity
  8
Default
  6
Continuous
 62
     7
 48
25.4
100
AcDbLine
 10
167.5262334706
 20
229.2595766712
 30
0.0
 11
167.5262334706
 21
195.7281681471
 31
0.0
  0
LINE
  5
494
330
48D
100
AcDbEntity
  8
Default
  6
Continuous
 62
     7
 48
25.4
100
AcDbLine
 10
152.5262334706
 20
229.2595766712
 30
0.0
 11
152.5262334706
 21
195.7281681471
 31
0.0
  0
LINE
  5
495
330
48D
100
AcDbEntity
  8
Default
  6
Continuous
 62
     7
 48
25.4
100
AcDbLine
 10
167.5262334706
 20
197.7281682421
 30
0.0
 11
152.5262338059
 21
197.7281682421
 31
0.0
  0
TEXT
  5
496
330
48D
100
AcDbEntity
  8
Default
  6
Continuous
 62
     7
 48
25.4
100
AcDbText
 10
156.8957988557
 20
198.7281682421
 30
0.0
 40
4.0
  1
15
  7
SEACAD_arial_ttf
 11
156.8957988557
 21
202.7281682421
 31
0.0
100
AcDbText
 73
     3
  0
ENDBLK
  5
498
330
48D
100
AcDbEntity
  8
0
100
AcDbBlockEnd
  0
BLOCK
  5
4A1
330
499
100
AcDbEntity
  8
0
100
AcDbBlockBegin
  2
GDimGGroup28
 70
     0
 71
     0
 10
0.0
 20
0.0
 30
0.0
  3
GDimGGroup28
  1

  0
HATCH
  5
49B
330
499
100
AcDbEntity
  8
Default
  6
Continuous
 62
     7
 48
25.4
100
AcDbHatch
 10
0.0
 20
0.0
 30
0.0
210
0.0
220
0.0
230
1.0
  2
SOLID
 70
     1
 71
     0
 91
        1
 92
        1
 93
        3
 72
     1
 10
70.81885119709645
 20
213.9595768612316
 11
71.48551789542809
 21
209.9595766712418
 72
     1
 10
71.48551789542809
 20
209.9595766712418
 11
72.15218459375973
 21
213.9595768612316
 72
     1
 10
72.15218459375973
 20
213.9595768612316
 11
70.81885119709645
 21
213.9595768612316
 97
        0
 75
     0
 76
     1
 98
        0
  0
LWPOLYLINE
  5
49C
330
499
100
AcDbEntity
  8
Default
  6
Continuous
 62
     7
 48
25.4
370
    30
100
AcDbPolyline
 90
        4
 70
     1
 43
0.00035
 10
70.8188511971
 20
213.9595768612
 10
71.4855178954
 20
209.9595766712
 10
72.1521845938
 20
213.9595768612
 10
70.8188511971
 20
213.9595768612
  0
LINE
  5
49D
330
499
100
AcDbEntity
  8
Default
  6
Continuous
 62
     7
 48
25.4
100
AcDbLine
 10
162.5262334706
 20
209.9595766712
 30
0.0
 11
69.4855178004
 21
209.9595766712
 31
0.0
  0
LINE
  5
49E
330
499
100
AcDbEntity
  8
Default
  6
Continuous
 62
     7
 48
25.4
100
AcDbLine
 10
71.4855178954
 20
209.9595766712
 30
0.0
 11
71.4855178954
 21
264.2933715333
 31
0.0
  0
TEXT
  5
49F
330
499
100
AcDbEntity
  8
Default
  6
Continuous
 62
     7
 48
25.4
100
AcDbText
 10
70.4855178954
 20
225.0639923295
 30
0.0
 40
4.0
  1
O
 50
90.0
  7
SEACAD_semeca1_ttf
 11
66.4855178954
 21
225.0639923295
 31
0.0
100
AcDbText
 73
     3
  0
TEXT
  5
4A0
330
499
100
AcDbEntity
  8
Default
  6
Continuous
 62
     7
 48
25.4
100
AcDbText
 10
70.4855178954
 20
232.0253958383
 30
0.0
 40
4.0
  1
165
 50
90.0
  7
SEACAD_arial_ttf
 11
66.4855178954
 21
232.0253958383
 31
0.0
100
AcDbText
 73
     3
  0
ENDBLK
  5
4A2
330
499
100
AcDbEntity
  8
0
100
AcDbBlockEnd
  0
BLOCK
  5
4AC
330
4A3
100
AcDbEntity
  8
0
100
AcDbBlockBegin
  2
GDimGGroup29
 70
     0
 71
     0
 10
0.0
 20
0.0
 30
0.0
  3
GDimGGroup29
  1

  0
HATCH
  5
4A5
330
4A3
100
AcDbEntity
  8
Default
  6
Continuous
 62
     7
 48
25.4
100
AcDbHatch
 10
0.0
 20
0.0
 30
0.0
210
0.0
220
0.0
230
1.0
  2
SOLID
 70
     1
 71
     0
 91
        1
 92
        1
 93
        3
 72
     1
 10
93.91552945408495
 20
226.4595768612316
 11
94.58219615241659
 21
222.4595766712418
 72
     1
 10
94.58219615241659
 20
222.4595766712418
 11
95.24886285074823
 21
226.4595768612316
 72
     1
 10
95.24886285074823
 20
226.4595768612316
 11
93.91552945408495
 21
226.4595768612316
 97
        0
 75
     0
 76
     1
 98
        0
  0
LWPOLYLINE
  5
4A6
330
4A3
100
AcDbEntity
  8
Default
  6
Continuous
 62
     7
 48
25.4
370
    30
100
AcDbPolyline
 90
        4
 70
     1
 43
0.00035
 10
93.9155294541
 20
226.4595768612
 10
94.5821961524
 20
222.4595766712
 10
95.2488628507
 20
226.4595768612
 10
93.9155294541
 20
226.4595768612
  0
LINE
  5
4A7
330
4A3
100
AcDbEntity
  8
Default
  6
Continuous
 62
     7
 48
25.4
100
AcDbLine
 10
160.0262334706
 20
222.4595766712
 30
0.0
 11
92.5821960574
 21
222.4595766712
 31
0.0
  0
LINE
  5
4A8
330
4A3
100
AcDbEntity
  8
Default
  6
Continuous
 62
     7
 48
25.4
100
AcDbLine
 10
94.5821961524
 20
222.4595766712
 30
0.0
 11
94.5821961524
 21
266.9191841234
 31
0.0
  0
TEXT
  5
4A9
330
4A3
100
AcDbEntity
  8
Default
  6
Continuous
 62
     7
 48
25.4
100
AcDbText
 10
93.5821961524
 20
229.6940379097
 30
0.0
 40
4.0
  1
O
 50
90.0
  7
SEACAD_semeca1_ttf
 11
89.5821961524
 21
229.6940379097
 31
0.0
100
AcDbText
 73
     3
  0
TEXT
  5
4AA
330
4A3
100
AcDbEntity
  8
Default
  6
Continuous
 62
     7
 48
25.4
100
AcDbText
 10
93.5821961524
 20
236.6554414185
 30
0.0
 40
4.0
  1
140
 50
90.0
  7
SEACAD_arial_ttf
 11
89.5821961524
 21
236.6554414185
 31
0.0
100
AcDbText
 73
     3
  0
TEXT
  5
4AB
330
4A3
100
AcDbEntity
  8
Default
  6
Continuous
 62
     7
 48
25.4
100
AcDbText
 10
93.5821961524
 20
248.4467457663
 30
0.0
 40
4.0
  1
H6
 50
90.0
  7
SEACAD_arial_ttf
 11
89.5821961524
 21
248.4467457663
 31
0.0
100
AcDbText
 73
     3
  0
ENDBLK
  5
4AD
330
4A3
100
AcDbEntity
  8
0
100
AcDbBlockEnd
  0
BLOCK
  5
4B6
330
4AE
100
AcDbEntity
  8
0
100
AcDbBlockBegin
  2
GDimGGroup30
 70
     0
 71
     0
 10
0.0
 20
0.0
 30
0.0
  3
GDimGGroup30
  1

  0
HATCH
  5
4B0
330
4AE
100
AcDbEntity
  8
Default
  6
Continuous
 62
     7
 48
25.4
100
AcDbHatch
 10
0.0
 20
0.0
 30
0.0
210
0.0
220
0.0
230
1.0
  2
SOLID
 70
     1
 71
     0
 91
        1
 92
        1
 93
        3
 72
     1
 10
117.2777192834345
 20
255.1780768612316
 11
117.9443859817661
 21
251.1780766712418
 72
     1
 10
117.9443859817661
 20
251.1780766712418
 11
118.6110526800977
 21
255.1780768612316
 72
     1
 10
118.6110526800977
 20
255.1780768612316
 11
117.2777192834345
 21
255.1780768612316
 97
        0
 75
     0
 76
     1
 98
        0
  0
LWPOLYLINE
  5
4B1
330
4AE
100
AcDbEntity
  8
Default
  6
Continuous
 62
     7
 48
25.4
370
    30
100
AcDbPolyline
 90
        4
 70
     1
 43
0.00035
 10
117.2777192834
 20
255.1780768612
 10
117.9443859818
 20
251.1780766712
 10
118.6110526801
 20
255.1780768612
 10
117.2777192834
 20
255.1780768612
  0
LINE
  5
4B2
330
4AE
100
AcDbEntity
  8
Default
  6
Continuous
 62
     7
 48
25.4
100
AcDbLine
 10
152.5262334706
 20
251.1780766712
 30
0.0
 11
115.9443858868
 21
251.1780766712
 31
0.0
  0
LINE
  5
4B3
330
4AE
100
AcDbEntity
  8
Default
  6
Continuous
 62
     7
 48
25.4
100
AcDbLine
 10
117.9443859818
 20
251.1780766712
 30
0.0
 11
117.9443859818
 21
292.4595756398
 31
0.0
  0
TEXT
  5
4B4
330
4AE
100
AcDbEntity
  8
Default
  6
Continuous
 62
     7
 48
25.4
100
AcDbText
 10
116.9443859818
 20
260.8680264758
 30
0.0
 40
4.0
  1
O
 50
90.0
  7
SEACAD_semeca1_ttf
 11
112.9443859818
 21
260.8680264758
 31
0.0
100
AcDbText
 73
     3
  0
TEXT
  5
4B5
330
4AE
100
AcDbEntity
  8
Default
  6
Continuous
 62
     7
 48
25.4
100
AcDbText
 10
116.9443859818
 20
267.8294299846
 30
0.0
 40
4.0
  1
82.563
 50
90.0
  7
SEACAD_arial_ttf
 11
112.9443859818
 21
267.8294299846
 31
0.0
100
AcDbText
 73
     3
  0
ENDBLK
  5
4B7
330
4AE
100
AcDbEntity
  8
0
100
AcDbBlockEnd
  0
BLOCK
  5
4C3
330
4B8
100
AcDbEntity
  8
0
100
AcDbBlockBegin
  2
GDimGGroup31
 70
     0
 71
     0
 10
0.0
 20
0.0
 30
0.0
  3
GDimGGroup31
  1

  0
HATCH
  5
4BA
330
4B8
100
AcDbEntity
  8
Default
  6
Continuous
 62
     7
 48
25.4
100
AcDbHatch
 10
0.0
 20
0.0
 30
0.0
210
0.0
220
0.0
230
1.0
  2
SOLID
 70
     1
 71
     0
 91
        1
 92
        1
 93
        3
 72
     1
 10
70.02623366063604
 20
333.8515858519019
 11
66.02623347064623
 21
333.1849191535702
 72
     1
 10
66.02623347064623
 20
333.1849191535702
 11
70.02623366063604
 21
332.5182524552386
 72
     1
 10
70.02623366063604
 20
332.5182524552386
 11
70.02623366063604
 21
333.8515858519019
 97
        0
 75
     0
 76
     1
 98
        0
  0
LWPOLYLINE
  5
4BB
330
4B8
100
AcDbEntity
  8
Default
  6
Continuous
 62
     7
 48
25.4
370
    30
100
AcDbPolyline
 90
        4
 70
     1
 43
0.00035
 10
70.0262336606
 20
333.8515858519
 10
66.0262334706
 20
333.1849191536
 10
70.0262336606
 20
332.5182524552
 10
70.0262336606
 20
333.8515858519
  0
HATCH
  5
4BC
330
4B8
100
AcDbEntity
  8
Default
  6
Continuous
 62
     7
 48
25.4
100
AcDbHatch
 10
0.0
 20
0.0
 30
0.0
210
0.0
220
0.0
230
1.0
  2
SOLID
 70
     1
 71
     0
 91
        1
 92
        1
 93
        3
 72
     1
 10
148.5262297639824
 20
333.8515858519019
 11
148.5262297639824
 21
332.5182524552386
 72
     1
 10
148.5262297639824
 20
332.5182524552386
 11
152.5262299539722
 21
333.1849191535702
 72
     1
 10
152.5262299539722
 20
333.1849191535702
 11
148.5262297639824
 21
333.8515858519019
 97
        0
 75
     0
 76
     1
 98
        0
  0
LWPOLYLINE
  5
4BD
330
4B8
100
AcDbEntity
  8
Default
  6
Continuous
 62
     7
 48
25.4
370
    30
100
AcDbPolyline
 90
        4
 70
     1
 43
0.00035
 10
148.526229764
 20
333.8515858519
 10
152.526229954
 20
333.1849191536
 10
148.526229764
 20
332.5182524552
 10
148.526229764
 20
333.8515858519
  0
LINE
  5
4BE
330
4B8
100
AcDbEntity
  8
Default
  6
Continuous
 62
     7
 48
25.4
100
AcDbLine
 10
66.0262334706
 20
303.7095766712
 30
0.0
 11
66.0262334706
 21
335.1849192486
 31
0.0
  0
LINE
  5
4BF
330
4B8
100
AcDbEntity
  8
Default
  6
Continuous
 62
     7
 48
25.4
100
AcDbLine
 10
66.0262334706
 20
333.1849191536
 30
0.0
 11
152.526229954
 21
333.1849191536
 31
0.0
  0
TEXT
  5
4C0
330
4B8
100
AcDbEntity
  8
Default
  6
Continuous
 62
     7
 48
25.4
100
AcDbText
 10
111.1544925819
 20
340.1849191536
 30
0.0
 40
4.0
  1
86.5
  7
SEACAD_arial_ttf
 11
111.1544925819
 21
344.1849191536
 31
0.0
100
AcDbText
 73
     3
  0
TEXT
  5
4C1
330
4B8
100
AcDbEntity
  8
Default
  6
Continuous
 62
     7
 48
25.4
100
AcDbText
 10
96.4414491036
 20
340.1849191536
 30
0.0
 40
4.0
  1
MAX
  7
SEACAD_arial_ttf
 11
96.4414491036
 21
344.1849191536
 31
0.0
100
AcDbText
 73
     3
  0
TEXT
  5
4C2
330
4B8
100
AcDbEntity
  8
Default
  6
Continuous
 62
     7
 48
25.4
100
AcDbText
 10
96.4414491036
 20
334.1849191536
 30
0.0
 40
4.0
  1
MIN 66.5
  7
SEACAD_arial_ttf
 11
96.4414491036
 21
338.1849191536
 31
0.0
100
AcDbText
 73
     3
  0
ENDBLK
  5
4C4
330
4B8
100
AcDbEntity
  8
0
100
AcDbBlockEnd
  0
BLOCK
  5
4CF
330
4C5
100
AcDbEntity
  8
0
100
AcDbBlockBegin
  2
GDimGGroup32
 70
     0
 71
     0
 10
0.0
 20
0.0
 30
0.0
  3
GDimGGroup32
  1

  0
HATCH
  5
4C7
330
4C5
100
AcDbEntity
  8
Default
  6
Continuous
 62
     7
 48
25.4
100
AcDbHatch
 10
0.0
 20
0.0
 30
0.0
210
0.0
220
0.0
230
1.0
  2
SOLID
 70
     1
 71
     0
 91
        1
 92
        1
 93
        3
 72
     1
 10
70.02623366063604
 20
320.4243841934145
 11
66.02623347064623
 21
319.7577174950829
 72
     1
 10
66.02623347064623
 20
319.7577174950829
 11
70.02623366063604
 21
319.0910507967512
 72
     1
 10
70.02623366063604
 20
319.0910507967512
 11
70.02623366063604
 21
320.4243841934145
 97
        0
 75
     0
 76
     1
 98
        0
  0
LWPOLYLINE
  5
4C8
330
4C5
100
AcDbEntity
  8
Default
  6
Continuous
 62
     7
 48
25.4
370
    30
100
AcDbPolyline
 90
        4
 70
     1
 43
0.00035
 10
70.0262336606
 20
320.4243841934
 10
66.0262334706
 20
319.7577174951
 10
70.0262336606
 20
319.0910507968
 10
70.0262336606
 20
320.4243841934
  0
HATCH
  5
4C9
330
4C5
100
AcDbEntity
  8
Default
  6
Continuous
 62
     7
 48
25.4
100
AcDbHatch
 10
0.0
 20
0.0
 30
0.0
210
0.0
220
0.0
230
1.0
  2
SOLID
 70
     1
 71
     0
 91
        1
 92
        1
 93
        3
 72
     1
 10
87.02623365318546
 20
320.4243841934145
 11
87.02623365318546
 21
319.0910507967512
 72
     1
 10
87.02623365318546
 20
319.0910507967512
 11
91.02623384317526
 21
319.7577174950829
 72
     1
 10
91.02623384317526
 20
319.7577174950829
 11
87.02623365318546
 21
320.4243841934145
 97
        0
 75
     0
 76
     1
 98
        0
  0
LWPOLYLINE
  5
4CA
330
4C5
100
AcDbEntity
  8
Default
  6
Continuous
 62
     7
 48
25.4
370
    30
100
AcDbPolyline
 90
        4
 70
     1
 43
0.00035
 10
87.0262336532
 20
320.4243841934
 10
91.0262338432
 20
319.7577174951
 10
87.0262336532
 20
319.0910507968
 10
87.0262336532
 20
320.4243841934
  0
LINE
  5
4CB
330
4C5
100
AcDbEntity
  8
Default
  6
Continuous
 62
     7
 48
25.4
100
AcDbLine
 10
66.0262334706
 20
303.7095766712
 30
0.0
 11
66.0262334706
 21
321.7577175901
 31
0.0
  0
LINE
  5
4CC
330
4C5
100
AcDbEntity
  8
Default
  6
Continuous
 62
     7
 48
25.4
100
AcDbLine
 10
91.0262334706
 20
304.2095766712
 30
0.0
 11
91.0262334706
 21
321.7577175901
 31
0.0
  0
LINE
  5
4CD
330
4C5
100
AcDbEntity
  8
Default
  6
Continuous
 62
     7
 48
25.4
100
AcDbLine
 10
66.0262334706
 20
319.7577174951
 30
0.0
 11
91.0262338432
 21
319.7577174951
 31
0.0
  0
TEXT
  5
4CE
330
4C5
100
AcDbEntity
  8
Default
  6
Continuous
 62
     7
 48
25.4
100
AcDbText
 10
75.3957988743
 20
320.7577174951
 30
0.0
 40
4.0
  1
25
  7
SEACAD_arial_ttf
 11
75.3957988743
 21
324.7577174951
 31
0.0
100
AcDbText
 73
     3
  0
ENDBLK
  5
4D0
330
4C5
100
AcDbEntity
  8
0
100
AcDbBlockEnd
  0
ENDSEC
  0
SECTION
  2
ENTITIES
  0
INSERT
  5
2C
330
1F
100
AcDbEntity
  8
Default
100
AcDbBlockReference
  2
SEANNOT_GROUP
 10
0.0
 20
0.0
 30
0.0
  0
INSERT
  5
36
330
1F
100
AcDbEntity
  8
Default
100
AcDbBlockReference
  2
SEANNOT_GROUP1
 10
0.0
 20
0.0
 30
0.0
  0
INSERT
  5
40
330
1F
100
AcDbEntity
  8
Default
100
AcDbBlockReference
  2
SEANNOT_GROUP2
 10
0.0
 20
0.0
 30
0.0
  0
INSERT
  5
49
330
1F
100
AcDbEntity
  8
Default
100
AcDbBlockReference
  2
SEANNOT_GROUP3
 10
0.0
 20
0.0
 30
0.0
  0
INSERT
  5
52
330
1F
100
AcDbEntity
  8
Default
100
AcDbBlockReference
  2
SE
 10
0.0
 20
0.0
 30
0.0
  0
INSERT
  5
106
330
1F
100
AcDbEntity
  8
Default
100
AcDbBlockReference
  2
SE1
 10
0.0
 20
0.0
 30
0.0
  0
INSERT
  5
138
330
1F
100
AcDbEntity
  8
Default
100
AcDbBlockReference
  2
GDimGGroup
 10
0.0
 20
0.0
 30
0.0
  0
INSERT
  5
144
330
1F
100
AcDbEntity
  8
Default
100
AcDbBlockReference
  2
GDimGGroup1
 10
0.0
 20
0.0
 30
0.0
  0
INSERT
  5
150
330
1F
100
AcDbEntity
  8
Default
100
AcDbBlockReference
  2
GDimGGroup2
 10
0.0
 20
0.0
 30
0.0
  0
INSERT
  5
15D
330
1F
100
AcDbEntity
  8
Default
100
AcDbBlockReference
  2
GDimGGroup3
 10
0.0
 20
0.0
 30
0.0
  0
INSERT
  5
169
330
1F
100
AcDbEntity
  8
Default
100
AcDbBlockReference
  2
GDimGGroup4
 10
0.0
 20
0.0
 30
0.0
  0
INSERT
  5
175
330
1F
100
AcDbEntity
  8
Default
100
AcDbBlockReference
  2
GDimGGroup5
 10
0.0
 20
0.0
 30
0.0
  0
INSERT
  5
181
330
1F
100
AcDbEntity
  8
Default
100
AcDbBlockReference
  2
GDimGGroup6
 10
0.0
 20
0.0
 30
0.0
  0
INSERT
  5
18D
330
1F
100
AcDbEntity
  8
Default
100
AcDbBlockReference
  2
GDimGGroup7
 10
0.0
 20
0.0
 30
0.0
  0
INSERT
  5
199
330
1F
100
AcDbEntity
  8
Default
100
AcDbBlockReference
  2
GDimGGroup8
 10
0.0
 20
0.0
 30
0.0
  0
INSERT
  5
1A5
330
1F
100
AcDbEntity
  8
Default
100
AcDbBlockReference
  2
GDimGGroup9
 10
0.0
 20
0.0
 30
0.0
  0
INSERT
  5
1B1
330
1F
100
AcDbEntity
  8
Default
100
AcDbBlockReference
  2
GDimGGroup10
 10
0.0
 20
0.0
 30
0.0
  0
INSERT
  5
1BB
330
1F
100
AcDbEntity
  8
Default
100
AcDbBlockReference
  2
GDimGGroup11
 10
0.0
 20
0.0
 30
0.0
  0
INSERT
  5
1C6
330
1F
100
AcDbEntity
  8
Default
100
AcDbBlockReference
  2
SE2
 10
0.0
 20
0.0
 30
0.0
  0
INSERT
  5
364
330
1F
100
AcDbEntity
  8
Default
100
AcDbBlockReference
  2
GDimGGroup12
 10
0.0
 20
0.0
 30
0.0
  0
INSERT
  5
370
330
1F
100
AcDbEntity
  8
Default
100
AcDbBlockReference
  2
GDimGGroup13
 10
0.0
 20
0.0
 30
0.0
  0
INSERT
  5
37C
330
1F
100
AcDbEntity
  8
Default
100
AcDbBlockReference
  2
GDimGGroup14
 10
0.0
 20
0.0
 30
0.0
  0
INSERT
  5
38A
330
1F
100
AcDbEntity
  8
Default
100
AcDbBlockReference
  2
GDimGGroup15
 10
0.0
 20
0.0
 30
0.0
  0
INSERT
  5
398
330
1F
100
AcDbEntity
  8
Default
100
AcDbBlockReference
  2
GDimGGroup16
 10
0.0
 20
0.0
 30
0.0
  0
INSERT
  5
3A4
330
1F
100
AcDbEntity
  8
Default
100
AcDbBlockReference
  2
GDimGGroup17
 10
0.0
 20
0.0
 30
0.0
  0
INSERT
  5
3B1
330
1F
100
AcDbEntity
  8
Default
100
AcDbBlockReference
  2
GDimGGroup18
 10
0.0
 20
0.0
 30
0.0
  0
INSERT
  5
3BC
330
1F
100
AcDbEntity
  8
Default
100
AcDbBlockReference
  2
GDimGGroup19
 10
0.0
 20
0.0
 30
0.0
  0
INSERT
  5
3C8
330
1F
100
AcDbEntity
  8
Default
100
AcDbBlockReference
  2
GDimGGroup20
 10
0.0
 20
0.0
 30
0.0
  0
INSERT
  5
3D4
330
1F
100
AcDbEntity
  8
Default
100
AcDbBlockReference
  2
GDimGGroup21
 10
0.0
 20
0.0
 30
0.0
  0
INSERT
  5
3E0
330
1F
100
AcDbEntity
  8
Default
100
AcDbBlockReference
  2
GDimGGroup22
 10
0.0
 20
0.0
 30
0.0
  0
INSERT
  5
3EB
330
1F
100
AcDbEntity
  8
Default
100
AcDbBlockReference
  2
GDimGGroup23
 10
0.0
 20
0.0
 30
0.0
  0
INSERT
  5
3F8
330
1F
100
AcDbEntity
  8
Default
100
AcDbBlockReference
  2
GDimGGroup24
 10
0.0
 20
0.0
 30
0.0
  0
INSERT
  5
404
330
1F
100
AcDbEntity
  8
Default
100
AcDbBlockReference
  2
GDimGGroup25
 10
0.0
 20
0.0
 30
0.0
  0
INSERT
  5
410
330
1F
100
AcDbEntity
  8
Default
100
AcDbBlockReference
  2
SE3
 10
0.0
 20
0.0
 30
0.0
  0
INSERT
  5
482
330
1F
100
AcDbEntity
  8
Default
100
AcDbBlockReference
  2
GDimGGroup26
 10
0.0
 20
0.0
 30
0.0
  0
INSERT
  5
48E
330
1F
100
AcDbEntity
  8
Default
100
AcDbBlockReference
  2
GDimGGroup27
 10
0.0
 20
0.0
 30
0.0
  0
INSERT
  5
49A
330
1F
100
AcDbEntity
  8
Default
100
AcDbBlockReference
  2
GDimGGroup28
 10
0.0
 20
0.0
 30
0.0
  0
INSERT
  5
4A4
330
1F
100
AcDbEntity
  8
Default
100
AcDbBlockReference
  2
GDimGGroup29
 10
0.0
 20
0.0
 30
0.0
  0
INSERT
  5
4AF
330
1F
100
AcDbEntity
  8
Default
100
AcDbBlockReference
  2
GDimGGroup30
 10
0.0
 20
0.0
 30
0.0
  0
INSERT
  5
4B9
330
1F
100
AcDbEntity
  8
Default
100
AcDbBlockReference
  2
GDimGGroup31
 10
0.0
 20
0.0
 30
0.0
  0
INSERT
  5
4C6
330
1F
100
AcDbEntity
  8
Default
100
AcDbBlockReference
  2
GDimGGroup32
 10
0.0
 20
0.0
 30
0.0
  0
LINE
  5
4D2
330
1F
100
AcDbEntity
  8
BORDER
  6
Continuous
 62
     7
 48
25.4
100
AcDbLine
 10
6.2292620399
 20
410.0
 30
0.0
 11
586.2292620399
 21
410.0
 31
0.0
  0
LINE
  5
4D3
330
1F
100
AcDbEntity
  8
BORDER
  6
Continuous
 62
     7
 48
25.4
100
AcDbLine
 10
6.2292620399
 20
410.0
 30
0.0
 11
6.2292620399
 21
10.0
 31
0.0
  0
LINE
  5
4D4
330
1F
100
AcDbEntity
  8
BORDER
  6
Continuous
 62
     7
 48
25.4
100
AcDbLine
 10
6.2292620399
 20
10.0
 30
0.0
 11
586.2292620399
 21
10.0
 31
0.0
  0
LINE
  5
4D5
330
1F
100
AcDbEntity
  8
BORDER
  6
Continuous
 62
     7
 48
25.4
100
AcDbLine
 10
586.2292620399
 20
10.0
 30
0.0
 11
586.2292620399
 21
410.0
 31
0.0
  0
LINE
  5
4D6
330
1F
100
AcDbEntity
  8
Default
  6
Continuous
 62
     7
 48
25.4
100
AcDbLine
 10
3.7292620399
 20
412.5
 30
0.0
 11
588.7292620399
 21
412.5
 31
0.0
  0
LINE
  5
4D7
330
1F
100
AcDbEntity
  8
Default
  6
Continuous
 62
     7
 48
25.4
100
AcDbLine
 10
588.7292620399
 20
412.5
 30
0.0
 11
588.7292620399
 21
7.5
 31
0.0
  0
LINE
  5
4D8
330
1F
100
AcDbEntity
  8
Default
  6
Continuous
 62
     7
 48
25.4
100
AcDbLine
 10
588.7292620399
 20
7.5
 30
0.0
 11
3.7292620399
 21
7.5
 31
0.0
  0
LINE
  5
4D9
330
1F
100
AcDbEntity
  8
Default
  6
Continuous
 62
     7
 48
25.4
100
AcDbLine
 10
3.7292620399
 20
7.5
 30
0.0
 11
3.7292620399
 21
412.5
 31
0.0
  0
TEXT
  5
4DA
330
1F
100
AcDbEntity
  8
Default
  6
Continuous
 62
     7
 48
25.4
100
AcDbText
 10
473.5242219525
 20
28.1561611714
 30
0.0
 40
5.0
  1
TITLE :
  7
SEACAD_arial_ttf
 11
473.5242219525
 21
33.1561611714
 31
0.0
100
AcDbText
 73
     3
  0
TEXT
  5
4DB
330
1F
100
AcDbEntity
  8
Default
  6
Continuous
 62
     7
 48
25.4
100
AcDbText
 10
473.4498030642
 20
40.2710242694
 30
0.0
 40
5.0
  1
KITAGAWA EUROPE LIMITED
  7
SEACAD_arial_ttf
 11
473.4498030642
 21
45.2710242694
 31
0.0
100
AcDbText
 73
     3
  0
TEXT
  5
4DC
330
1F
100
AcDbEntity
  8
Default
  6
Continuous
 62
     7
 48
25.4
100
AcDbText
 10
474.4044215056
 20
15.7611952147
 30
0.0
 40
5.0
  1
www.kitagawaeurope.com
  7
SEACAD_arial_ttf
 11
474.4044215056
 21
20.7611952147
 31
0.0
100
AcDbText
 73
     3
  0
TEXT
  5
4DD
330
1F
100
AcDbEntity
  8
Default
  6
Continuous
 62
     7
 48
25.4
100
AcDbText
 10
497.8463064412
 20
27.8559210467
 30
0.0
 40
5.0
  1
N-06A5 POWER CHUCK
  7
SEACAD_arial_ttf
 11
497.8463064412
 21
32.8559210467
 31
0.0
100
AcDbText
 73
     3
  0
LINE
  5
4DE
330
1F
100
AcDbEntity
  8
Default
  6
Continuous
 62
     7
 48
25.4
100
AcDbLine
 10
471.5030858285
 20
50.0
 30
0.0
 11
586.2292620399
 21
50.0
 31
0.0
  0
LINE
  5
4DF
330
1F
100
AcDbEntity
  8
Default
  6
Continuous
 62
     7
 48
25.4
100
AcDbLine
 10
471.5030858285
 20
36.7
 30
0.0
 11
586.2292620399
 21
36.7
 31
0.0
  0
LINE
  5
4E0
330
1F
100
AcDbEntity
  8
Default
  6
Continuous
 62
     7
 48
25.4
100
AcDbLine
 10
586.2292620399
 20
23.4
 30
0.0
 11
471.5030858285
 21
23.4
 31
0.0
  0
LINE
  5
4E1
330
1F
100
AcDbEntity
  8
Default
  6
Continuous
 62
     7
 48
25.4
100
AcDbLine
 10
471.5030858285
 20
50.0
 30
0.0
 11
471.5030858285
 21
10.0
 31
0.0
  0
ENDSEC
  0
SECTION
  2
OBJECTS
  0
DICTIONARY
  5
C
330
0
100
AcDbDictionary
281
     1
  3
ACAD_GROUP
350
D
  3
ACAD_LAYOUT
350
1A
  3
ACAD_MLINESTYLE
350
17
  3
ACAD_PLOTSETTINGS
350
19
  3
ACAD_PLOTSTYLENAME
350
E
  0
DICTIONARY
  5
D
102
{ACAD_REACTORS
330
C
102
}
330
C
100
AcDbDictionary
281
     1
  0
DICTIONARY
  5
1A
102
{ACAD_REACTORS
330
C
102
}
330
C
100
AcDbDictionary
281
     1
  3
Layout1
350
1E
  3
Model
350
22
  0
DICTIONARY
  5
17
102
{ACAD_REACTORS
330
C
102
}
330
C
100
AcDbDictionary
281
     1
  3
Standard
350
18
  0
DICTIONARY
  5
19
102
{ACAD_REACTORS
330
C
102
}
330
C
100
AcDbDictionary
281
     1
  0
ACDBDICTIONARYWDFLT
  5
E
102
{ACAD_REACTORS
330
C
102
}
330
C
100
AcDbDictionary
281
     1
  3
Normal
350
F
100
AcDbDictionaryWithDefault
340
F
  0
LAYOUT
  5
1E
102
{ACAD_REACTORS
330
1A
102
}
330
1A
100
AcDbPlotSettings
  1

  2

  4

  6

 40
0.0
 41
0.0
 42
0.0
 43
0.0
 44
0.0
 45
0.0
 46
0.0
 47
0.0
 48
0.0
 49
0.0
140
0.0
141
0.0
142
1.0
143
1.0
 70
   688
 72
     0
 73
     0
 74
     5
  7

 75
    16
147
1.0
148
0.0
149
0.0
100
AcDbLayout
  1
Layout1
 70
     1
 71
     1
 10
0.0
 20
0.0
 11
594.0
 21
420.0
 12
0.0
 22
0.0
 32
0.0
 14
0.0
 24
0.0
 34
0.0
 15
594.0
 25
420.0
 35
0.0
146
0.0
 13
0.0
 23
0.0
 33
0.0
 16
1.0
 26
0.0
 36
0.0
 17
0.0
 27
1.0
 37
0.0
 76
     0
330
1B
  0
LAYOUT
  5
22
102
{ACAD_REACTORS
330
1A
102
}
330
1A
100
AcDbPlotSettings
  1

  2

  4

  6

 40
0.0
 41
0.0
 42
0.0
 43
0.0
 44
0.0
 45
0.0
 46
0.0
 47
0.0
 48
0.0
 49
0.0
140
0.0
141
0.0
142
1.0
143
1.0
 70
  1712
 72
     0
 73
     0
 74
     0
  7

 75
     0
147
1.0
148
0.0
149
0.0
100
AcDbLayout
  1
Model
 70
     1
 71
     0
 10
0.0
 20
0.0
 11
594.0
 21
420.0
 12
0.0
 22
0.0
 32
0.0
 14
0.0
 24
0.0
 34
0.0
 15
594.0
 25
420.0
 35
0.0
146
0.0
 13
0.0
 23
0.0
 33
0.0
 16
1.0
 26
0.0
 36
0.0
 17
0.0
 27
1.0
 37
0.0
 76
     0
330
1F
  0
MLINESTYLE
  5
18
102
{ACAD_REACTORS
330
17
102
}
330
17
100
AcDbMlineStyle
  2
Standard
 70
     0
  3

 62
   256
 51
90.0
 52
90.0
 71
     2
 49
0.5
 62
   256
  6
BYLAYER
 49
-0.5
 62
   256
  6
BYLAYER
  0
ACDBPLACEHOLDER
  5
F
102
{ACAD_REACTORS
330
E
102
}
330
E
  0
ENDSEC
  0
EOF
