ISO-10303-21;
HEADER;
FILE_DESCRIPTION( ( 'Unknown' ), '1' );
FILE_NAME( 'D:/\X2\66AB5B58\X0\/\X2\4FEE653966AB5B58\X0\/SVF-3D/SVF-S(\X2\7279522596444EF6\X0\)/S04/SVF-S04-100-40.stp', 'Unknown', ( 'Unknown' ), ( 'Unknown' ), 'PSStep 17.0.49', 'Unknown', '  ' );
FILE_SCHEMA( ( 'AUTOMOTIVE_DESIGN { 1 0 10303 214 1 1 1 1 }' ) );
ENDSEC;
DATA;
#1 = MECHANICAL_DESIGN_GEOMETRIC_PRESENTATION_REPRESENTATION( ' ', ( #10, #11, #12, #13, #14, #15, #16, #17 ), #6 );
#2 = PRODUCT_DEFINITION_CONTEXT( '', #18, 'design' );
#3 = APPLICATION_PROTOCOL_DEFINITION( 'international standard', 'automotive_design', 2001, #18 );
#4 = PRODUCT_CATEGORY_RELATIONSHIP( 'NONE', 'NONE', #19, #20 );
#5 = SHAPE_DEFINITION_REPRESENTATION( #21, #22 );
#6 =  ( GEOMETRIC_REPRESENTATION_CONTEXT( 3 )GLOBAL_UNCERTAINTY_ASSIGNED_CONTEXT( ( #25 ) )GLOBAL_UNIT_ASSIGNED_CONTEXT( ( #27, #28, #29 ) )REPRESENTATION_CONTEXT( 'NONE', 'WORKSPACE' ) );
#10 = STYLED_ITEM( '', ( #31 ), #32 );
#11 = STYLED_ITEM( '', ( #33 ), #34 );
#12 = STYLED_ITEM( '', ( #35 ), #36 );
#13 = STYLED_ITEM( '', ( #37 ), #38 );
#14 = STYLED_ITEM( '', ( #39 ), #40 );
#15 = STYLED_ITEM( '', ( #41 ), #42 );
#16 = STYLED_ITEM( '', ( #43 ), #44 );
#17 = STYLED_ITEM( '', ( #45 ), #46 );
#18 = APPLICATION_CONTEXT( 'core data for automotive mechanical design processes' );
#19 = PRODUCT_CATEGORY( 'part', 'NONE' );
#20 = PRODUCT_RELATED_PRODUCT_CATEGORY( 'detail', ' ', ( #47 ) );
#21 = PRODUCT_DEFINITION_SHAPE( 'NONE', 'NONE', #48 );
#22 = ADVANCED_BREP_SHAPE_REPRESENTATION( '1', ( #49, #50 ), #6 );
#25 = UNCERTAINTY_MEASURE_WITH_UNIT( LENGTH_MEASURE( 0.00100000000000000 ), #27, '', '' );
#27 =  ( CONVERSION_BASED_UNIT( 'MILLIMETRE', #53 )LENGTH_UNIT(  )NAMED_UNIT( #56 ) );
#28 =  ( NAMED_UNIT( #58 )PLANE_ANGLE_UNIT(  )SI_UNIT( $, .RADIAN. ) );
#29 =  ( NAMED_UNIT( #58 )SI_UNIT( $, .STERADIAN. )SOLID_ANGLE_UNIT(  ) );
#31 = PRESENTATION_STYLE_ASSIGNMENT( ( #64 ) );
#32 = ADVANCED_FACE( '', ( #65, #66 ), #67, .F. );
#33 = PRESENTATION_STYLE_ASSIGNMENT( ( #68 ) );
#34 = ADVANCED_FACE( '', ( #69 ), #70, .T. );
#35 = PRESENTATION_STYLE_ASSIGNMENT( ( #71 ) );
#36 = ADVANCED_FACE( '', ( #72 ), #73, .T. );
#37 = PRESENTATION_STYLE_ASSIGNMENT( ( #74 ) );
#38 = ADVANCED_FACE( '', ( #75, #76, #77 ), #78, .F. );
#39 = PRESENTATION_STYLE_ASSIGNMENT( ( #79 ) );
#40 = ADVANCED_FACE( '', ( #80, #81, #82 ), #83, .T. );
#41 = PRESENTATION_STYLE_ASSIGNMENT( ( #84 ) );
#42 = ADVANCED_FACE( '', ( #85 ), #86, .T. );
#43 = PRESENTATION_STYLE_ASSIGNMENT( ( #87 ) );
#44 = ADVANCED_FACE( '', ( #88 ), #89, .T. );
#45 = PRESENTATION_STYLE_ASSIGNMENT( ( #90 ) );
#46 = ADVANCED_FACE( '', ( #91, #92 ), #93, .F. );
#47 = PRODUCT( '1', '1', 'PART-1-DESC', ( #94 ) );
#48 = PRODUCT_DEFINITION( 'NONE', 'NONE', #95, #2 );
#49 = MANIFOLD_SOLID_BREP( '1', #96 );
#50 = AXIS2_PLACEMENT_3D( '', #97, #98, #99 );
#53 = LENGTH_MEASURE_WITH_UNIT( LENGTH_MEASURE( 1.00000000000000 ), #100 );
#56 = DIMENSIONAL_EXPONENTS( 1.00000000000000, 0.000000000000000, 0.000000000000000, 0.000000000000000, 0.000000000000000, 0.000000000000000, 0.000000000000000 );
#58 = DIMENSIONAL_EXPONENTS( 0.000000000000000, 0.000000000000000, 0.000000000000000, 0.000000000000000, 0.000000000000000, 0.000000000000000, 0.000000000000000 );
#64 = SURFACE_STYLE_USAGE( .BOTH., #101 );
#65 = FACE_OUTER_BOUND( '', #102, .T. );
#66 = FACE_OUTER_BOUND( '', #103, .T. );
#67 = CYLINDRICAL_SURFACE( '', #104, 4.50000000000000 );
#68 = SURFACE_STYLE_USAGE( .BOTH., #105 );
#69 = FACE_OUTER_BOUND( '', #106, .T. );
#70 = PLANE( '', #107 );
#71 = SURFACE_STYLE_USAGE( .BOTH., #108 );
#72 = FACE_OUTER_BOUND( '', #109, .T. );
#73 = PLANE( '', #110 );
#74 = SURFACE_STYLE_USAGE( .BOTH., #111 );
#75 = FACE_BOUND( '', #112, .T. );
#76 = FACE_BOUND( '', #113, .T. );
#77 = FACE_OUTER_BOUND( '', #114, .T. );
#78 = PLANE( '', #115 );
#79 = SURFACE_STYLE_USAGE( .BOTH., #116 );
#80 = FACE_BOUND( '', #117, .T. );
#81 = FACE_BOUND( '', #118, .T. );
#82 = FACE_OUTER_BOUND( '', #119, .T. );
#83 = PLANE( '', #120 );
#84 = SURFACE_STYLE_USAGE( .BOTH., #121 );
#85 = FACE_OUTER_BOUND( '', #122, .T. );
#86 = PLANE( '', #123 );
#87 = SURFACE_STYLE_USAGE( .BOTH., #124 );
#88 = FACE_OUTER_BOUND( '', #125, .T. );
#89 = PLANE( '', #126 );
#90 = SURFACE_STYLE_USAGE( .BOTH., #127 );
#91 = FACE_OUTER_BOUND( '', #128, .T. );
#92 = FACE_OUTER_BOUND( '', #129, .T. );
#93 = CYLINDRICAL_SURFACE( '', #130, 4.50000000000000 );
#94 = PRODUCT_CONTEXT( '', #18, 'mechanical' );
#95 = PRODUCT_DEFINITION_FORMATION_WITH_SPECIFIED_SOURCE( ' ', 'NONE', #47, .NOT_KNOWN. );
#96 = CLOSED_SHELL( '', ( #46, #38, #32, #40, #42, #36, #34, #44 ) );
#97 = CARTESIAN_POINT( '', ( 0.000000000000000, 0.000000000000000, 0.000000000000000 ) );
#98 = DIRECTION( '', ( 0.000000000000000, 0.000000000000000, 1.00000000000000 ) );
#99 = DIRECTION( '', ( 1.00000000000000, 0.000000000000000, 0.000000000000000 ) );
#100 =  ( LENGTH_UNIT(  )NAMED_UNIT( #56 )SI_UNIT( .MILLI., .METRE. ) );
#101 = SURFACE_SIDE_STYLE( '', ( #132 ) );
#102 = EDGE_LOOP( '', ( #133 ) );
#103 = EDGE_LOOP( '', ( #134 ) );
#104 = AXIS2_PLACEMENT_3D( '', #135, #136, #137 );
#105 = SURFACE_SIDE_STYLE( '', ( #138 ) );
#106 = EDGE_LOOP( '', ( #139, #140, #141, #142 ) );
#107 = AXIS2_PLACEMENT_3D( '', #143, #144, #145 );
#108 = SURFACE_SIDE_STYLE( '', ( #146 ) );
#109 = EDGE_LOOP( '', ( #147, #148, #149, #150 ) );
#110 = AXIS2_PLACEMENT_3D( '', #151, #152, #153 );
#111 = SURFACE_SIDE_STYLE( '', ( #154 ) );
#112 = EDGE_LOOP( '', ( #155 ) );
#113 = EDGE_LOOP( '', ( #156 ) );
#114 = EDGE_LOOP( '', ( #157, #158, #159, #160 ) );
#115 = AXIS2_PLACEMENT_3D( '', #161, #162, #163 );
#116 = SURFACE_SIDE_STYLE( '', ( #164 ) );
#117 = EDGE_LOOP( '', ( #165 ) );
#118 = EDGE_LOOP( '', ( #166 ) );
#119 = EDGE_LOOP( '', ( #167, #168, #169, #170 ) );
#120 = AXIS2_PLACEMENT_3D( '', #171, #172, #173 );
#121 = SURFACE_SIDE_STYLE( '', ( #174 ) );
#122 = EDGE_LOOP( '', ( #175, #176, #177, #178 ) );
#123 = AXIS2_PLACEMENT_3D( '', #179, #180, #181 );
#124 = SURFACE_SIDE_STYLE( '', ( #182 ) );
#125 = EDGE_LOOP( '', ( #183, #184, #185, #186 ) );
#126 = AXIS2_PLACEMENT_3D( '', #187, #188, #189 );
#127 = SURFACE_SIDE_STYLE( '', ( #190 ) );
#128 = EDGE_LOOP( '', ( #191 ) );
#129 = EDGE_LOOP( '', ( #192 ) );
#130 = AXIS2_PLACEMENT_3D( '', #193, #194, #195 );
#132 = SURFACE_STYLE_FILL_AREA( #196 );
#133 = ORIENTED_EDGE( '', *, *, #197, .F. );
#134 = ORIENTED_EDGE( '', *, *, #198, .F. );
#135 = CARTESIAN_POINT( '', ( 32.0000000000000, 0.000000000000000, 1.00000000000002 ) );
#136 = DIRECTION( '', ( -0.000000000000000, -1.00000000000000, -0.000000000000000 ) );
#137 = DIRECTION( '', ( 0.000000000000000, 0.000000000000000, -1.00000000000000 ) );
#138 = SURFACE_STYLE_FILL_AREA( #199 );
#139 = ORIENTED_EDGE( '', *, *, #200, .F. );
#140 = ORIENTED_EDGE( '', *, *, #201, .F. );
#141 = ORIENTED_EDGE( '', *, *, #202, .T. );
#142 = ORIENTED_EDGE( '', *, *, #203, .T. );
#143 = CARTESIAN_POINT( '', ( 49.7500000000000, 5.00000000000000, -20.0000000000000 ) );
#144 = DIRECTION( '', ( 1.00000000000000, 0.000000000000000, 0.000000000000000 ) );
#145 = DIRECTION( '', ( 0.000000000000000, 0.000000000000000, -1.00000000000000 ) );
#146 = SURFACE_STYLE_FILL_AREA( #204 );
#147 = ORIENTED_EDGE( '', *, *, #205, .F. );
#148 = ORIENTED_EDGE( '', *, *, #206, .F. );
#149 = ORIENTED_EDGE( '', *, *, #207, .T. );
#150 = ORIENTED_EDGE( '', *, *, #201, .T. );
#151 = CARTESIAN_POINT( '', ( -49.7500000000000, 5.00000000000000, -20.0000000000000 ) );
#152 = DIRECTION( '', ( 0.000000000000000, 0.000000000000000, -1.00000000000000 ) );
#153 = DIRECTION( '', ( -1.00000000000000, 0.000000000000000, 0.000000000000000 ) );
#154 = SURFACE_STYLE_FILL_AREA( #208 );
#155 = ORIENTED_EDGE( '', *, *, #209, .T. );
#156 = ORIENTED_EDGE( '', *, *, #198, .T. );
#157 = ORIENTED_EDGE( '', *, *, #210, .F. );
#158 = ORIENTED_EDGE( '', *, *, #211, .F. );
#159 = ORIENTED_EDGE( '', *, *, #202, .F. );
#160 = ORIENTED_EDGE( '', *, *, #207, .F. );
#161 = CARTESIAN_POINT( '', ( -49.7500000000000, 5.00000000000000, -20.0000000000000 ) );
#162 = DIRECTION( '', ( 0.000000000000000, -1.00000000000000, 0.000000000000000 ) );
#163 = DIRECTION( '', ( 0.000000000000000, 0.000000000000000, -1.00000000000000 ) );
#164 = SURFACE_STYLE_FILL_AREA( #212 );
#165 = ORIENTED_EDGE( '', *, *, #213, .T. );
#166 = ORIENTED_EDGE( '', *, *, #197, .T. );
#167 = ORIENTED_EDGE( '', *, *, #214, .T. );
#168 = ORIENTED_EDGE( '', *, *, #205, .T. );
#169 = ORIENTED_EDGE( '', *, *, #200, .T. );
#170 = ORIENTED_EDGE( '', *, *, #215, .T. );
#171 = CARTESIAN_POINT( '', ( -49.7500000000000, 0.000000000000000, -20.0000000000000 ) );
#172 = DIRECTION( '', ( 0.000000000000000, -1.00000000000000, 0.000000000000000 ) );
#173 = DIRECTION( '', ( 0.000000000000000, 0.000000000000000, -1.00000000000000 ) );
#174 = SURFACE_STYLE_FILL_AREA( #216 );
#175 = ORIENTED_EDGE( '', *, *, #214, .F. );
#176 = ORIENTED_EDGE( '', *, *, #217, .F. );
#177 = ORIENTED_EDGE( '', *, *, #210, .T. );
#178 = ORIENTED_EDGE( '', *, *, #206, .T. );
#179 = CARTESIAN_POINT( '', ( -49.7500000000000, 5.00000000000000, 20.0000000000000 ) );
#180 = DIRECTION( '', ( -1.00000000000000, 0.000000000000000, 0.000000000000000 ) );
#181 = DIRECTION( '', ( 0.000000000000000, 0.000000000000000, 1.00000000000000 ) );
#182 = SURFACE_STYLE_FILL_AREA( #218 );
#183 = ORIENTED_EDGE( '', *, *, #215, .F. );
#184 = ORIENTED_EDGE( '', *, *, #203, .F. );
#185 = ORIENTED_EDGE( '', *, *, #211, .T. );
#186 = ORIENTED_EDGE( '', *, *, #217, .T. );
#187 = CARTESIAN_POINT( '', ( 49.7500000000000, 5.00000000000000, 20.0000000000000 ) );
#188 = DIRECTION( '', ( 0.000000000000000, 0.000000000000000, 1.00000000000000 ) );
#189 = DIRECTION( '', ( 1.00000000000000, 0.000000000000000, 0.000000000000000 ) );
#190 = SURFACE_STYLE_FILL_AREA( #219 );
#191 = ORIENTED_EDGE( '', *, *, #213, .F. );
#192 = ORIENTED_EDGE( '', *, *, #209, .F. );
#193 = CARTESIAN_POINT( '', ( -32.0000000000000, 0.000000000000000, 1.00000000000002 ) );
#194 = DIRECTION( '', ( -0.000000000000000, -1.00000000000000, -0.000000000000000 ) );
#195 = DIRECTION( '', ( 0.000000000000000, 0.000000000000000, -1.00000000000000 ) );
#196 = FILL_AREA_STYLE( '', ( #220 ) );
#197 = EDGE_CURVE( '', #221, #221, #222, .T. );
#198 = EDGE_CURVE( '', #223, #223, #224, .T. );
#199 = FILL_AREA_STYLE( '', ( #225 ) );
#200 = EDGE_CURVE( '', #226, #227, #228, .T. );
#201 = EDGE_CURVE( '', #229, #226, #230, .T. );
#202 = EDGE_CURVE( '', #229, #231, #232, .T. );
#203 = EDGE_CURVE( '', #231, #227, #233, .T. );
#204 = FILL_AREA_STYLE( '', ( #234 ) );
#205 = EDGE_CURVE( '', #235, #226, #236, .T. );
#206 = EDGE_CURVE( '', #237, #235, #238, .T. );
#207 = EDGE_CURVE( '', #237, #229, #239, .T. );
#208 = FILL_AREA_STYLE( '', ( #240 ) );
#209 = EDGE_CURVE( '', #241, #241, #242, .T. );
#210 = EDGE_CURVE( '', #243, #237, #244, .T. );
#211 = EDGE_CURVE( '', #231, #243, #245, .T. );
#212 = FILL_AREA_STYLE( '', ( #246 ) );
#213 = EDGE_CURVE( '', #247, #247, #248, .T. );
#214 = EDGE_CURVE( '', #249, #235, #250, .T. );
#215 = EDGE_CURVE( '', #227, #249, #251, .T. );
#216 = FILL_AREA_STYLE( '', ( #252 ) );
#217 = EDGE_CURVE( '', #243, #249, #253, .T. );
#218 = FILL_AREA_STYLE( '', ( #254 ) );
#219 = FILL_AREA_STYLE( '', ( #255 ) );
#220 = FILL_AREA_STYLE_COLOUR( '', #256 );
#221 = VERTEX_POINT( '', #257 );
#222 = CIRCLE( '', #258, 4.50000000000000 );
#223 = VERTEX_POINT( '', #259 );
#224 = CIRCLE( '', #260, 4.50000000000000 );
#225 = FILL_AREA_STYLE_COLOUR( '', #261 );
#226 = VERTEX_POINT( '', #262 );
#227 = VERTEX_POINT( '', #263 );
#228 = LINE( '', #264, #265 );
#229 = VERTEX_POINT( '', #266 );
#230 = LINE( '', #267, #268 );
#231 = VERTEX_POINT( '', #269 );
#232 = LINE( '', #270, #271 );
#233 = LINE( '', #272, #273 );
#234 = FILL_AREA_STYLE_COLOUR( '', #274 );
#235 = VERTEX_POINT( '', #275 );
#236 = LINE( '', #276, #277 );
#237 = VERTEX_POINT( '', #278 );
#238 = LINE( '', #279, #280 );
#239 = LINE( '', #281, #282 );
#240 = FILL_AREA_STYLE_COLOUR( '', #283 );
#241 = VERTEX_POINT( '', #284 );
#242 = CIRCLE( '', #285, 4.50000000000000 );
#243 = VERTEX_POINT( '', #286 );
#244 = LINE( '', #287, #288 );
#245 = LINE( '', #289, #290 );
#246 = FILL_AREA_STYLE_COLOUR( '', #291 );
#247 = VERTEX_POINT( '', #292 );
#248 = CIRCLE( '', #293, 4.50000000000000 );
#249 = VERTEX_POINT( '', #294 );
#250 = LINE( '', #295, #296 );
#251 = LINE( '', #297, #298 );
#252 = FILL_AREA_STYLE_COLOUR( '', #299 );
#253 = LINE( '', #300, #301 );
#254 = FILL_AREA_STYLE_COLOUR( '', #302 );
#255 = FILL_AREA_STYLE_COLOUR( '', #303 );
#256 = COLOUR_RGB( '', 0.752941191196442, 0.752941191196442, 0.752941191196442 );
#257 = CARTESIAN_POINT( '', ( 32.0000000000000, 0.000000000000000, -3.49999999999998 ) );
#258 = AXIS2_PLACEMENT_3D( '', #304, #305, #306 );
#259 = CARTESIAN_POINT( '', ( 32.0000000000000, 5.00000000000000, -3.49999999999998 ) );
#260 = AXIS2_PLACEMENT_3D( '', #307, #308, #309 );
#261 = COLOUR_RGB( '', 0.752941191196442, 0.752941191196442, 0.752941191196442 );
#262 = CARTESIAN_POINT( '', ( 49.7500000000000, 0.000000000000000, -20.0000000000000 ) );
#263 = CARTESIAN_POINT( '', ( 49.7500000000000, 0.000000000000000, 20.0000000000000 ) );
#264 = CARTESIAN_POINT( '', ( 49.7500000000000, 0.000000000000000, -20.0000000000000 ) );
#265 = VECTOR( '', #310, 1000.00000000000 );
#266 = CARTESIAN_POINT( '', ( 49.7500000000000, 5.00000000000000, -20.0000000000000 ) );
#267 = CARTESIAN_POINT( '', ( 49.7500000000000, 5.00000000000000, -20.0000000000000 ) );
#268 = VECTOR( '', #311, 1000.00000000000 );
#269 = CARTESIAN_POINT( '', ( 49.7500000000000, 5.00000000000000, 20.0000000000000 ) );
#270 = CARTESIAN_POINT( '', ( 49.7500000000000, 5.00000000000000, -20.0000000000000 ) );
#271 = VECTOR( '', #312, 1000.00000000000 );
#272 = CARTESIAN_POINT( '', ( 49.7500000000000, 5.00000000000000, 20.0000000000000 ) );
#273 = VECTOR( '', #313, 1000.00000000000 );
#274 = COLOUR_RGB( '', 0.752941191196442, 0.752941191196442, 0.752941191196442 );
#275 = CARTESIAN_POINT( '', ( -49.7500000000000, 0.000000000000000, -20.0000000000000 ) );
#276 = CARTESIAN_POINT( '', ( -49.7500000000000, 0.000000000000000, -20.0000000000000 ) );
#277 = VECTOR( '', #314, 1000.00000000000 );
#278 = CARTESIAN_POINT( '', ( -49.7500000000000, 5.00000000000000, -20.0000000000000 ) );
#279 = CARTESIAN_POINT( '', ( -49.7500000000000, 5.00000000000000, -20.0000000000000 ) );
#280 = VECTOR( '', #315, 1000.00000000000 );
#281 = CARTESIAN_POINT( '', ( -49.7500000000000, 5.00000000000000, -20.0000000000000 ) );
#282 = VECTOR( '', #316, 1000.00000000000 );
#283 = COLOUR_RGB( '', 0.752941191196442, 0.752941191196442, 0.752941191196442 );
#284 = CARTESIAN_POINT( '', ( -32.0000000000000, 5.00000000000000, -3.49999999999998 ) );
#285 = AXIS2_PLACEMENT_3D( '', #317, #318, #319 );
#286 = CARTESIAN_POINT( '', ( -49.7500000000000, 5.00000000000000, 20.0000000000000 ) );
#287 = CARTESIAN_POINT( '', ( -49.7500000000000, 5.00000000000000, 20.0000000000000 ) );
#288 = VECTOR( '', #320, 1000.00000000000 );
#289 = CARTESIAN_POINT( '', ( 49.7500000000000, 5.00000000000000, 20.0000000000000 ) );
#290 = VECTOR( '', #321, 1000.00000000000 );
#291 = COLOUR_RGB( '', 0.752941191196442, 0.752941191196442, 0.752941191196442 );
#292 = CARTESIAN_POINT( '', ( -32.0000000000000, 0.000000000000000, -3.49999999999998 ) );
#293 = AXIS2_PLACEMENT_3D( '', #322, #323, #324 );
#294 = CARTESIAN_POINT( '', ( -49.7500000000000, 0.000000000000000, 20.0000000000000 ) );
#295 = CARTESIAN_POINT( '', ( -49.7500000000000, 0.000000000000000, 20.0000000000000 ) );
#296 = VECTOR( '', #325, 1000.00000000000 );
#297 = CARTESIAN_POINT( '', ( 49.7500000000000, 0.000000000000000, 20.0000000000000 ) );
#298 = VECTOR( '', #326, 1000.00000000000 );
#299 = COLOUR_RGB( '', 0.752941191196442, 0.752941191196442, 0.752941191196442 );
#300 = CARTESIAN_POINT( '', ( -49.7500000000000, 5.00000000000000, 20.0000000000000 ) );
#301 = VECTOR( '', #327, 1000.00000000000 );
#302 = COLOUR_RGB( '', 0.752941191196442, 0.752941191196442, 0.752941191196442 );
#303 = COLOUR_RGB( '', 0.752941191196442, 0.752941191196442, 0.752941191196442 );
#304 = CARTESIAN_POINT( '', ( 32.0000000000000, 0.000000000000000, 1.00000000000002 ) );
#305 = DIRECTION( '', ( 0.000000000000000, 1.00000000000000, 0.000000000000000 ) );
#306 = DIRECTION( '', ( 0.000000000000000, 0.000000000000000, -1.00000000000000 ) );
#307 = CARTESIAN_POINT( '', ( 32.0000000000000, 5.00000000000000, 1.00000000000002 ) );
#308 = DIRECTION( '', ( 0.000000000000000, -1.00000000000000, 0.000000000000000 ) );
#309 = DIRECTION( '', ( 0.000000000000000, 0.000000000000000, -1.00000000000000 ) );
#310 = DIRECTION( '', ( 0.000000000000000, 0.000000000000000, 1.00000000000000 ) );
#311 = DIRECTION( '', ( 0.000000000000000, -1.00000000000000, 0.000000000000000 ) );
#312 = DIRECTION( '', ( 0.000000000000000, 0.000000000000000, 1.00000000000000 ) );
#313 = DIRECTION( '', ( 0.000000000000000, -1.00000000000000, 0.000000000000000 ) );
#314 = DIRECTION( '', ( 1.00000000000000, 0.000000000000000, 0.000000000000000 ) );
#315 = DIRECTION( '', ( 0.000000000000000, -1.00000000000000, 0.000000000000000 ) );
#316 = DIRECTION( '', ( 1.00000000000000, 0.000000000000000, 0.000000000000000 ) );
#317 = CARTESIAN_POINT( '', ( -32.0000000000000, 5.00000000000000, 1.00000000000002 ) );
#318 = DIRECTION( '', ( 0.000000000000000, -1.00000000000000, 0.000000000000000 ) );
#319 = DIRECTION( '', ( 0.000000000000000, 0.000000000000000, -1.00000000000000 ) );
#320 = DIRECTION( '', ( 0.000000000000000, 0.000000000000000, -1.00000000000000 ) );
#321 = DIRECTION( '', ( -1.00000000000000, 0.000000000000000, 0.000000000000000 ) );
#322 = CARTESIAN_POINT( '', ( -32.0000000000000, 0.000000000000000, 1.00000000000002 ) );
#323 = DIRECTION( '', ( 0.000000000000000, 1.00000000000000, 0.000000000000000 ) );
#324 = DIRECTION( '', ( 0.000000000000000, 0.000000000000000, -1.00000000000000 ) );
#325 = DIRECTION( '', ( 0.000000000000000, 0.000000000000000, -1.00000000000000 ) );
#326 = DIRECTION( '', ( -1.00000000000000, 0.000000000000000, 0.000000000000000 ) );
#327 = DIRECTION( '', ( 0.000000000000000, -1.00000000000000, 0.000000000000000 ) );
ENDSEC;
END-ISO-10303-21;
