ISO-10303-21;
HEADER;
FILE_DESCRIPTION( ( 'Unknown' ), '1' );
FILE_NAME( 'D:/\X2\66AB5B58\X0\/\X2\4FEE653966AB5B58\X0\/SVF-3D/SVF-S(\X2\7279522596444EF6\X0\)/S04/SVF-S04-72-37.stp', 'Unknown', ( 'Unknown' ), ( 'Unknown' ), 'PSStep 17.0.49', 'Unknown', '  ' );
FILE_SCHEMA( ( 'AUTOMOTIVE_DESIGN { 1 0 10303 214 1 1 1 1 }' ) );
ENDSEC;
DATA;
#1 = MECHANICAL_DESIGN_GEOMETRIC_PRESENTATION_REPRESENTATION( ' ', ( #10, #11, #12, #13, #14, #15, #16, #17 ), #6 );
#2 = PRODUCT_DEFINITION_CONTEXT( '', #18, 'design' );
#3 = APPLICATION_PROTOCOL_DEFINITION( 'international standard', 'automotive_design', 2001, #18 );
#4 = PRODUCT_CATEGORY_RELATIONSHIP( 'NONE', 'NONE', #19, #20 );
#5 = SHAPE_DEFINITION_REPRESENTATION( #21, #22 );
#6 =  ( GEOMETRIC_REPRESENTATION_CONTEXT( 3 )GLOBAL_UNCERTAINTY_ASSIGNED_CONTEXT( ( #25 ) )GLOBAL_UNIT_ASSIGNED_CONTEXT( ( #27, #28, #29 ) )REPRESENTATION_CONTEXT( 'NONE', 'WORKSPACE' ) );
#10 = STYLED_ITEM( '', ( #31 ), #32 );
#11 = STYLED_ITEM( '', ( #33 ), #34 );
#12 = STYLED_ITEM( '', ( #35 ), #36 );
#13 = STYLED_ITEM( '', ( #37 ), #38 );
#14 = STYLED_ITEM( '', ( #39 ), #40 );
#15 = STYLED_ITEM( '', ( #41 ), #42 );
#16 = STYLED_ITEM( '', ( #43 ), #44 );
#17 = STYLED_ITEM( '', ( #45 ), #46 );
#18 = APPLICATION_CONTEXT( 'core data for automotive mechanical design processes' );
#19 = PRODUCT_CATEGORY( 'part', 'NONE' );
#20 = PRODUCT_RELATED_PRODUCT_CATEGORY( 'detail', ' ', ( #47 ) );
#21 = PRODUCT_DEFINITION_SHAPE( 'NONE', 'NONE', #48 );
#22 = ADVANCED_BREP_SHAPE_REPRESENTATION( '1', ( #49, #50 ), #6 );
#25 = UNCERTAINTY_MEASURE_WITH_UNIT( LENGTH_MEASURE( 0.00100000000000000 ), #27, '', '' );
#27 =  ( CONVERSION_BASED_UNIT( 'MILLIMETRE', #53 )LENGTH_UNIT(  )NAMED_UNIT( #56 ) );
#28 =  ( NAMED_UNIT( #58 )PLANE_ANGLE_UNIT(  )SI_UNIT( $, .RADIAN. ) );
#29 =  ( NAMED_UNIT( #58 )SI_UNIT( $, .STERADIAN. )SOLID_ANGLE_UNIT(  ) );
#31 = PRESENTATION_STYLE_ASSIGNMENT( ( #64 ) );
#32 = ADVANCED_FACE( '', ( #65, #66 ), #67, .F. );
#33 = PRESENTATION_STYLE_ASSIGNMENT( ( #68 ) );
#34 = ADVANCED_FACE( '', ( #69 ), #70, .T. );
#35 = PRESENTATION_STYLE_ASSIGNMENT( ( #71 ) );
#36 = ADVANCED_FACE( '', ( #72, #73, #74 ), #75, .F. );
#37 = PRESENTATION_STYLE_ASSIGNMENT( ( #76 ) );
#38 = ADVANCED_FACE( '', ( #77 ), #78, .T. );
#39 = PRESENTATION_STYLE_ASSIGNMENT( ( #79 ) );
#40 = ADVANCED_FACE( '', ( #80, #81 ), #82, .F. );
#41 = PRESENTATION_STYLE_ASSIGNMENT( ( #83 ) );
#42 = ADVANCED_FACE( '', ( #84, #85, #86 ), #87, .T. );
#43 = PRESENTATION_STYLE_ASSIGNMENT( ( #88 ) );
#44 = ADVANCED_FACE( '', ( #89 ), #90, .T. );
#45 = PRESENTATION_STYLE_ASSIGNMENT( ( #91 ) );
#46 = ADVANCED_FACE( '', ( #92 ), #93, .T. );
#47 = PRODUCT( '1', '1', 'PART-1-DESC', ( #94 ) );
#48 = PRODUCT_DEFINITION( 'NONE', 'NONE', #95, #2 );
#49 = MANIFOLD_SOLID_BREP( '1', #96 );
#50 = AXIS2_PLACEMENT_3D( '', #97, #98, #99 );
#53 = LENGTH_MEASURE_WITH_UNIT( LENGTH_MEASURE( 1.00000000000000 ), #100 );
#56 = DIMENSIONAL_EXPONENTS( 1.00000000000000, 0.000000000000000, 0.000000000000000, 0.000000000000000, 0.000000000000000, 0.000000000000000, 0.000000000000000 );
#58 = DIMENSIONAL_EXPONENTS( 0.000000000000000, 0.000000000000000, 0.000000000000000, 0.000000000000000, 0.000000000000000, 0.000000000000000, 0.000000000000000 );
#64 = SURFACE_STYLE_USAGE( .BOTH., #101 );
#65 = FACE_OUTER_BOUND( '', #102, .T. );
#66 = FACE_OUTER_BOUND( '', #103, .T. );
#67 = CYLINDRICAL_SURFACE( '', #104, 3.50000000000000 );
#68 = SURFACE_STYLE_USAGE( .BOTH., #105 );
#69 = FACE_OUTER_BOUND( '', #106, .T. );
#70 = PLANE( '', #107 );
#71 = SURFACE_STYLE_USAGE( .BOTH., #108 );
#72 = FACE_BOUND( '', #109, .T. );
#73 = FACE_BOUND( '', #110, .T. );
#74 = FACE_OUTER_BOUND( '', #111, .T. );
#75 = PLANE( '', #112 );
#76 = SURFACE_STYLE_USAGE( .BOTH., #113 );
#77 = FACE_OUTER_BOUND( '', #114, .T. );
#78 = PLANE( '', #115 );
#79 = SURFACE_STYLE_USAGE( .BOTH., #116 );
#80 = FACE_OUTER_BOUND( '', #117, .T. );
#81 = FACE_OUTER_BOUND( '', #118, .T. );
#82 = CYLINDRICAL_SURFACE( '', #119, 3.50000000000000 );
#83 = SURFACE_STYLE_USAGE( .BOTH., #120 );
#84 = FACE_BOUND( '', #121, .T. );
#85 = FACE_BOUND( '', #122, .T. );
#86 = FACE_OUTER_BOUND( '', #123, .T. );
#87 = PLANE( '', #124 );
#88 = SURFACE_STYLE_USAGE( .BOTH., #125 );
#89 = FACE_OUTER_BOUND( '', #126, .T. );
#90 = PLANE( '', #127 );
#91 = SURFACE_STYLE_USAGE( .BOTH., #128 );
#92 = FACE_OUTER_BOUND( '', #129, .T. );
#93 = PLANE( '', #130 );
#94 = PRODUCT_CONTEXT( '', #18, 'mechanical' );
#95 = PRODUCT_DEFINITION_FORMATION_WITH_SPECIFIED_SOURCE( ' ', 'NONE', #47, .NOT_KNOWN. );
#96 = CLOSED_SHELL( '', ( #40, #36, #32, #42, #46, #44, #38, #34 ) );
#97 = CARTESIAN_POINT( '', ( 0.000000000000000, 0.000000000000000, 0.000000000000000 ) );
#98 = DIRECTION( '', ( 0.000000000000000, 0.000000000000000, 1.00000000000000 ) );
#99 = DIRECTION( '', ( 1.00000000000000, 0.000000000000000, 0.000000000000000 ) );
#100 =  ( LENGTH_UNIT(  )NAMED_UNIT( #56 )SI_UNIT( .MILLI., .METRE. ) );
#101 = SURFACE_SIDE_STYLE( '', ( #132 ) );
#102 = EDGE_LOOP( '', ( #133 ) );
#103 = EDGE_LOOP( '', ( #134 ) );
#104 = AXIS2_PLACEMENT_3D( '', #135, #136, #137 );
#105 = SURFACE_SIDE_STYLE( '', ( #138 ) );
#106 = EDGE_LOOP( '', ( #139, #140, #141, #142 ) );
#107 = AXIS2_PLACEMENT_3D( '', #143, #144, #145 );
#108 = SURFACE_SIDE_STYLE( '', ( #146 ) );
#109 = EDGE_LOOP( '', ( #147 ) );
#110 = EDGE_LOOP( '', ( #148 ) );
#111 = EDGE_LOOP( '', ( #149, #150, #151, #152 ) );
#112 = AXIS2_PLACEMENT_3D( '', #153, #154, #155 );
#113 = SURFACE_SIDE_STYLE( '', ( #156 ) );
#114 = EDGE_LOOP( '', ( #157, #158, #159, #160 ) );
#115 = AXIS2_PLACEMENT_3D( '', #161, #162, #163 );
#116 = SURFACE_SIDE_STYLE( '', ( #164 ) );
#117 = EDGE_LOOP( '', ( #165 ) );
#118 = EDGE_LOOP( '', ( #166 ) );
#119 = AXIS2_PLACEMENT_3D( '', #167, #168, #169 );
#120 = SURFACE_SIDE_STYLE( '', ( #170 ) );
#121 = EDGE_LOOP( '', ( #171 ) );
#122 = EDGE_LOOP( '', ( #172 ) );
#123 = EDGE_LOOP( '', ( #173, #174, #175, #176 ) );
#124 = AXIS2_PLACEMENT_3D( '', #177, #178, #179 );
#125 = SURFACE_SIDE_STYLE( '', ( #180 ) );
#126 = EDGE_LOOP( '', ( #181, #182, #183, #184 ) );
#127 = AXIS2_PLACEMENT_3D( '', #185, #186, #187 );
#128 = SURFACE_SIDE_STYLE( '', ( #188 ) );
#129 = EDGE_LOOP( '', ( #189, #190, #191, #192 ) );
#130 = AXIS2_PLACEMENT_3D( '', #193, #194, #195 );
#132 = SURFACE_STYLE_FILL_AREA( #196 );
#133 = ORIENTED_EDGE( '', *, *, #197, .F. );
#134 = ORIENTED_EDGE( '', *, *, #198, .F. );
#135 = CARTESIAN_POINT( '', ( 22.0000000000000, 0.000000000000000, -0.0499999999999741 ) );
#136 = DIRECTION( '', ( -0.000000000000000, -1.00000000000000, -0.000000000000000 ) );
#137 = DIRECTION( '', ( 0.000000000000000, 0.000000000000000, -1.00000000000000 ) );
#138 = SURFACE_STYLE_FILL_AREA( #199 );
#139 = ORIENTED_EDGE( '', *, *, #200, .F. );
#140 = ORIENTED_EDGE( '', *, *, #201, .F. );
#141 = ORIENTED_EDGE( '', *, *, #202, .T. );
#142 = ORIENTED_EDGE( '', *, *, #203, .T. );
#143 = CARTESIAN_POINT( '', ( 35.7500000000000, 3.00000000000000, 18.5000000000000 ) );
#144 = DIRECTION( '', ( 0.000000000000000, 0.000000000000000, 1.00000000000000 ) );
#145 = DIRECTION( '', ( 1.00000000000000, 0.000000000000000, 0.000000000000000 ) );
#146 = SURFACE_STYLE_FILL_AREA( #204 );
#147 = ORIENTED_EDGE( '', *, *, #205, .T. );
#148 = ORIENTED_EDGE( '', *, *, #198, .T. );
#149 = ORIENTED_EDGE( '', *, *, #206, .F. );
#150 = ORIENTED_EDGE( '', *, *, #202, .F. );
#151 = ORIENTED_EDGE( '', *, *, #207, .F. );
#152 = ORIENTED_EDGE( '', *, *, #208, .F. );
#153 = CARTESIAN_POINT( '', ( -35.7500000000000, 3.00000000000000, -18.5000000000000 ) );
#154 = DIRECTION( '', ( 0.000000000000000, -1.00000000000000, 0.000000000000000 ) );
#155 = DIRECTION( '', ( 0.000000000000000, 0.000000000000000, -1.00000000000000 ) );
#156 = SURFACE_STYLE_FILL_AREA( #209 );
#157 = ORIENTED_EDGE( '', *, *, #210, .F. );
#158 = ORIENTED_EDGE( '', *, *, #211, .F. );
#159 = ORIENTED_EDGE( '', *, *, #207, .T. );
#160 = ORIENTED_EDGE( '', *, *, #201, .T. );
#161 = CARTESIAN_POINT( '', ( 35.7500000000000, 3.00000000000000, -18.5000000000000 ) );
#162 = DIRECTION( '', ( 1.00000000000000, 0.000000000000000, 0.000000000000000 ) );
#163 = DIRECTION( '', ( 0.000000000000000, 0.000000000000000, -1.00000000000000 ) );
#164 = SURFACE_STYLE_FILL_AREA( #212 );
#165 = ORIENTED_EDGE( '', *, *, #213, .F. );
#166 = ORIENTED_EDGE( '', *, *, #205, .F. );
#167 = CARTESIAN_POINT( '', ( -22.0000000000000, 0.000000000000000, -0.0499999999999741 ) );
#168 = DIRECTION( '', ( -0.000000000000000, -1.00000000000000, -0.000000000000000 ) );
#169 = DIRECTION( '', ( 0.000000000000000, 0.000000000000000, -1.00000000000000 ) );
#170 = SURFACE_STYLE_FILL_AREA( #214 );
#171 = ORIENTED_EDGE( '', *, *, #213, .T. );
#172 = ORIENTED_EDGE( '', *, *, #197, .T. );
#173 = ORIENTED_EDGE( '', *, *, #215, .T. );
#174 = ORIENTED_EDGE( '', *, *, #216, .T. );
#175 = ORIENTED_EDGE( '', *, *, #210, .T. );
#176 = ORIENTED_EDGE( '', *, *, #200, .T. );
#177 = CARTESIAN_POINT( '', ( -35.7500000000000, 0.000000000000000, -18.5000000000000 ) );
#178 = DIRECTION( '', ( 0.000000000000000, -1.00000000000000, 0.000000000000000 ) );
#179 = DIRECTION( '', ( 0.000000000000000, 0.000000000000000, -1.00000000000000 ) );
#180 = SURFACE_STYLE_FILL_AREA( #217 );
#181 = ORIENTED_EDGE( '', *, *, #216, .F. );
#182 = ORIENTED_EDGE( '', *, *, #218, .F. );
#183 = ORIENTED_EDGE( '', *, *, #208, .T. );
#184 = ORIENTED_EDGE( '', *, *, #211, .T. );
#185 = CARTESIAN_POINT( '', ( -35.7500000000000, 3.00000000000000, -18.5000000000000 ) );
#186 = DIRECTION( '', ( 0.000000000000000, 0.000000000000000, -1.00000000000000 ) );
#187 = DIRECTION( '', ( -1.00000000000000, 0.000000000000000, 0.000000000000000 ) );
#188 = SURFACE_STYLE_FILL_AREA( #219 );
#189 = ORIENTED_EDGE( '', *, *, #215, .F. );
#190 = ORIENTED_EDGE( '', *, *, #203, .F. );
#191 = ORIENTED_EDGE( '', *, *, #206, .T. );
#192 = ORIENTED_EDGE( '', *, *, #218, .T. );
#193 = CARTESIAN_POINT( '', ( -35.7500000000000, 3.00000000000000, 18.5000000000000 ) );
#194 = DIRECTION( '', ( -1.00000000000000, 0.000000000000000, 0.000000000000000 ) );
#195 = DIRECTION( '', ( 0.000000000000000, 0.000000000000000, 1.00000000000000 ) );
#196 = FILL_AREA_STYLE( '', ( #220 ) );
#197 = EDGE_CURVE( '', #221, #221, #222, .T. );
#198 = EDGE_CURVE( '', #223, #223, #224, .T. );
#199 = FILL_AREA_STYLE( '', ( #225 ) );
#200 = EDGE_CURVE( '', #226, #227, #228, .T. );
#201 = EDGE_CURVE( '', #229, #226, #230, .T. );
#202 = EDGE_CURVE( '', #229, #231, #232, .T. );
#203 = EDGE_CURVE( '', #231, #227, #233, .T. );
#204 = FILL_AREA_STYLE( '', ( #234 ) );
#205 = EDGE_CURVE( '', #235, #235, #236, .T. );
#206 = EDGE_CURVE( '', #231, #237, #238, .T. );
#207 = EDGE_CURVE( '', #239, #229, #240, .T. );
#208 = EDGE_CURVE( '', #237, #239, #241, .T. );
#209 = FILL_AREA_STYLE( '', ( #242 ) );
#210 = EDGE_CURVE( '', #243, #226, #244, .T. );
#211 = EDGE_CURVE( '', #239, #243, #245, .T. );
#212 = FILL_AREA_STYLE( '', ( #246 ) );
#213 = EDGE_CURVE( '', #247, #247, #248, .T. );
#214 = FILL_AREA_STYLE( '', ( #249 ) );
#215 = EDGE_CURVE( '', #227, #250, #251, .T. );
#216 = EDGE_CURVE( '', #250, #243, #252, .T. );
#217 = FILL_AREA_STYLE( '', ( #253 ) );
#218 = EDGE_CURVE( '', #237, #250, #254, .T. );
#219 = FILL_AREA_STYLE( '', ( #255 ) );
#220 = FILL_AREA_STYLE_COLOUR( '', #256 );
#221 = VERTEX_POINT( '', #257 );
#222 = CIRCLE( '', #258, 3.50000000000000 );
#223 = VERTEX_POINT( '', #259 );
#224 = CIRCLE( '', #260, 3.50000000000000 );
#225 = FILL_AREA_STYLE_COLOUR( '', #261 );
#226 = VERTEX_POINT( '', #262 );
#227 = VERTEX_POINT( '', #263 );
#228 = LINE( '', #264, #265 );
#229 = VERTEX_POINT( '', #266 );
#230 = LINE( '', #267, #268 );
#231 = VERTEX_POINT( '', #269 );
#232 = LINE( '', #270, #271 );
#233 = LINE( '', #272, #273 );
#234 = FILL_AREA_STYLE_COLOUR( '', #274 );
#235 = VERTEX_POINT( '', #275 );
#236 = CIRCLE( '', #276, 3.50000000000000 );
#237 = VERTEX_POINT( '', #277 );
#238 = LINE( '', #278, #279 );
#239 = VERTEX_POINT( '', #280 );
#240 = LINE( '', #281, #282 );
#241 = LINE( '', #283, #284 );
#242 = FILL_AREA_STYLE_COLOUR( '', #285 );
#243 = VERTEX_POINT( '', #286 );
#244 = LINE( '', #287, #288 );
#245 = LINE( '', #289, #290 );
#246 = FILL_AREA_STYLE_COLOUR( '', #291 );
#247 = VERTEX_POINT( '', #292 );
#248 = CIRCLE( '', #293, 3.50000000000000 );
#249 = FILL_AREA_STYLE_COLOUR( '', #294 );
#250 = VERTEX_POINT( '', #295 );
#251 = LINE( '', #296, #297 );
#252 = LINE( '', #298, #299 );
#253 = FILL_AREA_STYLE_COLOUR( '', #300 );
#254 = LINE( '', #301, #302 );
#255 = FILL_AREA_STYLE_COLOUR( '', #303 );
#256 = COLOUR_RGB( '', 0.752941191196442, 0.752941191196442, 0.752941191196442 );
#257 = CARTESIAN_POINT( '', ( 22.0000000000000, 0.000000000000000, -3.54999999999997 ) );
#258 = AXIS2_PLACEMENT_3D( '', #304, #305, #306 );
#259 = CARTESIAN_POINT( '', ( 22.0000000000000, 3.00000000000000, -3.54999999999997 ) );
#260 = AXIS2_PLACEMENT_3D( '', #307, #308, #309 );
#261 = COLOUR_RGB( '', 0.752941191196442, 0.752941191196442, 0.752941191196442 );
#262 = CARTESIAN_POINT( '', ( 35.7500000000000, 0.000000000000000, 18.5000000000000 ) );
#263 = CARTESIAN_POINT( '', ( -35.7500000000000, 0.000000000000000, 18.5000000000000 ) );
#264 = CARTESIAN_POINT( '', ( 35.7500000000000, 0.000000000000000, 18.5000000000000 ) );
#265 = VECTOR( '', #310, 1000.00000000000 );
#266 = CARTESIAN_POINT( '', ( 35.7500000000000, 3.00000000000000, 18.5000000000000 ) );
#267 = CARTESIAN_POINT( '', ( 35.7500000000000, 3.00000000000000, 18.5000000000000 ) );
#268 = VECTOR( '', #311, 1000.00000000000 );
#269 = CARTESIAN_POINT( '', ( -35.7500000000000, 3.00000000000000, 18.5000000000000 ) );
#270 = CARTESIAN_POINT( '', ( 35.7500000000000, 3.00000000000000, 18.5000000000000 ) );
#271 = VECTOR( '', #312, 1000.00000000000 );
#272 = CARTESIAN_POINT( '', ( -35.7500000000000, 3.00000000000000, 18.5000000000000 ) );
#273 = VECTOR( '', #313, 1000.00000000000 );
#274 = COLOUR_RGB( '', 0.752941191196442, 0.752941191196442, 0.752941191196442 );
#275 = CARTESIAN_POINT( '', ( -22.0000000000000, 3.00000000000000, -3.54999999999997 ) );
#276 = AXIS2_PLACEMENT_3D( '', #314, #315, #316 );
#277 = CARTESIAN_POINT( '', ( -35.7500000000000, 3.00000000000000, -18.5000000000000 ) );
#278 = CARTESIAN_POINT( '', ( -35.7500000000000, 3.00000000000000, 18.5000000000000 ) );
#279 = VECTOR( '', #317, 1000.00000000000 );
#280 = CARTESIAN_POINT( '', ( 35.7500000000000, 3.00000000000000, -18.5000000000000 ) );
#281 = CARTESIAN_POINT( '', ( 35.7500000000000, 3.00000000000000, -18.5000000000000 ) );
#282 = VECTOR( '', #318, 1000.00000000000 );
#283 = CARTESIAN_POINT( '', ( -35.7500000000000, 3.00000000000000, -18.5000000000000 ) );
#284 = VECTOR( '', #319, 1000.00000000000 );
#285 = COLOUR_RGB( '', 0.752941191196442, 0.752941191196442, 0.752941191196442 );
#286 = CARTESIAN_POINT( '', ( 35.7500000000000, 0.000000000000000, -18.5000000000000 ) );
#287 = CARTESIAN_POINT( '', ( 35.7500000000000, 0.000000000000000, -18.5000000000000 ) );
#288 = VECTOR( '', #320, 1000.00000000000 );
#289 = CARTESIAN_POINT( '', ( 35.7500000000000, 3.00000000000000, -18.5000000000000 ) );
#290 = VECTOR( '', #321, 1000.00000000000 );
#291 = COLOUR_RGB( '', 0.752941191196442, 0.752941191196442, 0.752941191196442 );
#292 = CARTESIAN_POINT( '', ( -22.0000000000000, 0.000000000000000, -3.54999999999997 ) );
#293 = AXIS2_PLACEMENT_3D( '', #322, #323, #324 );
#294 = COLOUR_RGB( '', 0.752941191196442, 0.752941191196442, 0.752941191196442 );
#295 = CARTESIAN_POINT( '', ( -35.7500000000000, 0.000000000000000, -18.5000000000000 ) );
#296 = CARTESIAN_POINT( '', ( -35.7500000000000, 0.000000000000000, 18.5000000000000 ) );
#297 = VECTOR( '', #325, 1000.00000000000 );
#298 = CARTESIAN_POINT( '', ( -35.7500000000000, 0.000000000000000, -18.5000000000000 ) );
#299 = VECTOR( '', #326, 1000.00000000000 );
#300 = COLOUR_RGB( '', 0.752941191196442, 0.752941191196442, 0.752941191196442 );
#301 = CARTESIAN_POINT( '', ( -35.7500000000000, 3.00000000000000, -18.5000000000000 ) );
#302 = VECTOR( '', #327, 1000.00000000000 );
#303 = COLOUR_RGB( '', 0.752941191196442, 0.752941191196442, 0.752941191196442 );
#304 = CARTESIAN_POINT( '', ( 22.0000000000000, 0.000000000000000, -0.0499999999999741 ) );
#305 = DIRECTION( '', ( 0.000000000000000, 1.00000000000000, 0.000000000000000 ) );
#306 = DIRECTION( '', ( 0.000000000000000, 0.000000000000000, -1.00000000000000 ) );
#307 = CARTESIAN_POINT( '', ( 22.0000000000000, 3.00000000000000, -0.0499999999999741 ) );
#308 = DIRECTION( '', ( 0.000000000000000, -1.00000000000000, 0.000000000000000 ) );
#309 = DIRECTION( '', ( 0.000000000000000, 0.000000000000000, -1.00000000000000 ) );
#310 = DIRECTION( '', ( -1.00000000000000, 0.000000000000000, 0.000000000000000 ) );
#311 = DIRECTION( '', ( 0.000000000000000, -1.00000000000000, 0.000000000000000 ) );
#312 = DIRECTION( '', ( -1.00000000000000, 0.000000000000000, 0.000000000000000 ) );
#313 = DIRECTION( '', ( 0.000000000000000, -1.00000000000000, 0.000000000000000 ) );
#314 = CARTESIAN_POINT( '', ( -22.0000000000000, 3.00000000000000, -0.0499999999999741 ) );
#315 = DIRECTION( '', ( 0.000000000000000, -1.00000000000000, 0.000000000000000 ) );
#316 = DIRECTION( '', ( 0.000000000000000, 0.000000000000000, -1.00000000000000 ) );
#317 = DIRECTION( '', ( 0.000000000000000, 0.000000000000000, -1.00000000000000 ) );
#318 = DIRECTION( '', ( 0.000000000000000, 0.000000000000000, 1.00000000000000 ) );
#319 = DIRECTION( '', ( 1.00000000000000, 0.000000000000000, 0.000000000000000 ) );
#320 = DIRECTION( '', ( 0.000000000000000, 0.000000000000000, 1.00000000000000 ) );
#321 = DIRECTION( '', ( 0.000000000000000, -1.00000000000000, 0.000000000000000 ) );
#322 = CARTESIAN_POINT( '', ( -22.0000000000000, 0.000000000000000, -0.0499999999999741 ) );
#323 = DIRECTION( '', ( 0.000000000000000, 1.00000000000000, 0.000000000000000 ) );
#324 = DIRECTION( '', ( 0.000000000000000, 0.000000000000000, -1.00000000000000 ) );
#325 = DIRECTION( '', ( 0.000000000000000, 0.000000000000000, -1.00000000000000 ) );
#326 = DIRECTION( '', ( 1.00000000000000, 0.000000000000000, 0.000000000000000 ) );
#327 = DIRECTION( '', ( 0.000000000000000, -1.00000000000000, 0.000000000000000 ) );
ENDSEC;
END-ISO-10303-21;
