  0
SECTION
  2
HEADER
  9
$ACADVER
  1
AC1015
  9
$ACADMAINTVER
 70
     6
  9
$DWGCODEPAGE
  3
ANSI_1252
  9
$INSBASE
 10
0.0
 20
0.0
 30
0.0
  9
$EXTMIN
 10
0.0
 20
0.0
 30
0.0
  9
$EXTMAX
 10
594.0
 20
420.0
 30
0.0
  9
$LIMMIN
 10
0.0
 20
0.0
  9
$LIMMAX
 10
594.0
 20
420.0
  9
$ORTHOMODE
 70
     0
  9
$REGENMODE
 70
     1
  9
$FILLMODE
 70
     1
  9
$QTEXTMODE
 70
     0
  9
$MIRRTEXT
 70
     1
  9
$LTSCALE
 40
1.0
  9
$ATTMODE
 70
     1
  9
$TEXTSIZE
 40
0.2
  9
$TRACEWID
 40
0.05
  9
$TEXTSTYLE
  7
Standard
  9
$CLAYER
  8
0
  9
$CELTYPE
  6
ByLayer
  9
$CECOLOR
 62
   256
  9
$CELTSCALE
 40
25.4
  9
$DISPSILH
 70
     0
  9
$DIMSCALE
 40
1.0
  9
$DIMASZ
 40
0.18
  9
$DIMEXO
 40
0.0625
  9
$DIMDLI
 40
0.38
  9
$DIMRND
 40
0.0
  9
$DIMDLE
 40
0.0
  9
$DIMEXE
 40
0.18
  9
$DIMTP
 40
0.0
  9
$DIMTM
 40
0.0
  9
$DIMTXT
 40
0.18
  9
$DIMCEN
 40
0.09
  9
$DIMTSZ
 40
0.0
  9
$DIMTOL
 70
     0
  9
$DIMLIM
 70
     0
  9
$DIMTIH
 70
     1
  9
$DIMTOH
 70
     1
  9
$DIMSE1
 70
     0
  9
$DIMSE2
 70
     0
  9
$DIMTAD
 70
     0
  9
$DIMZIN
 70
     0
  9
$DIMBLK
  1

  9
$DIMASO
 70
     1
  9
$DIMSHO
 70
     1
  9
$DIMPOST
  1

  9
$DIMAPOST
  1

  9
$DIMALT
 70
     0
  9
$DIMALTD
 70
     2
  9
$DIMALTF
 40
25.4
  9
$DIMLFAC
 40
1.0
  9
$DIMTOFL
 70
     0
  9
$DIMTVP
 40
0.0
  9
$DIMTIX
 70
     0
  9
$DIMSOXD
 70
     0
  9
$DIMSAH
 70
     0
  9
$DIMBLK1
  1

  9
$DIMBLK2
  1

  9
$DIMSTYLE
  2
Standard
  9
$DIMCLRD
 70
     0
  9
$DIMCLRE
 70
     0
  9
$DIMCLRT
 70
     0
  9
$DIMTFAC
 40
1.0
  9
$DIMGAP
 40
0.09
  9
$DIMJUST
 70
     0
  9
$DIMSD1
 70
     0
  9
$DIMSD2
 70
     0
  9
$DIMTOLJ
 70
     1
  9
$DIMTZIN
 70
     0
  9
$DIMALTZ
 70
     0
  9
$DIMALTTZ
 70
     0
  9
$DIMUPT
 70
     0
  9
$DIMDEC
 70
     4
  9
$DIMTDEC
 70
     4
  9
$DIMALTU
 70
     2
  9
$DIMALTTD
 70
     2
  9
$DIMTXSTY
  7
Standard
  9
$DIMAUNIT
 70
     0
  9
$DIMADEC
 70
     0
  9
$DIMALTRND
 40
0.0
  9
$DIMAZIN
 70
     0
  9
$DIMDSEP
 70
    46
  9
$DIMATFIT
 70
     3
  9
$DIMFRAC
 70
     0
  9
$DIMLDRBLK
  1

  9
$DIMLUNIT
 70
     2
  9
$DIMLWD
 70
    -2
  9
$DIMLWE
 70
    -2
  9
$DIMTMOVE
 70
     0
  9
$LUNITS
 70
     2
  9
$LUPREC
 70
     4
  9
$SKETCHINC
 40
0.1
  9
$FILLETRAD
 40
0.5
  9
$AUNITS
 70
     0
  9
$AUPREC
 70
     0
  9
$MENU
  1
.
  9
$ELEVATION
 40
0.0
  9
$PELEVATION
 40
0.0
  9
$THICKNESS
 40
0.0
  9
$LIMCHECK
 70
     0
  9
$CHAMFERA
 40
0.5
  9
$CHAMFERB
 40
0.5
  9
$CHAMFERC
 40
1.0
  9
$CHAMFERD
 40
0.0
  9
$SKPOLY
 70
     0
  9
$TDCREATE
 40
2454900.418248403
  9
$TDUCREATE
 40
2454900.418248403
  9
$TDUPDATE
 40
2454900.418248415
  9
$TDUUPDATE
 40
2454900.418248415
  9
$TDINDWG
 40
0.0000000116
  9
$TDUSRTIMER
 40
0.0000000116
  9
$USRTIMER
 70
     1
  9
$ANGBASE
 50
0.0
  9
$ANGDIR
 70
     0
  9
$PDMODE
 70
     0
  9
$PDSIZE
 40
0.0
  9
$PLINEWID
 40
0.0
  9
$SPLFRAME
 70
     0
  9
$SPLINETYPE
 70
     6
  9
$SPLINESEGS
 70
     8
  9
$HANDSEED
  5
449
  9
$SURFTAB1
 70
     6
  9
$SURFTAB2
 70
     6
  9
$SURFTYPE
 70
     6
  9
$SURFU
 70
     6
  9
$SURFV
 70
     6
  9
$UCSBASE
  2

  9
$UCSNAME
  2

  9
$UCSORG
 10
0.0
 20
0.0
 30
0.0
  9
$UCSXDIR
 10
1.0
 20
0.0
 30
0.0
  9
$UCSYDIR
 10
0.0
 20
1.0
 30
0.0
  9
$UCSORTHOREF
  2

  9
$UCSORTHOVIEW
 70
     0
  9
$UCSORGTOP
 10
0.0
 20
0.0
 30
0.0
  9
$UCSORGBOTTOM
 10
0.0
 20
0.0
 30
0.0
  9
$UCSORGLEFT
 10
0.0
 20
0.0
 30
0.0
  9
$UCSORGRIGHT
 10
0.0
 20
0.0
 30
0.0
  9
$UCSORGFRONT
 10
0.0
 20
0.0
 30
0.0
  9
$UCSORGBACK
 10
0.0
 20
0.0
 30
0.0
  9
$PUCSBASE
  2

  9
$PUCSNAME
  2

  9
$PUCSORG
 10
0.0
 20
0.0
 30
0.0
  9
$PUCSXDIR
 10
1.0
 20
0.0
 30
0.0
  9
$PUCSYDIR
 10
0.0
 20
1.0
 30
0.0
  9
$PUCSORTHOREF
  2

  9
$PUCSORTHOVIEW
 70
     0
  9
$PUCSORGTOP
 10
0.0
 20
0.0
 30
0.0
  9
$PUCSORGBOTTOM
 10
0.0
 20
0.0
 30
0.0
  9
$PUCSORGLEFT
 10
0.0
 20
0.0
 30
0.0
  9
$PUCSORGRIGHT
 10
0.0
 20
0.0
 30
0.0
  9
$PUCSORGFRONT
 10
0.0
 20
0.0
 30
0.0
  9
$PUCSORGBACK
 10
0.0
 20
0.0
 30
0.0
  9
$USERI1
 70
     0
  9
$USERI2
 70
     0
  9
$USERI3
 70
     0
  9
$USERI4
 70
     0
  9
$USERI5
 70
     0
  9
$USERR1
 40
0.0
  9
$USERR2
 40
0.0
  9
$USERR3
 40
0.0
  9
$USERR4
 40
0.0
  9
$USERR5
 40
0.0
  9
$WORLDVIEW
 70
     1
  9
$SHADEDGE
 70
     3
  9
$SHADEDIF
 70
    70
  9
$TILEMODE
 70
     1
  9
$MAXACTVP
 70
    64
  9
$PINSBASE
 10
0.0
 20
0.0
 30
0.0
  9
$PLIMCHECK
 70
     0
  9
$PEXTMIN
 10
0.0
 20
0.0
 30
0.0
  9
$PEXTMAX
 10
594.0
 20
420.0
 30
0.0
  9
$PLIMMIN
 10
0.0
 20
0.0
  9
$PLIMMAX
 10
594.0
 20
420.0
  9
$UNITMODE
 70
     0
  9
$VISRETAIN
 70
     1
  9
$PLINEGEN
 70
     0
  9
$PSLTSCALE
 70
     1
  9
$TREEDEPTH
 70
  3020
  9
$CMLSTYLE
  2
Standard
  9
$CMLJUST
 70
     0
  9
$CMLSCALE
 40
1.0
  9
$PROXYGRAPHICS
 70
     1
  9
$MEASUREMENT
 70
     1
  9
$CELWEIGHT
370
    -1
  9
$ENDCAPS
280
     0
  9
$JOINSTYLE
280
     0
  9
$LWDISPLAY
290
     0
  9
$INSUNITS
 70
     1
  9
$HYPERLINKBASE
  1

  9
$STYLESHEET
  1

  9
$XEDIT
290
     1
  9
$CEPSNTYPE
380
     0
  9
$PSTYLEMODE
290
     1
  9
$FINGERPRINTGUID
  2
{F95164D4-015C-43E3-BF06-51975FECB728}
  9
$VERSIONGUID
  2
{FAEB1C32-E019-11D5-929B-00C0DF256EC4}
  9
$EXTNAMES
290
     1
  9
$PSVPSCALE
 40
0.0
  9
$OLESTARTUP
290
     0
  0
ENDSEC
  0
SECTION
  2
CLASSES
  0
CLASS
  1
ACDBDICTIONARYWDFLT
  2
AcDbDictionaryWithDefault
  3
ObjectDBX Classes
 90
        0
280
     0
281
     0
  0
CLASS
  1
ACDBPLACEHOLDER
  2
AcDbPlaceHolder
  3
ObjectDBX Classes
 90
        0
280
     0
281
     0
  0
CLASS
  1
LAYOUT
  2
AcDbLayout
  3
ObjectDBX Classes
 90
        0
280
     0
281
     0
  0
ENDSEC
  0
SECTION
  2
TABLES
  0
TABLE
  2
VPORT
  5
8
330
0
100
AcDbSymbolTable
 70
     1
  0
VPORT
  5
29
330
8
100
AcDbSymbolTableRecord
100
AcDbViewportTableRecord
  2
*Active
 70
     0
 10
0.0
 20
0.0
 11
1.0
 21
1.0
 12
10.4299065421
 22
4.5
 13
0.0
 23
0.0
 14
0.5
 24
0.5
 15
0.5
 25
0.5
 16
0.0
 26
0.0
 36
1.0
 17
0.0
 27
0.0
 37
0.0
 40
9.0
 41
1.9729729729
 42
50.0
 43
0.0
 44
0.0
 50
0.0
 51
0.0
 71
     0
 72
   100
 73
     1
 74
     3
 75
     0
 76
     0
 77
     0
 78
     0
281
     0
 65
     1
110
0.0
120
0.0
130
0.0
111
1.0
121
0.0
131
0.0
112
0.0
122
1.0
132
0.0
 79
     0
146
0.0
  0
ENDTAB
  0
TABLE
  2
LTYPE
  5
5
330
0
100
AcDbSymbolTable
 70
     3
  0
LTYPE
  5
14
330
5
100
AcDbSymbolTableRecord
100
AcDbLinetypeTableRecord
  2
ByBlock
 70
     0
  3

 72
    65
 73
     0
 40
0.0
  0
LTYPE
  5
15
330
5
100
AcDbSymbolTableRecord
100
AcDbLinetypeTableRecord
  2
ByLayer
 70
     0
  3

 72
    65
 73
     0
 40
0.0
  0
LTYPE
  5
16
330
5
100
AcDbSymbolTableRecord
100
AcDbLinetypeTableRecord
  2
Continuous
 70
     0
  3
Solid line
 72
    65
 73
     0
 40
0.0
  0
LTYPE
  5
5F
330
5
100
AcDbSymbolTableRecord
100
AcDbLinetypeTableRecord
  2
CENTER2
 70
     0
  3
___ _ ___ _ ___ _ ___ _ ___ _ ___ _ ___ _ ___ _
 72
    65
 73
     4
 40
1.125
 49
0.75
 74
     4
 75
     0
340
0
 46
0.0
 50
0.0
 44
0.0
 45
0.0
 49
-0.125
 74
     4
 75
     0
340
0
 46
0.0
 50
0.0
 44
0.0
 45
0.0
 49
0.125
 74
     4
 75
     0
340
0
 46
0.0
 50
0.0
 44
0.0
 45
0.0
 49
-0.125
 74
     4
 75
     0
340
0
 46
0.0
 50
0.0
 44
0.0
 45
0.0
  0
LTYPE
  5
ED
330
5
100
AcDbSymbolTableRecord
100
AcDbLinetypeTableRecord
  2
HIDDEN2
 70
     0
  3
_ _ _ _ _ _ _ _ _ _ _ _ _ _ _ _ _ _ _ _ _ _ _ _
 72
    65
 73
     2
 40
0.1875
 49
0.125
 74
     4
 75
     0
340
0
 46
0.0
 50
0.0
 44
0.0
 45
0.0
 49
-0.0625
 74
     4
 75
     0
340
0
 46
0.0
 50
0.0
 44
0.0
 45
0.0
  0
ENDTAB
  0
TABLE
  2
LAYER
  5
2
330
0
100
AcDbSymbolTable
 70
     6
  0
LAYER
  5
10
330
2
100
AcDbSymbolTableRecord
100
AcDbLayerTableRecord
  2
0
 70
     0
 62
     7
  6
Continuous
370
    -3
390
F
  0
LAYER
  5
2A
330
2
100
AcDbSymbolTableRecord
100
AcDbLayerTableRecord
  2
Default
 70
     0
 62
     7
  6
Continuous
370
    -3
390
F
  0
LAYER
  5
5E
330
2
100
AcDbSymbolTableRecord
100
AcDbLayerTableRecord
  2
DV1_Default
 70
     0
 62
     7
  6
Continuous
370
    -3
390
F
  0
LAYER
  5
132
330
2
100
AcDbSymbolTableRecord
100
AcDbLayerTableRecord
  2
DV2_Default
 70
     0
 62
     7
  6
Continuous
370
    -3
390
F
  0
LAYER
  5
21E
330
2
100
AcDbSymbolTableRecord
100
AcDbLayerTableRecord
  2
DV3_Default
 70
     0
 62
     7
  6
Continuous
370
    -3
390
F
  0
LAYER
  5
438
330
2
100
AcDbSymbolTableRecord
100
AcDbLayerTableRecord
  2
BORDER
 70
     0
 62
     7
  6
Continuous
370
    -3
390
F
  0
ENDTAB
  0
TABLE
  2
STYLE
  5
3
330
0
100
AcDbSymbolTable
 70
     3
  0
STYLE
  5
11
330
3
100
AcDbSymbolTableRecord
100
AcDbTextStyleTableRecord
  2
Standard
 70
     0
 40
0.0
 41
1.0
 50
0.0
 71
     0
 42
0.2
  3
txt
  4

  0
STYLE
  5
31
330
3
100
AcDbSymbolTableRecord
100
AcDbTextStyleTableRecord
  2
SEACAD_arial_ttf
 70
     0
 40
0.2
 41
1.0
 50
0.0
 71
     0
 42
0.2
  3
arial.ttf
  4

  0
STYLE
  5
4E
330
3
100
AcDbSymbolTableRecord
100
AcDbTextStyleTableRecord
  2
SEACAD_semeca1_ttf
 70
     0
 40
0.2
 41
1.0
 50
0.0
 71
     0
 42
0.2
  3
semeca1.ttf
  4

  0
ENDTAB
  0
TABLE
  2
VIEW
  5
6
330
0
100
AcDbSymbolTable
 70
     0
  0
ENDTAB
  0
TABLE
  2
UCS
  5
7
330
0
100
AcDbSymbolTable
 70
     0
  0
ENDTAB
  0
TABLE
  2
APPID
  5
9
330
0
100
AcDbSymbolTable
 70
     1
  0
APPID
  5
12
330
9
100
AcDbSymbolTableRecord
100
AcDbRegAppTableRecord
  2
ACAD
 70
     0
  0
ENDTAB
  0
TABLE
  2
DIMSTYLE
  5
A
330
0
100
AcDbSymbolTable
 70
     1
100
AcDbDimStyleTable
  0
DIMSTYLE
105
27
330
A
100
AcDbSymbolTableRecord
100
AcDbDimStyleTableRecord
  2
Standard
 70
     0
340
11
  0
ENDTAB
  0
TABLE
  2
BLOCK_RECORD
  5
1
330
0
100
AcDbSymbolTable
 70
    40
  0
BLOCK_RECORD
  5
1F
330
1
100
AcDbSymbolTableRecord
100
AcDbBlockTableRecord
  2
*Model_Space
340
22
  0
BLOCK_RECORD
  5
1B
330
1
100
AcDbSymbolTableRecord
100
AcDbBlockTableRecord
  2
*Paper_Space
340
1E
  0
BLOCK_RECORD
  5
2B
330
1
100
AcDbSymbolTableRecord
100
AcDbBlockTableRecord
  2
SEANNOT_GROUP
340
0
102
{BLKREFS
331
2C
102
}
  0
BLOCK_RECORD
  5
36
330
1
100
AcDbSymbolTableRecord
100
AcDbBlockTableRecord
  2
SEANNOT_GROUP1
340
0
102
{BLKREFS
331
37
102
}
  0
BLOCK_RECORD
  5
3F
330
1
100
AcDbSymbolTableRecord
100
AcDbBlockTableRecord
  2
SEANNOT_GROUP2
340
0
102
{BLKREFS
331
40
102
}
  0
BLOCK_RECORD
  5
48
330
1
100
AcDbSymbolTableRecord
100
AcDbBlockTableRecord
  2
SEANNOT_GROUP3
340
0
102
{BLKREFS
331
49
102
}
  0
BLOCK_RECORD
  5
53
330
1
100
AcDbSymbolTableRecord
100
AcDbBlockTableRecord
  2
SEANNOT_GROUP4
340
0
102
{BLKREFS
331
54
102
}
  0
BLOCK_RECORD
  5
5C
330
1
100
AcDbSymbolTableRecord
100
AcDbBlockTableRecord
  2
SE
340
0
102
{BLKREFS
331
5D
102
}
  0
BLOCK_RECORD
  5
130
330
1
100
AcDbSymbolTableRecord
100
AcDbBlockTableRecord
  2
SE1
340
0
102
{BLKREFS
331
131
102
}
  0
BLOCK_RECORD
  5
21C
330
1
100
AcDbSymbolTableRecord
100
AcDbBlockTableRecord
  2
SE2
340
0
102
{BLKREFS
331
21D
102
}
  0
BLOCK_RECORD
  5
2BF
330
1
100
AcDbSymbolTableRecord
100
AcDbBlockTableRecord
  2
GDimGGroup
340
0
102
{BLKREFS
331
2C0
102
}
  0
BLOCK_RECORD
  5
2CC
330
1
100
AcDbSymbolTableRecord
100
AcDbBlockTableRecord
  2
GDimGGroup1
340
0
102
{BLKREFS
331
2CD
102
}
  0
BLOCK_RECORD
  5
2D8
330
1
100
AcDbSymbolTableRecord
100
AcDbBlockTableRecord
  2
GDimGGroup2
340
0
102
{BLKREFS
331
2D9
102
}
  0
BLOCK_RECORD
  5
2E4
330
1
100
AcDbSymbolTableRecord
100
AcDbBlockTableRecord
  2
GDimGGroup3
340
0
102
{BLKREFS
331
2E5
102
}
  0
BLOCK_RECORD
  5
2F0
330
1
100
AcDbSymbolTableRecord
100
AcDbBlockTableRecord
  2
GDimGGroup4
340
0
102
{BLKREFS
331
2F1
102
}
  0
BLOCK_RECORD
  5
2FC
330
1
100
AcDbSymbolTableRecord
100
AcDbBlockTableRecord
  2
GDimGGroup5
340
0
102
{BLKREFS
331
2FD
102
}
  0
BLOCK_RECORD
  5
308
330
1
100
AcDbSymbolTableRecord
100
AcDbBlockTableRecord
  2
GDimGGroup6
340
0
102
{BLKREFS
331
309
102
}
  0
BLOCK_RECORD
  5
314
330
1
100
AcDbSymbolTableRecord
100
AcDbBlockTableRecord
  2
GDimGGroup7
340
0
102
{BLKREFS
331
315
102
}
  0
BLOCK_RECORD
  5
320
330
1
100
AcDbSymbolTableRecord
100
AcDbBlockTableRecord
  2
GDimGGroup8
340
0
102
{BLKREFS
331
321
102
}
  0
BLOCK_RECORD
  5
32C
330
1
100
AcDbSymbolTableRecord
100
AcDbBlockTableRecord
  2
GDimGGroup9
340
0
102
{BLKREFS
331
32D
102
}
  0
BLOCK_RECORD
  5
338
330
1
100
AcDbSymbolTableRecord
100
AcDbBlockTableRecord
  2
GDimGGroup10
340
0
102
{BLKREFS
331
339
102
}
  0
BLOCK_RECORD
  5
345
330
1
100
AcDbSymbolTableRecord
100
AcDbBlockTableRecord
  2
GDimGGroup11
340
0
102
{BLKREFS
331
346
102
}
  0
BLOCK_RECORD
  5
352
330
1
100
AcDbSymbolTableRecord
100
AcDbBlockTableRecord
  2
GDimGGroup12
340
0
102
{BLKREFS
331
353
102
}
  0
BLOCK_RECORD
  5
35F
330
1
100
AcDbSymbolTableRecord
100
AcDbBlockTableRecord
  2
GDimGGroup13
340
0
102
{BLKREFS
331
360
102
}
  0
BLOCK_RECORD
  5
36C
330
1
100
AcDbSymbolTableRecord
100
AcDbBlockTableRecord
  2
GDimGGroup14
340
0
102
{BLKREFS
331
36D
102
}
  0
BLOCK_RECORD
  5
377
330
1
100
AcDbSymbolTableRecord
100
AcDbBlockTableRecord
  2
GDimGGroup15
340
0
102
{BLKREFS
331
378
102
}
  0
BLOCK_RECORD
  5
382
330
1
100
AcDbSymbolTableRecord
100
AcDbBlockTableRecord
  2
GDimGGroup16
340
0
102
{BLKREFS
331
383
102
}
  0
BLOCK_RECORD
  5
38D
330
1
100
AcDbSymbolTableRecord
100
AcDbBlockTableRecord
  2
GDimGGroup17
340
0
102
{BLKREFS
331
38E
102
}
  0
BLOCK_RECORD
  5
39B
330
1
100
AcDbSymbolTableRecord
100
AcDbBlockTableRecord
  2
GDimGGroup18
340
0
102
{BLKREFS
331
39C
102
}
  0
BLOCK_RECORD
  5
3A7
330
1
100
AcDbSymbolTableRecord
100
AcDbBlockTableRecord
  2
GDimGGroup19
340
0
102
{BLKREFS
331
3A8
102
}
  0
BLOCK_RECORD
  5
3B3
330
1
100
AcDbSymbolTableRecord
100
AcDbBlockTableRecord
  2
GDimGGroup20
340
0
102
{BLKREFS
331
3B4
102
}
  0
BLOCK_RECORD
  5
3BF
330
1
100
AcDbSymbolTableRecord
100
AcDbBlockTableRecord
  2
GDimGGroup21
340
0
102
{BLKREFS
331
3C0
102
}
  0
BLOCK_RECORD
  5
3CB
330
1
100
AcDbSymbolTableRecord
100
AcDbBlockTableRecord
  2
GDimGGroup22
340
0
102
{BLKREFS
331
3CC
102
}
  0
BLOCK_RECORD
  5
3D9
330
1
100
AcDbSymbolTableRecord
100
AcDbBlockTableRecord
  2
GDimGGroup23
340
0
102
{BLKREFS
331
3DA
102
}
  0
BLOCK_RECORD
  5
3E7
330
1
100
AcDbSymbolTableRecord
100
AcDbBlockTableRecord
  2
GDimGGroup24
340
0
102
{BLKREFS
331
3E8
102
}
  0
BLOCK_RECORD
  5
3F3
330
1
100
AcDbSymbolTableRecord
100
AcDbBlockTableRecord
  2
GDimGGroup25
340
0
102
{BLKREFS
331
3F4
102
}
  0
BLOCK_RECORD
  5
3FF
330
1
100
AcDbSymbolTableRecord
100
AcDbBlockTableRecord
  2
GDimGGroup26
340
0
102
{BLKREFS
331
400
102
}
  0
BLOCK_RECORD
  5
40B
330
1
100
AcDbSymbolTableRecord
100
AcDbBlockTableRecord
  2
GDimGGroup27
340
0
102
{BLKREFS
331
40C
102
}
  0
BLOCK_RECORD
  5
415
330
1
100
AcDbSymbolTableRecord
100
AcDbBlockTableRecord
  2
GDimGGroup28
340
0
102
{BLKREFS
331
416
102
}
  0
BLOCK_RECORD
  5
422
330
1
100
AcDbSymbolTableRecord
100
AcDbBlockTableRecord
  2
GDimGGroup29
340
0
102
{BLKREFS
331
423
102
}
  0
BLOCK_RECORD
  5
42E
330
1
100
AcDbSymbolTableRecord
100
AcDbBlockTableRecord
  2
GDimGGroup30
340
0
102
{BLKREFS
331
42F
102
}
  0
ENDTAB
  0
ENDSEC
  0
SECTION
  2
BLOCKS
  0
BLOCK
  5
20
330
1F
100
AcDbEntity
  8
0
100
AcDbBlockBegin
  2
*Model_Space
 70
     0
 71
     0
 10
0.0
 20
0.0
 30
0.0
  3
*Model_Space
  1

  0
ENDBLK
  5
21
330
1F
100
AcDbEntity
  8
0
100
AcDbBlockEnd
  0
BLOCK
  5
1C
330
1B
100
AcDbEntity
 67
     1
  8
0
100
AcDbBlockBegin
  2
*Paper_Space
 70
     0
 71
     0
 10
0.0
 20
0.0
 30
0.0
  3
*Paper_Space
  1

  0
ENDBLK
  5
1D
330
1B
100
AcDbEntity
 67
     1
  8
0
100
AcDbBlockEnd
  0
BLOCK
  5
34
330
2B
100
AcDbEntity
  8
0
100
AcDbBlockBegin
  2
SEANNOT_GROUP
 70
     0
 71
     0
 10
0.0
 20
0.0
 30
0.0
  3
SEANNOT_GROUP
  1

  0
LWPOLYLINE
  5
2D
330
2B
100
AcDbEntity
  8
Default
  6
Continuous
 62
     7
 48
25.4
100
AcDbPolyline
 90
        2
 70
     0
 43
0.0
 10
255.1632912956
 20
400.9282001344
 10
215.5568634239
 20
383.5554922972
  0
HATCH
  5
2E
330
2B
100
AcDbEntity
  8
Default
  6
Continuous
 62
     7
 48
25.4
100
AcDbHatch
 10
0.0
 20
0.0
 30
0.0
210
0.0
220
0.0
230
1.0
  2
SOLID
 70
     1
 71
     0
 91
        1
 92
        1
 93
        3
 72
     1
 10
218.9521731903165
 20
385.7727693651897
 11
215.5568634238687
 21
383.5554922971517
 72
     1
 10
215.5568634238687
 20
383.5554922971517
 11
219.4877598196019
 21
384.5517350048262
 72
     1
 10
219.4877598196019
 20
384.5517350048262
 11
218.9521731903165
 21
385.7727693651897
 97
        0
 75
     0
 76
     1
 98
        0
  0
LWPOLYLINE
  5
2F
330
2B
100
AcDbEntity
  8
Default
  6
Continuous
 62
     7
 48
25.4
370
    20
100
AcDbPolyline
 90
        4
 70
     1
 43
0.0
 10
218.9521731903
 20
385.7727693652
 10
215.5568634239
 20
383.5554922972
 10
219.4877598196
 20
384.5517350048
 10
218.9521731903
 20
385.7727693652
  0
LINE
  5
30
330
2B
100
AcDbEntity
  8
Default
  6
Continuous
 62
     7
 48
25.4
100
AcDbLine
 10
255.1632912956
 20
400.9282001344
 30
0.0
 11
327.0038710057
 21
400.9282001344
 31
0.0
  0
TEXT
  5
32
330
2B
100
AcDbEntity
  8
Default
  6
Continuous
 62
     7
 48
25.4
100
AcDbText
 10
255.1632912956
 20
401.9282001344
 30
0.0
 40
4.0
  1
SERRATION PITCH 1.5X60
  7
SEACAD_arial_ttf
 11
255.1632912956
 21
405.9282001344
 31
0.0
100
AcDbText
 73
     3
  0
TEXT
  5
33
330
2B
100
AcDbEntity
  8
Default
  6
Continuous
 62
     7
 48
25.4
100
AcDbText
 10
325.3372043391
 20
401.9282001344
 30
0.0
 40
4.0
  1
°
  7
SEACAD_arial_ttf
 11
325.3372043391
 21
405.9282001344
 31
0.0
100
AcDbText
 73
     3
  0
ENDBLK
  5
35
330
2B
100
AcDbEntity
  8
0
100
AcDbBlockEnd
  0
BLOCK
  5
3D
330
36
100
AcDbEntity
  8
0
100
AcDbBlockBegin
  2
SEANNOT_GROUP1
 70
     0
 71
     0
 10
0.0
 20
0.0
 30
0.0
  3
SEANNOT_GROUP1
  1

  0
LWPOLYLINE
  5
38
330
36
100
AcDbEntity
  8
Default
  6
Continuous
 62
     7
 48
25.4
100
AcDbPolyline
 90
        2
 70
     0
 43
0.0
 10
164.2588619556
 20
345.9526642955
 10
159.8785464243
 20
326.1841732662
  0
HATCH
  5
39
330
36
100
AcDbEntity
  8
Default
  6
Continuous
 62
     7
 48
25.4
100
AcDbHatch
 10
0.0
 20
0.0
 30
0.0
210
0.0
220
0.0
230
1.0
  2
SOLID
 70
     1
 71
     0
 91
        1
 92
        1
 93
        3
 72
     1
 10
160.093000896331
 20
330.2336738879717
 11
159.8785464243265
 21
326.1841732661641
 72
     1
 10
159.8785464243265
 20
326.1841732661641
 11
161.3947603157278
 21
329.9452291607374
 72
     1
 10
161.3947603157278
 20
329.9452291607374
 11
160.093000896331
 21
330.2336738879717
 97
        0
 75
     0
 76
     1
 98
        0
  0
LWPOLYLINE
  5
3A
330
36
100
AcDbEntity
  8
Default
  6
Continuous
 62
     7
 48
25.4
370
    20
100
AcDbPolyline
 90
        4
 70
     1
 43
0.0
 10
160.0930008963
 20
330.233673888
 10
159.8785464243
 20
326.1841732662
 10
161.3947603157
 20
329.9452291607
 10
160.0930008963
 20
330.233673888
  0
LINE
  5
3B
330
36
100
AcDbEntity
  8
Default
  6
Continuous
 62
     7
 48
25.4
100
AcDbLine
 10
164.2588619556
 20
345.9526642955
 30
0.0
 11
203.128427173
 21
345.9526642955
 31
0.0
  0
TEXT
  5
3C
330
36
100
AcDbEntity
  8
Default
  6
Continuous
 62
     7
 48
25.4
100
AcDbText
 10
164.2588619556
 20
346.9526642955
 30
0.0
 40
4.0
  1
MAX M130X2.0
  7
SEACAD_arial_ttf
 11
164.2588619556
 21
350.9526642955
 31
0.0
100
AcDbText
 73
     3
  0
ENDBLK
  5
3E
330
36
100
AcDbEntity
  8
0
100
AcDbBlockEnd
  0
BLOCK
  5
46
330
3F
100
AcDbEntity
  8
0
100
AcDbBlockBegin
  2
SEANNOT_GROUP2
 70
     0
 71
     0
 10
0.0
 20
0.0
 30
0.0
  3
SEANNOT_GROUP2
  1

  0
LWPOLYLINE
  5
41
330
3F
100
AcDbEntity
  8
Default
  6
Continuous
 62
     7
 48
25.4
100
AcDbPolyline
 90
        2
 70
     0
 43
0.0
 10
108.8980702488
 20
206.6969454443
 10
137.4206412139
 20
229.6603686222
  0
HATCH
  5
42
330
3F
100
AcDbEntity
  8
Default
  6
Continuous
 62
     7
 48
25.4
100
AcDbHatch
 10
0.0
 20
0.0
 30
0.0
210
0.0
220
0.0
230
1.0
  2
SOLID
 70
     1
 71
     0
 91
        1
 92
        1
 93
        3
 72
     1
 10
134.7230020050367
 20
226.632632057475
 11
137.4206412138988
 21
229.6603686222033
 72
     1
 10
137.4206412138988
 20
229.6603686222033
 11
133.8868517250633
 21
227.6712035070913
 72
     1
 10
133.8868517250633
 20
227.6712035070913
 11
134.7230020050367
 21
226.632632057475
 97
        0
 75
     0
 76
     1
 98
        0
  0
LWPOLYLINE
  5
43
330
3F
100
AcDbEntity
  8
Default
  6
Continuous
 62
     7
 48
25.4
370
    20
100
AcDbPolyline
 90
        4
 70
     1
 43
0.0
 10
134.723002005
 20
226.6326320575
 10
137.4206412139
 20
229.6603686222
 10
133.8868517251
 20
227.6712035071
 10
134.723002005
 20
226.6326320575
  0
LINE
  5
44
330
3F
100
AcDbEntity
  8
Default
  6
Continuous
 62
     7
 48
25.4
100
AcDbLine
 10
108.8980702488
 20
206.6969454443
 30
0.0
 11
93.0719832923
 21
206.6969454443
 31
0.0
  0
TEXT
  5
45
330
3F
100
AcDbEntity
  8
Default
  6
Continuous
 62
     7
 48
25.4
100
AcDbText
 10
93.0719832923
 20
207.6969454443
 30
0.0
 40
4.0
  1
6-M20
  7
SEACAD_arial_ttf
 11
93.0719832923
 21
211.6969454443
 31
0.0
100
AcDbText
 73
     3
  0
ENDBLK
  5
47
330
3F
100
AcDbEntity
  8
0
100
AcDbBlockEnd
  0
BLOCK
  5
51
330
48
100
AcDbEntity
  8
0
100
AcDbBlockBegin
  2
SEANNOT_GROUP3
 70
     0
 71
     0
 10
0.0
 20
0.0
 30
0.0
  3
SEANNOT_GROUP3
  1

  0
LWPOLYLINE
  5
4A
330
48
100
AcDbEntity
  8
Default
  6
Continuous
 62
     7
 48
25.4
100
AcDbPolyline
 90
        2
 70
     0
 43
0.0
 10
238.6441185066
 20
257.9256089884
 10
238.6441185066
 20
234.9103686222
  0
HATCH
  5
4B
330
48
100
AcDbEntity
  8
Default
  6
Continuous
 62
     7
 48
25.4
100
AcDbHatch
 10
0.0
 20
0.0
 30
0.0
210
0.0
220
0.0
230
1.0
  2
SOLID
 70
     1
 71
     0
 91
        1
 92
        1
 93
        3
 72
     1
 10
237.9774518083177
 20
238.9103688121931
 11
238.6441185066493
 21
234.9103686222033
 72
     1
 10
238.6441185066493
 20
234.9103686222033
 11
239.3107852049809
 21
238.9103688121931
 72
     1
 10
239.3107852049809
 20
238.9103688121931
 11
237.9774518083177
 21
238.9103688121931
 97
        0
 75
     0
 76
     1
 98
        0
  0
LWPOLYLINE
  5
4C
330
48
100
AcDbEntity
  8
Default
  6
Continuous
 62
     7
 48
25.4
370
    20
100
AcDbPolyline
 90
        4
 70
     1
 43
0.0
 10
237.9774518083
 20
238.9103688122
 10
238.6441185066
 20
234.9103686222
 10
239.310785205
 20
238.9103688122
 10
237.9774518083
 20
238.9103688122
  0
LINE
  5
4D
330
48
100
AcDbEntity
  8
Default
  6
Continuous
 62
     7
 48
25.4
100
AcDbLine
 10
229.3170962636
 20
234.9103686222
 30
0.0
 11
240.6441185066
 21
234.9103686222
 31
0.0
  0
TEXT
  5
4F
330
48
100
AcDbEntity
  8
Default
  6
Continuous
 62
     7
 48
25.4
100
AcDbText
 10
240.0441185066
 20
255.9256089884
 30
0.0
 40
4.0
  1
O
  7
SEACAD_semeca1_ttf
 11
240.0441185066
 21
259.9256089884
 31
0.0
100
AcDbText
 73
     3
  0
TEXT
  5
50
330
48
100
AcDbEntity
  8
Default
  6
Continuous
 62
     7
 48
25.4
100
AcDbText
 10
244.6055220154
 20
255.9256089884
 30
0.0
 40
4.0
  1
235
  7
SEACAD_arial_ttf
 11
244.6055220154
 21
259.9256089884
 31
0.0
100
AcDbText
 73
     3
  0
ENDBLK
  5
52
330
48
100
AcDbEntity
  8
0
100
AcDbBlockEnd
  0
BLOCK
  5
5A
330
53
100
AcDbEntity
  8
0
100
AcDbBlockBegin
  2
SEANNOT_GROUP4
 70
     0
 71
     0
 10
0.0
 20
0.0
 30
0.0
  3
SEANNOT_GROUP4
  1

  0
LWPOLYLINE
  5
55
330
53
100
AcDbEntity
  8
Default
  6
Continuous
 62
     7
 48
25.4
100
AcDbPolyline
 90
        2
 70
     0
 43
0.0
 10
109.3129498287
 20
232.8343589788
 10
124.9254262846
 20
247.3103686222
  0
HATCH
  5
56
330
53
100
AcDbEntity
  8
Default
  6
Continuous
 62
     7
 48
25.4
100
AcDbHatch
 10
0.0
 20
0.0
 30
0.0
210
0.0
220
0.0
230
1.0
  2
SOLID
 70
     1
 71
     0
 91
        1
 92
        1
 93
        3
 72
     1
 10
122.4455345330435
 20
244.1018513778614
 11
124.9254262845811
 21
247.3103686222032
 72
     1
 10
124.9254262845811
 20
247.3103686222033
 11
121.5389825484753
 21
245.0795739591353
 72
     1
 10
121.5389825484753
 20
245.0795739591353
 11
122.4455345330435
 21
244.1018513778614
 97
        0
 75
     0
 76
     1
 98
        0
  0
LWPOLYLINE
  5
57
330
53
100
AcDbEntity
  8
Default
  6
Continuous
 62
     7
 48
25.4
370
    20
100
AcDbPolyline
 90
        4
 70
     1
 43
0.0
 10
122.445534533
 20
244.1018513779
 10
124.9254262846
 20
247.3103686222
 10
121.5389825485
 20
245.0795739591
 10
122.445534533
 20
244.1018513779
  0
LINE
  5
58
330
53
100
AcDbEntity
  8
Default
  6
Continuous
 62
     7
 48
25.4
100
AcDbLine
 10
109.3129498287
 20
232.8343589788
 30
0.0
 11
93.4868628722
 21
232.8343589788
 31
0.0
  0
TEXT
  5
59
330
53
100
AcDbEntity
  8
Default
  6
Continuous
 62
     7
 48
25.4
100
AcDbText
 10
93.4868628722
 20
233.8343589788
 30
0.0
 40
4.0
  1
6-M16
  7
SEACAD_arial_ttf
 11
93.4868628722
 21
237.8343589788
 31
0.0
100
AcDbText
 73
     3
  0
ENDBLK
  5
5B
330
53
100
AcDbEntity
  8
0
100
AcDbBlockEnd
  0
BLOCK
  5
12E
330
5C
100
AcDbEntity
  8
0
100
AcDbBlockBegin
  2
SE
 70
     0
 71
     0
 10
0.0
 20
0.0
 30
0.0
  3
SE
  1

  0
LINE
  5
60
330
5C
100
AcDbEntity
  8
DV1_Default
  6
CENTER2
 62
     7
 48
25.4
100
AcDbLine
 10
118.0124546578
 20
293.6603686222
 30
0.0
 11
240.6120648361
 21
293.6603686222
 31
0.0
  0
LINE
  5
61
330
5C
100
AcDbEntity
  8
DV1_Default
  6
Continuous
 62
     7
 48
25.4
100
AcDbLine
 10
213.3867707985
 20
388.9103686222
 30
0.0
 11
146.8867707985
 21
388.9103686222
 31
0.0
  0
LINE
  5
62
330
5C
100
AcDbEntity
  8
DV1_Default
  6
Continuous
 62
     7
 48
25.4
100
AcDbLine
 10
213.3867707985
 20
198.4103686222
 30
0.0
 11
146.8867707985
 21
198.4103686222
 31
0.0
  0
LINE
  5
63
330
5C
100
AcDbEntity
  8
DV1_Default
  6
Continuous
 62
     7
 48
25.4
100
AcDbLine
 10
213.3867707985
 20
333.8353686222
 30
0.0
 11
213.3867707985
 21
293.6603686222
 31
0.0
  0
LINE
  5
64
330
5C
100
AcDbEntity
  8
DV1_Default
  6
Continuous
 62
     7
 48
25.4
100
AcDbLine
 10
213.3867707985
 20
293.6603686222
 30
0.0
 11
213.3867707985
 21
198.4103686222
 31
0.0
  0
LINE
  5
65
330
5C
100
AcDbEntity
  8
DV1_Default
  6
Continuous
 62
     7
 48
25.4
100
AcDbLine
 10
213.3867707985
 20
264.2853686222
 30
0.0
 11
180.3867707985
 21
264.2853686222
 31
0.0
  0
LINE
  5
66
330
5C
100
AcDbEntity
  8
DV1_Default
  6
Continuous
 62
     7
 48
25.4
100
AcDbLine
 10
146.8867707985
 20
368.6603686222
 30
0.0
 11
146.8867707985
 21
388.9103686222
 31
0.0
  0
LINE
  5
67
330
5C
100
AcDbEntity
  8
DV1_Default
  6
Continuous
 62
     7
 48
25.4
100
AcDbLine
 10
133.3867707985
 20
218.6603686222
 30
0.0
 11
146.8867707985
 21
218.6603686222
 31
0.0
  0
LINE
  5
68
330
5C
100
AcDbEntity
  8
DV1_Default
  6
Continuous
 62
     7
 48
25.4
100
AcDbLine
 10
146.8867707985
 20
218.6603686222
 30
0.0
 11
149.8867707985
 21
218.6603686222
 31
0.0
  0
LINE
  5
69
330
5C
100
AcDbEntity
  8
DV1_Default
  6
Continuous
 62
     7
 48
25.4
100
AcDbLine
 10
149.8867707985
 20
240.1603686222
 30
0.0
 11
149.8867707985
 21
293.6603686222
 31
0.0
  0
LINE
  5
6A
330
5C
100
AcDbEntity
  8
DV1_Default
  6
CENTER2
 62
     7
 48
25.4
100
AcDbLine
 10
229.3170962636
 20
234.9103686222
 30
0.0
 11
116.3300962646
 21
234.9103686222
 31
0.0
  0
LINE
  5
6B
330
5C
100
AcDbEntity
  8
DV1_Default
  6
Continuous
 62
     7
 48
25.4
100
AcDbLine
 10
178.8867707985
 20
293.6603686222
 30
0.0
 11
178.8867707985
 21
260.0362951153
 31
0.0
  0
LINE
  5
6C
330
5C
100
AcDbEntity
  8
DV1_Default
  6
Continuous
 62
     7
 48
25.4
100
AcDbLine
 10
178.8867707985
 20
260.0362951153
 30
0.0
 11
175.8867707985
 21
260.0362951153
 31
0.0
  0
LINE
  5
6D
330
5C
100
AcDbEntity
  8
DV1_Default
  6
Continuous
 62
     7
 48
25.4
100
AcDbLine
 10
175.8867707985
 20
260.0362951153
 30
0.0
 11
175.8867707985
 21
257.5362951153
 31
0.0
  0
LINE
  5
6E
330
5C
100
AcDbEntity
  8
DV1_Default
  6
Continuous
 62
     7
 48
25.4
100
AcDbLine
 10
175.8867707985
 20
257.5362951153
 30
0.0
 11
171.8867707985
 21
257.5362951153
 31
0.0
  0
LINE
  5
6F
330
5C
100
AcDbEntity
  8
DV1_Default
  6
Continuous
 62
     7
 48
25.4
100
AcDbLine
 10
171.8867707985
 20
258.9103686222
 30
0.0
 11
171.8867707985
 21
257.5362951153
 31
0.0
  0
LINE
  5
70
330
5C
100
AcDbEntity
  8
DV1_Default
  6
Continuous
 62
     7
 48
25.4
100
AcDbLine
 10
155.3867707985
 20
261.1603686222
 30
0.0
 11
174.8867707985
 21
261.1603686222
 31
0.0
  0
LINE
  5
71
330
5C
100
AcDbEntity
  8
DV1_Default
  6
Continuous
 62
     7
 48
25.4
100
AcDbLine
 10
176.8867707985
 20
261.1603686222
 30
0.0
 11
176.8867707985
 21
262.1603686222
 31
0.0
  0
LINE
  5
72
330
5C
100
AcDbEntity
  8
DV1_Default
  6
Continuous
 62
     7
 48
25.4
100
AcDbLine
 10
176.8867707985
 20
260.0362951153
 30
0.0
 11
176.8867707985
 21
293.6603686222
 31
0.0
  0
LINE
  5
73
330
5C
100
AcDbEntity
  8
DV1_Default
  6
Continuous
 62
     7
 48
25.4
100
AcDbLine
 10
176.8867707985
 20
261.1603686222
 30
0.0
 11
173.8867707985
 21
261.1603686222
 31
0.0
  0
LINE
  5
74
330
5C
100
AcDbEntity
  8
DV1_Default
  6
Continuous
 62
     7
 48
25.4
100
AcDbLine
 10
173.8867707985
 20
261.1603686222
 30
0.0
 11
173.8867707985
 21
293.6603686222
 31
0.0
  0
LINE
  5
75
330
5C
100
AcDbEntity
  8
DV1_Default
  6
Continuous
 62
     7
 48
25.4
100
AcDbLine
 10
178.8867707985
 20
260.0362951153
 30
0.0
 11
179.3867707985
 21
260.0362951153
 31
0.0
  0
LINE
  5
76
330
5C
100
AcDbEntity
  8
DV1_Default
  6
Continuous
 62
     7
 48
25.4
100
AcDbLine
 10
179.3867707985
 20
260.0362951153
 30
0.0
 11
179.3867707985
 21
263.2853686222
 31
0.0
  0
LINE
  5
77
330
5C
100
AcDbEntity
  8
DV1_Default
  6
Continuous
 62
     7
 48
25.4
100
AcDbLine
 10
213.3867707985
 20
293.6603686222
 30
0.0
 11
213.3867707985
 21
253.4853686222
 31
0.0
  0
LINE
  5
78
330
5C
100
AcDbEntity
  8
DV1_Default
  6
Continuous
 62
     7
 48
25.4
100
AcDbLine
 10
213.3867707985
 20
253.4853686222
 30
0.0
 11
208.3867707985
 21
253.4853686222
 31
0.0
  0
LINE
  5
79
330
5C
100
AcDbEntity
  8
DV1_Default
  6
Continuous
 62
     7
 48
25.4
100
AcDbLine
 10
208.3867707985
 20
262.7853686222
 30
0.0
 11
178.8867707985
 21
262.7853686222
 31
0.0
  0
LINE
  5
7A
330
5C
100
AcDbEntity
  8
DV1_Default
  6
Continuous
 62
     7
 48
25.4
100
AcDbLine
 10
208.3867707985
 20
262.7853686222
 30
0.0
 11
208.3867707985
 21
253.4853686222
 31
0.0
  0
LINE
  5
7B
330
5C
100
AcDbEntity
  8
DV1_Default
  6
Continuous
 62
     7
 48
25.4
100
AcDbLine
 10
179.3867707985
 20
263.2853686222
 30
0.0
 11
180.3867707985
 21
264.2853686222
 31
0.0
  0
LINE
  5
7C
330
5C
100
AcDbEntity
  8
DV1_Default
  6
Continuous
 62
     7
 48
25.4
100
AcDbLine
 10
179.3867707985
 20
263.2853686222
 30
0.0
 11
179.3867707985
 21
293.6603686222
 31
0.0
  0
LINE
  5
7D
330
5C
100
AcDbEntity
  8
DV1_Default
  6
Continuous
 62
     7
 48
25.4
100
AcDbLine
 10
180.3867707985
 20
264.2853686222
 30
0.0
 11
180.3867707985
 21
293.6603686222
 31
0.0
  0
LINE
  5
7E
330
5C
100
AcDbEntity
  8
DV1_Default
  6
Continuous
 62
     7
 48
25.4
100
AcDbLine
 10
213.3867707985
 20
253.4853686222
 30
0.0
 11
213.3867707985
 21
254.4853686222
 31
0.0
  0
LINE
  5
7F
330
5C
100
AcDbEntity
  8
DV1_Default
  6
Continuous
 62
     7
 48
25.4
100
AcDbLine
 10
213.3867707985
 20
254.4853686222
 30
0.0
 11
210.3867707985
 21
254.4853686222
 31
0.0
  0
LINE
  5
80
330
5C
100
AcDbEntity
  8
DV1_Default
  6
Continuous
 62
     7
 48
25.4
100
AcDbLine
 10
210.3867707985
 20
254.4853686222
 30
0.0
 11
210.3867707985
 21
260.4853686222
 31
0.0
  0
LINE
  5
81
330
5C
100
AcDbEntity
  8
DV1_Default
  6
Continuous
 62
     7
 48
25.4
100
AcDbLine
 10
210.3867707985
 20
260.4853686222
 30
0.0
 11
213.3867707985
 21
260.4853686222
 31
0.0
  0
LINE
  5
82
330
5C
100
AcDbEntity
  8
DV1_Default
  6
CENTER2
 62
     7
 48
25.4
100
AcDbLine
 10
215.9650249704
 20
257.4853686222
 30
0.0
 11
201.1328933472
 21
257.4853686222
 31
0.0
  0
LINE
  5
83
330
5C
100
AcDbEntity
  8
DV1_Default
  6
Continuous
 62
     7
 48
25.4
100
AcDbLine
 10
213.3867707985
 20
242.9103686222
 30
0.0
 11
199.8867707985
 21
242.9103686222
 31
0.0
  0
LINE
  5
84
330
5C
100
AcDbEntity
  8
DV1_Default
  6
Continuous
 62
     7
 48
25.4
100
AcDbLine
 10
199.8867707985
 20
242.9103686222
 30
0.0
 11
199.8867707985
 21
226.9103686222
 31
0.0
  0
LINE
  5
85
330
5C
100
AcDbEntity
  8
DV1_Default
  6
Continuous
 62
     7
 48
25.4
100
AcDbLine
 10
199.8867707985
 20
226.9103686222
 30
0.0
 11
213.3867707985
 21
226.9103686222
 31
0.0
  0
LINE
  5
86
330
5C
100
AcDbEntity
  8
DV1_Default
  6
Continuous
 62
     7
 48
25.4
100
AcDbLine
 10
199.8867707985
 20
229.6603686222
 30
0.0
 11
135.3867707985
 21
229.6603686222
 31
0.0
  0
LINE
  5
87
330
5C
100
AcDbEntity
  8
DV1_Default
  6
Continuous
 62
     7
 48
25.4
100
AcDbLine
 10
199.8867707985
 20
240.757148319
 30
0.0
 11
149.8867707985
 21
240.757148319
 31
0.0
  0
LINE
  5
88
330
5C
100
AcDbEntity
  8
DV1_Default
  6
Continuous
 62
     7
 48
25.4
100
AcDbLine
 10
149.8867707985
 20
240.6603686222
 30
0.0
 11
149.8867707985
 21
243.1603686222
 31
0.0
  0
LINE
  5
89
330
5C
100
AcDbEntity
  8
DV1_Default
  6
Continuous
 62
     7
 48
25.4
100
AcDbLine
 10
162.4698093422
 20
258.9103686222
 30
0.0
 11
162.4698093422
 21
248.501249897
 31
0.0
  0
LINE
  5
8A
330
5C
100
AcDbEntity
  8
DV1_Default
  6
Continuous
 62
     7
 48
25.4
100
AcDbLine
 10
199.8867707985
 20
242.4103686222
 30
0.0
 11
209.3867707985
 21
242.4103686222
 31
0.0
  0
LINE
  5
8B
330
5C
100
AcDbEntity
  8
DV1_Default
  6
Continuous
 62
     7
 48
25.4
100
AcDbLine
 10
209.8867707985
 20
241.9103686222
 30
0.0
 11
209.8867707985
 21
227.9103686222
 31
0.0
  0
LINE
  5
8C
330
5C
100
AcDbEntity
  8
DV1_Default
  6
Continuous
 62
     7
 48
25.4
100
AcDbLine
 10
209.3867707985
 20
227.4103686222
 30
0.0
 11
199.8867707985
 21
227.4103686222
 31
0.0
  0
LINE
  5
8D
330
5C
100
AcDbEntity
  8
DV1_Default
  6
Continuous
 62
     7
 48
25.4
100
AcDbLine
 10
209.8867707985
 20
241.9103686222
 30
0.0
 11
209.3867707985
 21
242.4103686222
 31
0.0
  0
LINE
  5
8E
330
5C
100
AcDbEntity
  8
DV1_Default
  6
Continuous
 62
     7
 48
25.4
100
AcDbLine
 10
209.3867707985
 20
227.4103686222
 30
0.0
 11
209.8867707985
 21
227.9103686222
 31
0.0
  0
LINE
  5
8F
330
5C
100
AcDbEntity
  8
DV1_Default
  6
Continuous
 62
     7
 48
25.4
100
AcDbLine
 10
209.3867707985
 20
242.4103686222
 30
0.0
 11
209.3867707985
 21
227.4103686222
 31
0.0
  0
LINE
  5
90
330
5C
100
AcDbEntity
  8
DV1_Default
  6
Continuous
 62
     7
 48
25.4
100
AcDbLine
 10
162.4698093422
 20
240.1603686222
 30
0.0
 11
162.4698093422
 21
229.6603686222
 31
0.0
  0
LINE
  5
91
330
5C
100
AcDbEntity
  8
DV1_Default
  6
Continuous
 62
     7
 48
25.4
100
AcDbLine
 10
162.4698093422
 20
239.6603686222
 30
0.0
 11
134.8867707985
 21
239.6603686222
 31
0.0
  0
LINE
  5
92
330
5C
100
AcDbEntity
  8
DV1_Default
  6
Continuous
 62
     7
 48
25.4
100
AcDbLine
 10
162.4698093422
 20
230.2853502857
 30
0.0
 11
134.8867707985
 21
230.2853502857
 31
0.0
  0
LINE
  5
93
330
5C
100
AcDbEntity
  8
DV1_Default
  6
Continuous
 62
     7
 48
25.4
100
AcDbLine
 10
146.8867707985
 20
218.6603686222
 30
0.0
 11
146.8867707985
 21
198.4103686222
 31
0.0
  0
LINE
  5
94
330
5C
100
AcDbEntity
  8
DV1_Default
  6
Continuous
 62
     7
 48
25.4
100
AcDbLine
 10
149.8867707985
 20
218.6603686222
 30
0.0
 11
149.8867707985
 21
229.6603686222
 31
0.0
  0
LINE
  5
95
330
5C
100
AcDbEntity
  8
DV1_Default
  6
Continuous
 62
     7
 48
25.4
100
AcDbLine
 10
213.3867707985
 20
323.0353686222
 30
0.0
 11
180.3867707985
 21
323.0353686222
 31
0.0
  0
LINE
  5
96
330
5C
100
AcDbEntity
  8
DV1_Default
  6
Continuous
 62
     7
 48
25.4
100
AcDbLine
 10
133.3867707985
 20
368.6603686222
 30
0.0
 11
146.8867707985
 21
368.6603686222
 31
0.0
  0
LINE
  5
97
330
5C
100
AcDbEntity
  8
DV1_Default
  6
Continuous
 62
     7
 48
25.4
100
AcDbLine
 10
146.8867707985
 20
368.6603686222
 30
0.0
 11
149.8867707985
 21
368.6603686222
 31
0.0
  0
LINE
  5
98
330
5C
100
AcDbEntity
  8
DV1_Default
  6
Continuous
 62
     7
 48
25.4
100
AcDbLine
 10
178.8867707985
 20
293.6603686222
 30
0.0
 11
178.8867707985
 21
327.2844421291
 31
0.0
  0
LINE
  5
99
330
5C
100
AcDbEntity
  8
DV1_Default
  6
Continuous
 62
     7
 48
25.4
100
AcDbLine
 10
178.8867707985
 20
327.2844421291
 30
0.0
 11
175.8867707985
 21
327.2844421291
 31
0.0
  0
LINE
  5
9A
330
5C
100
AcDbEntity
  8
DV1_Default
  6
Continuous
 62
     7
 48
25.4
100
AcDbLine
 10
175.8867707985
 20
327.2844421291
 30
0.0
 11
175.8867707985
 21
329.7844421291
 31
0.0
  0
LINE
  5
9B
330
5C
100
AcDbEntity
  8
DV1_Default
  6
Continuous
 62
     7
 48
25.4
100
AcDbLine
 10
175.8867707985
 20
329.7844421291
 30
0.0
 11
171.8867707985
 21
329.7844421291
 31
0.0
  0
LINE
  5
9C
330
5C
100
AcDbEntity
  8
DV1_Default
  6
Continuous
 62
     7
 48
25.4
100
AcDbLine
 10
171.8867707985
 20
328.4103686222
 30
0.0
 11
171.8867707985
 21
329.7844421291
 31
0.0
  0
LINE
  5
9D
330
5C
100
AcDbEntity
  8
DV1_Default
  6
Continuous
 62
     7
 48
25.4
100
AcDbLine
 10
176.8867707985
 20
326.1603686222
 30
0.0
 11
176.8867707985
 21
325.1603686222
 31
0.0
  0
LINE
  5
9E
330
5C
100
AcDbEntity
  8
DV1_Default
  6
Continuous
 62
     7
 48
25.4
100
AcDbLine
 10
176.8867707985
 20
327.2844421291
 30
0.0
 11
176.8867707985
 21
293.6603686222
 31
0.0
  0
LINE
  5
9F
330
5C
100
AcDbEntity
  8
DV1_Default
  6
Continuous
 62
     7
 48
25.4
100
AcDbLine
 10
176.8867707985
 20
326.1603686222
 30
0.0
 11
173.8867707985
 21
326.1603686222
 31
0.0
  0
LINE
  5
A0
330
5C
100
AcDbEntity
  8
DV1_Default
  6
Continuous
 62
     7
 48
25.4
100
AcDbLine
 10
173.8867707985
 20
326.1603686222
 30
0.0
 11
173.8867707985
 21
293.6603686222
 31
0.0
  0
LINE
  5
A1
330
5C
100
AcDbEntity
  8
DV1_Default
  6
Continuous
 62
     7
 48
25.4
100
AcDbLine
 10
178.8867707985
 20
327.2844421291
 30
0.0
 11
179.3867707985
 21
327.2844421291
 31
0.0
  0
LINE
  5
A2
330
5C
100
AcDbEntity
  8
DV1_Default
  6
Continuous
 62
     7
 48
25.4
100
AcDbLine
 10
179.3867707985
 20
327.2844421291
 30
0.0
 11
179.3867707985
 21
324.0353686222
 31
0.0
  0
LINE
  5
A3
330
5C
100
AcDbEntity
  8
DV1_Default
  6
Continuous
 62
     7
 48
25.4
100
AcDbLine
 10
208.3867707985
 20
324.5353686222
 30
0.0
 11
178.8867707985
 21
324.5353686222
 31
0.0
  0
LINE
  5
A4
330
5C
100
AcDbEntity
  8
DV1_Default
  6
Continuous
 62
     7
 48
25.4
100
AcDbLine
 10
179.3867707985
 20
324.0353686222
 30
0.0
 11
180.3867707985
 21
323.0353686222
 31
0.0
  0
LINE
  5
A5
330
5C
100
AcDbEntity
  8
DV1_Default
  6
Continuous
 62
     7
 48
25.4
100
AcDbLine
 10
179.3867707985
 20
324.0353686222
 30
0.0
 11
179.3867707985
 21
293.6603686222
 31
0.0
  0
LINE
  5
A6
330
5C
100
AcDbEntity
  8
DV1_Default
  6
Continuous
 62
     7
 48
25.4
100
AcDbLine
 10
180.3867707985
 20
323.0353686222
 30
0.0
 11
180.3867707985
 21
293.6603686222
 31
0.0
  0
LINE
  5
A7
330
5C
100
AcDbEntity
  8
DV1_Default
  6
Continuous
 62
     7
 48
25.4
100
AcDbLine
 10
213.3867707985
 20
333.8353686222
 30
0.0
 11
213.3867707985
 21
332.8353686222
 31
0.0
  0
LINE
  5
A8
330
5C
100
AcDbEntity
  8
DV1_Default
  6
Continuous
 62
     7
 48
25.4
100
AcDbLine
 10
149.8867707985
 20
293.6603686222
 30
0.0
 11
149.8867707985
 21
368.6603686222
 31
0.0
  0
LINE
  5
A9
330
5C
100
AcDbEntity
  8
DV1_Default
  6
Continuous
 62
     7
 48
25.4
100
AcDbLine
 10
210.3867707985
 20
260.4853686222
 30
0.0
 11
210.3867707985
 21
259.9853686222
 31
0.0
  0
LINE
  5
AA
330
5C
100
AcDbEntity
  8
DV1_Default
  6
Continuous
 62
     7
 48
25.4
100
AcDbLine
 10
210.3867707985
 20
259.9853686222
 30
0.0
 11
212.6367707985
 21
259.9853686222
 31
0.0
  0
LINE
  5
AB
330
5C
100
AcDbEntity
  8
DV1_Default
  6
Continuous
 62
     7
 48
25.4
100
AcDbLine
 10
212.8867707985
 20
259.7353686222
 30
0.0
 11
212.8867707985
 21
255.2353686222
 31
0.0
  0
LINE
  5
AC
330
5C
100
AcDbEntity
  8
DV1_Default
  6
Continuous
 62
     7
 48
25.4
100
AcDbLine
 10
212.6367707985
 20
254.9853686222
 30
0.0
 11
210.3867707985
 21
254.9853686222
 31
0.0
  0
LINE
  5
AD
330
5C
100
AcDbEntity
  8
DV1_Default
  6
Continuous
 62
     7
 48
25.4
100
AcDbLine
 10
212.8867707985
 20
259.7353686222
 30
0.0
 11
212.6367707985
 21
259.9853686222
 31
0.0
  0
LINE
  5
AE
330
5C
100
AcDbEntity
  8
DV1_Default
  6
Continuous
 62
     7
 48
25.4
100
AcDbLine
 10
212.6367707985
 20
254.9853686222
 30
0.0
 11
212.8867707985
 21
255.2353686222
 31
0.0
  0
LINE
  5
AF
330
5C
100
AcDbEntity
  8
DV1_Default
  6
Continuous
 62
     7
 48
25.4
100
AcDbLine
 10
212.6367707985
 20
259.9853686222
 30
0.0
 11
212.6367707985
 21
254.9853686222
 31
0.0
  0
LINE
  5
B0
330
5C
100
AcDbEntity
  8
DV1_Default
  6
Continuous
 62
     7
 48
25.4
100
AcDbLine
 10
210.3867707985
 20
260.4853686222
 30
0.0
 11
210.3867707985
 21
257.4853686222
 31
0.0
  0
LINE
  5
B1
330
5C
100
AcDbEntity
  8
DV1_Default
  6
Continuous
 62
     7
 48
25.4
100
AcDbLine
 10
210.3867707985
 20
257.4853686222
 30
0.0
 11
210.3867707985
 21
258.9853686222
 31
0.0
  0
LINE
  5
B2
330
5C
100
AcDbEntity
  8
DV1_Default
  6
Continuous
 62
     7
 48
25.4
100
AcDbLine
 10
210.3867707985
 20
258.9853686222
 30
0.0
 11
202.8867707985
 21
258.9853686222
 31
0.0
  0
LINE
  5
B3
330
5C
100
AcDbEntity
  8
DV1_Default
  6
Continuous
 62
     7
 48
25.4
100
AcDbLine
 10
202.8867707985
 20
258.9853686222
 30
0.0
 11
202.8867707985
 21
255.9853686222
 31
0.0
  0
LINE
  5
B4
330
5C
100
AcDbEntity
  8
DV1_Default
  6
Continuous
 62
     7
 48
25.4
100
AcDbLine
 10
202.8867707985
 20
255.9853686222
 30
0.0
 11
210.3867707985
 21
255.9853686222
 31
0.0
  0
LINE
  5
B5
330
5C
100
AcDbEntity
  8
DV1_Default
  6
Continuous
 62
     7
 48
25.4
100
AcDbLine
 10
210.3867707985
 20
258.7767066976
 30
0.0
 11
202.8867707985
 21
258.7767066976
 31
0.0
  0
LINE
  5
B6
330
5C
100
AcDbEntity
  8
DV1_Default
  6
Continuous
 62
     7
 48
25.4
100
AcDbLine
 10
210.3867707985
 20
256.1716199256
 30
0.0
 11
202.8867707985
 21
256.1716199256
 31
0.0
  0
LINE
  5
B7
330
5C
100
AcDbEntity
  8
DV1_Default
  6
Continuous
 62
     7
 48
25.4
100
AcDbLine
 10
216.3867707985
 20
389.9103686222
 30
0.0
 11
248.3867707985
 21
389.9103686222
 31
0.0
  0
LINE
  5
B8
330
5C
100
AcDbEntity
  8
DV1_Default
  6
Continuous
 62
     7
 48
25.4
100
AcDbLine
 10
213.3867707985
 20
388.9103686222
 30
0.0
 11
215.3867707985
 21
388.9103686222
 31
0.0
  0
LINE
  5
B9
330
5C
100
AcDbEntity
  8
DV1_Default
  6
CENTER2
 62
     7
 48
25.4
100
AcDbLine
 10
204.1897025894
 20
349.9103686222
 30
0.0
 11
248.3867707985
 21
349.9103686222
 31
0.0
  0
LINE
  5
BA
330
5C
100
AcDbEntity
  8
DV1_Default
  6
Continuous
 62
     7
 48
25.4
100
AcDbLine
 10
219.3867707985
 20
307.4103686222
 30
0.0
 11
219.3867707985
 21
344.9103686222
 31
0.0
  0
LINE
  5
BB
330
5C
100
AcDbEntity
  8
DV1_Default
  6
Continuous
 62
     7
 48
25.4
100
AcDbLine
 10
215.3867707985
 20
307.9103686222
 30
0.0
 11
215.3867707985
 21
333.8353686222
 31
0.0
  0
LINE
  5
BC
330
5C
100
AcDbEntity
  8
DV1_Default
  6
Continuous
 62
     7
 48
25.4
100
AcDbLine
 10
215.3867707985
 20
388.9103686222
 30
0.0
 11
215.7403241891
 21
388.5568152316
 31
0.0
  0
LINE
  5
BD
330
5C
100
AcDbEntity
  8
DV1_Default
  6
Continuous
 62
     7
 48
25.4
100
AcDbLine
 10
216.0938775797
 20
334.5424754034
 30
0.0
 11
216.0938775797
 21
388.203261841
 31
0.0
  0
LINE
  5
BE
330
5C
100
AcDbEntity
  8
DV1_Default
  6
Continuous
 62
     7
 48
25.4
100
AcDbLine
 10
215.3867707985
 20
388.9103686222
 30
0.0
 11
216.0938775797
 21
388.203261841
 31
0.0
  0
LINE
  5
BF
330
5C
100
AcDbEntity
  8
DV1_Default
  6
Continuous
 62
     7
 48
25.4
100
AcDbLine
 10
215.3867707985
 20
388.9103686222
 30
0.0
 11
215.3867707985
 21
333.8353686222
 31
0.0
  0
LINE
  5
C0
330
5C
100
AcDbEntity
  8
DV1_Default
  6
Continuous
 62
     7
 48
25.4
100
AcDbLine
 10
215.3867707985
 20
388.9103686222
 30
0.0
 11
216.3867707985
 21
389.9103686222
 31
0.0
  0
LINE
  5
C1
330
5C
100
AcDbEntity
  8
DV1_Default
  6
Continuous
 62
     7
 48
25.4
100
AcDbLine
 10
216.0938775797
 20
334.5424754034
 30
0.0
 11
216.0938775797
 21
307.4103686222
 31
0.0
  0
LINE
  5
C2
330
5C
100
AcDbEntity
  8
DV1_Default
  6
Continuous
 62
     7
 48
25.4
100
AcDbLine
 10
216.0938775797
 20
381.7023879566
 30
0.0
 11
218.8438775797
 21
381.7023879566
 31
0.0
  0
LINE
  5
C3
330
5C
100
AcDbEntity
  8
DV1_Default
  6
Continuous
 62
     7
 48
25.4
100
AcDbLine
 10
218.8438775797
 20
381.7023879566
 30
0.0
 11
218.8438775797
 21
337.8237971715
 31
0.0
  0
LINE
  5
C4
330
5C
100
AcDbEntity
  8
DV1_Default
  6
Continuous
 62
     7
 48
25.4
100
AcDbLine
 10
218.8438775797
 20
337.8237971715
 30
0.0
 11
216.0938775797
 21
337.8237971715
 31
0.0
  0
LINE
  5
C5
330
5C
100
AcDbEntity
  8
DV1_Default
  6
Continuous
 62
     7
 48
25.4
100
AcDbLine
 10
248.3867707985
 20
378.9103686222
 30
0.0
 11
230.3867707985
 21
378.9103686222
 31
0.0
  0
LINE
  5
C6
330
5C
100
AcDbEntity
  8
DV1_Default
  6
Continuous
 62
     7
 48
25.4
100
AcDbLine
 10
230.3867707985
 20
378.9103686222
 30
0.0
 11
230.3867707985
 21
363.9103686222
 31
0.0
  0
LINE
  5
C7
330
5C
100
AcDbEntity
  8
DV1_Default
  6
Continuous
 62
     7
 48
25.4
100
AcDbLine
 10
230.3867707985
 20
363.9103686222
 30
0.0
 11
248.3867707985
 21
363.9103686222
 31
0.0
  0
LINE
  5
C8
330
5C
100
AcDbEntity
  8
DV1_Default
  6
Continuous
 62
     7
 48
25.4
100
AcDbLine
 10
230.3867707985
 20
376.4103686222
 30
0.0
 11
219.3867707985
 21
376.4103686222
 31
0.0
  0
LINE
  5
C9
330
5C
100
AcDbEntity
  8
DV1_Default
  6
Continuous
 62
     7
 48
25.4
100
AcDbLine
 10
230.3867707985
 20
366.4103686222
 30
0.0
 11
219.3867707985
 21
366.4103686222
 31
0.0
  0
LINE
  5
CA
330
5C
100
AcDbEntity
  8
DV1_Default
  6
Continuous
 62
     7
 48
25.4
100
AcDbLine
 10
219.3867707985
 20
375.9103686222
 30
0.0
 11
220.3867707985
 21
375.9103686222
 31
0.0
  0
LINE
  5
CB
330
5C
100
AcDbEntity
  8
DV1_Default
  6
Continuous
 62
     7
 48
25.4
100
AcDbLine
 10
220.3867707985
 20
366.9103686222
 30
0.0
 11
219.3867707985
 21
366.9103686222
 31
0.0
  0
LINE
  5
CC
330
5C
100
AcDbEntity
  8
DV1_Default
  6
Continuous
 62
     7
 48
25.4
100
AcDbLine
 10
220.3867707985
 20
375.9103686222
 30
0.0
 11
220.3867707985
 21
366.9103686222
 31
0.0
  0
LINE
  5
CD
330
5C
100
AcDbEntity
  8
DV1_Default
  6
CENTER2
 62
     7
 48
25.4
100
AcDbLine
 10
248.3867707985
 20
371.4103686222
 30
0.0
 11
204.6687376371
 21
371.4103686222
 31
0.0
  0
LINE
  5
CE
330
5C
100
AcDbEntity
  8
DV1_Default
  6
Continuous
 62
     7
 48
25.4
100
AcDbLine
 10
230.3867707985
 20
378.4103686222
 30
0.0
 11
239.8867707985
 21
378.4103686222
 31
0.0
  0
LINE
  5
CF
330
5C
100
AcDbEntity
  8
DV1_Default
  6
Continuous
 62
     7
 48
25.4
100
AcDbLine
 10
240.3867707985
 20
377.9103686222
 30
0.0
 11
240.3867707985
 21
364.9103686222
 31
0.0
  0
LINE
  5
D0
330
5C
100
AcDbEntity
  8
DV1_Default
  6
Continuous
 62
     7
 48
25.4
100
AcDbLine
 10
239.8867707985
 20
364.4103686222
 30
0.0
 11
230.3867707985
 21
364.4103686222
 31
0.0
  0
LINE
  5
D1
330
5C
100
AcDbEntity
  8
DV1_Default
  6
Continuous
 62
     7
 48
25.4
100
AcDbLine
 10
239.8867707985
 20
378.4103686222
 30
0.0
 11
240.3867707985
 21
377.9103686222
 31
0.0
  0
LINE
  5
D2
330
5C
100
AcDbEntity
  8
DV1_Default
  6
Continuous
 62
     7
 48
25.4
100
AcDbLine
 10
239.8867707985
 20
364.4103686222
 30
0.0
 11
240.3867707985
 21
364.9103686222
 31
0.0
  0
LINE
  5
D3
330
5C
100
AcDbEntity
  8
DV1_Default
  6
Continuous
 62
     7
 48
25.4
100
AcDbLine
 10
239.8867707985
 20
378.4103686222
 30
0.0
 11
239.8867707985
 21
364.4103686222
 31
0.0
  0
LINE
  5
D4
330
5C
100
AcDbEntity
  8
DV1_Default
  6
Continuous
 62
     7
 48
25.4
100
AcDbLine
 10
219.3867707985
 20
376.4103686222
 30
0.0
 11
219.3867707985
 21
389.9103686222
 31
0.0
  0
LINE
  5
D5
330
5C
100
AcDbEntity
  8
DV1_Default
  6
Continuous
 62
     7
 48
25.4
100
AcDbLine
 10
219.3867707985
 20
376.9103686222
 30
0.0
 11
230.3867707985
 21
376.9103686222
 31
0.0
  0
LINE
  5
D6
330
5C
100
AcDbEntity
  8
DV1_Default
  6
Continuous
 62
     7
 48
25.4
100
AcDbLine
 10
219.3867707985
 20
375.9103686222
 30
0.0
 11
218.8438775797
 21
375.9103686222
 31
0.0
  0
LINE
  5
D7
330
5C
100
AcDbEntity
  8
DV1_Default
  6
Continuous
 62
     7
 48
25.4
100
AcDbLine
 10
219.3867707985
 20
366.9103686222
 30
0.0
 11
218.8438775797
 21
366.9103686222
 31
0.0
  0
LINE
  5
D8
330
5C
100
AcDbEntity
  8
DV1_Default
  6
Continuous
 62
     7
 48
25.4
100
AcDbLine
 10
219.3867707985
 20
365.9103686222
 30
0.0
 11
230.3867707985
 21
365.9103686222
 31
0.0
  0
LINE
  5
D9
330
5C
100
AcDbEntity
  8
DV1_Default
  6
Continuous
 62
     7
 48
25.4
100
AcDbLine
 10
248.3867707985
 20
342.4103686222
 30
0.0
 11
230.3867707985
 21
342.4103686222
 31
0.0
  0
LINE
  5
DA
330
5C
100
AcDbEntity
  8
DV1_Default
  6
Continuous
 62
     7
 48
25.4
100
AcDbLine
 10
230.3867707985
 20
342.4103686222
 30
0.0
 11
230.3867707985
 21
357.4103686222
 31
0.0
  0
LINE
  5
DB
330
5C
100
AcDbEntity
  8
DV1_Default
  6
Continuous
 62
     7
 48
25.4
100
AcDbLine
 10
230.3867707985
 20
357.4103686222
 30
0.0
 11
248.3867707985
 21
357.4103686222
 31
0.0
  0
LINE
  5
DC
330
5C
100
AcDbEntity
  8
DV1_Default
  6
Continuous
 62
     7
 48
25.4
100
AcDbLine
 10
230.3867707985
 20
344.9103686222
 30
0.0
 11
219.3867707985
 21
344.9103686222
 31
0.0
  0
LINE
  5
DD
330
5C
100
AcDbEntity
  8
DV1_Default
  6
Continuous
 62
     7
 48
25.4
100
AcDbLine
 10
230.3867707985
 20
354.9103686222
 30
0.0
 11
219.3867707985
 21
354.9103686222
 31
0.0
  0
LINE
  5
DE
330
5C
100
AcDbEntity
  8
DV1_Default
  6
Continuous
 62
     7
 48
25.4
100
AcDbLine
 10
219.3867707985
 20
345.4103686222
 30
0.0
 11
220.3867707985
 21
345.4103686222
 31
0.0
  0
LINE
  5
DF
330
5C
100
AcDbEntity
  8
DV1_Default
  6
Continuous
 62
     7
 48
25.4
100
AcDbLine
 10
220.3867707985
 20
354.4103686222
 30
0.0
 11
219.3867707985
 21
354.4103686222
 31
0.0
  0
LINE
  5
E0
330
5C
100
AcDbEntity
  8
DV1_Default
  6
Continuous
 62
     7
 48
25.4
100
AcDbLine
 10
220.3867707985
 20
345.4103686222
 30
0.0
 11
220.3867707985
 21
354.4103686222
 31
0.0
  0
LINE
  5
E1
330
5C
100
AcDbEntity
  8
DV1_Default
  6
Continuous
 62
     7
 48
25.4
100
AcDbLine
 10
230.3867707985
 20
349.9103686222
 30
0.0
 11
230.3867707985
 21
342.9103686222
 31
0.0
  0
LINE
  5
E2
330
5C
100
AcDbEntity
  8
DV1_Default
  6
Continuous
 62
     7
 48
25.4
100
AcDbLine
 10
230.3867707985
 20
342.9103686222
 30
0.0
 11
239.8867707985
 21
342.9103686222
 31
0.0
  0
LINE
  5
E3
330
5C
100
AcDbEntity
  8
DV1_Default
  6
Continuous
 62
     7
 48
25.4
100
AcDbLine
 10
240.3867707985
 20
343.4103686222
 30
0.0
 11
240.3867707985
 21
356.4103686222
 31
0.0
  0
LINE
  5
E4
330
5C
100
AcDbEntity
  8
DV1_Default
  6
Continuous
 62
     7
 48
25.4
100
AcDbLine
 10
239.8867707985
 20
356.9103686222
 30
0.0
 11
230.3867707985
 21
356.9103686222
 31
0.0
  0
LINE
  5
E5
330
5C
100
AcDbEntity
  8
DV1_Default
  6
Continuous
 62
     7
 48
25.4
100
AcDbLine
 10
239.8867707985
 20
342.9103686222
 30
0.0
 11
240.3867707985
 21
343.4103686222
 31
0.0
  0
LINE
  5
E6
330
5C
100
AcDbEntity
  8
DV1_Default
  6
Continuous
 62
     7
 48
25.4
100
AcDbLine
 10
239.8867707985
 20
356.9103686222
 30
0.0
 11
240.3867707985
 21
356.4103686222
 31
0.0
  0
LINE
  5
E7
330
5C
100
AcDbEntity
  8
DV1_Default
  6
Continuous
 62
     7
 48
25.4
100
AcDbLine
 10
239.8867707985
 20
342.9103686222
 30
0.0
 11
239.8867707985
 21
356.9103686222
 31
0.0
  0
LINE
  5
E8
330
5C
100
AcDbEntity
  8
DV1_Default
  6
Continuous
 62
     7
 48
25.4
100
AcDbLine
 10
219.3867707985
 20
344.4103686222
 30
0.0
 11
230.3867707985
 21
344.4103686222
 31
0.0
  0
LINE
  5
E9
330
5C
100
AcDbEntity
  8
DV1_Default
  6
Continuous
 62
     7
 48
25.4
100
AcDbLine
 10
219.3867707985
 20
345.4103686222
 30
0.0
 11
218.8438775797
 21
345.4103686222
 31
0.0
  0
LINE
  5
EA
330
5C
100
AcDbEntity
  8
DV1_Default
  6
Continuous
 62
     7
 48
25.4
100
AcDbLine
 10
219.3867707985
 20
354.4103686222
 30
0.0
 11
218.8438775797
 21
354.4103686222
 31
0.0
  0
LINE
  5
EB
330
5C
100
AcDbEntity
  8
DV1_Default
  6
Continuous
 62
     7
 48
25.4
100
AcDbLine
 10
219.3867707985
 20
355.4103686222
 30
0.0
 11
230.3867707985
 21
355.4103686222
 31
0.0
  0
LINE
  5
EC
330
5C
100
AcDbEntity
  8
DV1_Default
  6
Continuous
 62
     7
 48
25.4
100
AcDbLine
 10
219.3867707985
 20
354.9103686222
 30
0.0
 11
219.3867707985
 21
366.4103686222
 31
0.0
  0
LINE
  5
EE
330
5C
100
AcDbEntity
  8
DV1_Default
  6
HIDDEN2
 62
     7
 48
25.4
100
AcDbLine
 10
213.3867707985
 20
388.9103686222
 30
0.0
 11
213.3867707985
 21
333.8353686222
 31
0.0
  0
LINE
  5
EF
330
5C
100
AcDbEntity
  8
DV1_Default
  6
Continuous
 62
     7
 48
25.4
100
AcDbLine
 10
208.3867707985
 20
324.5353686222
 30
0.0
 11
208.3867707985
 21
334.6603686222
 31
0.0
  0
LINE
  5
F0
330
5C
100
AcDbEntity
  8
DV1_Default
  6
Continuous
 62
     7
 48
25.4
100
AcDbLine
 10
208.3867707985
 20
334.6603686222
 30
0.0
 11
215.3867707985
 21
334.6603686222
 31
0.0
  0
LINE
  5
F1
330
5C
100
AcDbEntity
  8
DV1_Default
  6
Continuous
 62
     7
 48
25.4
100
AcDbLine
 10
215.3867707985
 20
334.6603686222
 30
0.0
 11
216.0938775797
 21
335.3674754034
 31
0.0
  0
LINE
  5
F2
330
5C
100
AcDbEntity
  8
DV1_Default
  6
Continuous
 62
     7
 48
25.4
100
AcDbLine
 10
149.8867707985
 20
229.1603686222
 30
0.0
 11
199.8867707985
 21
229.1603686222
 31
0.0
  0
LINE
  5
F3
330
5C
100
AcDbEntity
  8
DV1_Default
  6
Continuous
 62
     7
 48
25.4
100
AcDbLine
 10
133.3867707985
 20
328.5901186222
 30
0.0
 11
146.9091323435
 21
326.9297813975
 31
0.0
  0
LINE
  5
F4
330
5C
100
AcDbEntity
  8
DV1_Default
  6
Continuous
 62
     7
 48
25.4
100
AcDbLine
 10
146.9091323435
 20
326.9297813975
 30
0.0
 11
146.9091323435
 21
260.3909558469
 31
0.0
  0
LINE
  5
F5
330
5C
100
AcDbEntity
  8
DV1_Default
  6
Continuous
 62
     7
 48
25.4
100
AcDbLine
 10
146.9091323435
 20
326.9297813975
 30
0.0
 11
149.8867707985
 21
326.9297813975
 31
0.0
  0
LINE
  5
F6
330
5C
100
AcDbEntity
  8
DV1_Default
  6
Continuous
 62
     7
 48
25.4
100
AcDbLine
 10
133.3867707985
 20
258.7306186222
 30
0.0
 11
146.9091323435
 21
260.3909558469
 31
0.0
  0
LINE
  5
F7
330
5C
100
AcDbEntity
  8
DV1_Default
  6
Continuous
 62
     7
 48
25.4
100
AcDbLine
 10
146.9091323435
 20
260.3909558469
 30
0.0
 11
149.8867707985
 21
260.3909558469
 31
0.0
  0
LINE
  5
F8
330
5C
100
AcDbEntity
  8
DV1_Default
  6
Continuous
 62
     7
 48
25.4
100
AcDbLine
 10
133.3867707985
 20
293.6603686222
 30
0.0
 11
133.3867707985
 21
368.6603686222
 31
0.0
  0
LINE
  5
F9
330
5C
100
AcDbEntity
  8
DV1_Default
  6
Continuous
 62
     7
 48
25.4
100
AcDbLine
 10
248.3867707985
 20
389.9103686222
 30
0.0
 11
248.3867707985
 21
307.4103686222
 31
0.0
  0
LINE
  5
FA
330
5C
100
AcDbEntity
  8
DV1_Default
  6
Continuous
 62
     7
 48
25.4
100
AcDbLine
 10
215.8867707985
 20
307.4103686222
 30
0.0
 11
215.3867707985
 21
307.9103686222
 31
0.0
  0
LINE
  5
FB
330
5C
100
AcDbEntity
  8
DV1_Default
  6
Continuous
 62
     7
 48
25.4
100
AcDbLine
 10
215.8867707985
 20
307.4103686222
 30
0.0
 11
248.3867707985
 21
307.4103686222
 31
0.0
  0
LINE
  5
FC
330
5C
100
AcDbEntity
  8
DV1_Default
  6
Continuous
 62
     7
 48
25.4
100
AcDbLine
 10
134.8867707985
 20
239.6603686222
 30
0.0
 11
134.8867707985
 21
230.1603686222
 31
0.0
  0
LINE
  5
FD
330
5C
100
AcDbEntity
  8
DV1_Default
  6
Continuous
 62
     7
 48
25.4
100
AcDbLine
 10
133.3867707985
 20
293.6603686222
 30
0.0
 11
133.3867707985
 21
218.6603686222
 31
0.0
  0
LINE
  5
FE
330
5C
100
AcDbEntity
  8
DV1_Default
  6
Continuous
 62
     7
 48
25.4
100
AcDbLine
 10
134.8867707985
 20
230.1603686222
 30
0.0
 11
135.3867707985
 21
229.6603686222
 31
0.0
  0
LINE
  5
FF
330
5C
100
AcDbEntity
  8
DV1_Default
  6
Continuous
 62
     7
 48
25.4
100
AcDbLine
 10
135.3867707985
 20
240.1603686222
 30
0.0
 11
134.8867707985
 21
239.6603686222
 31
0.0
  0
LINE
  5
100
330
5C
100
AcDbEntity
  8
DV1_Default
  6
Continuous
 62
     7
 48
25.4
100
AcDbLine
 10
135.3867707985
 20
240.1603686222
 30
0.0
 11
199.8867707985
 21
240.1603686222
 31
0.0
  0
LINE
  5
101
330
5C
100
AcDbEntity
  8
DV1_Default
  6
Continuous
 62
     7
 48
25.4
100
AcDbLine
 10
135.3867707985
 20
240.1603686222
 30
0.0
 11
135.3867707985
 21
229.6603686222
 31
0.0
  0
LINE
  5
102
330
5C
100
AcDbEntity
  8
DV1_Default
  6
Continuous
 62
     7
 48
25.4
100
AcDbLine
 10
142.3867707985
 20
257.3103686222
 30
0.0
 11
149.8867707985
 21
257.3103686222
 31
0.0
  0
LINE
  5
103
330
5C
100
AcDbEntity
  8
DV1_Default
  6
Continuous
 62
     7
 48
25.4
100
AcDbLine
 10
149.8867707985
 20
257.3103686222
 30
0.0
 11
149.8867707985
 21
250.8103686222
 31
0.0
  0
LINE
  5
104
330
5C
100
AcDbEntity
  8
DV1_Default
  6
Continuous
 62
     7
 48
25.4
100
AcDbLine
 10
149.8867707985
 20
244.3103686222
 30
0.0
 11
140.8867707985
 21
244.3103686222
 31
0.0
  0
LINE
  5
105
330
5C
100
AcDbEntity
  8
DV1_Default
  6
Continuous
 62
     7
 48
25.4
100
AcDbLine
 10
140.8867707985
 20
244.3103686222
 30
0.0
 11
140.8867707985
 21
257.3103686222
 31
0.0
  0
LINE
  5
106
330
5C
100
AcDbEntity
  8
DV1_Default
  6
Continuous
 62
     7
 48
25.4
100
AcDbLine
 10
140.8867707985
 20
257.3103686222
 30
0.0
 11
149.8867707985
 21
257.3103686222
 31
0.0
  0
LINE
  5
107
330
5C
100
AcDbEntity
  8
DV1_Default
  6
Continuous
 62
     7
 48
25.4
100
AcDbLine
 10
140.8867707985
 20
244.8103686222
 30
0.0
 11
148.3867707985
 21
244.8103686222
 31
0.0
  0
LINE
  5
108
330
5C
100
AcDbEntity
  8
DV1_Default
  6
Continuous
 62
     7
 48
25.4
100
AcDbLine
 10
148.8867707985
 20
245.3103686222
 30
0.0
 11
148.8867707985
 21
256.3103686222
 31
0.0
  0
LINE
  5
109
330
5C
100
AcDbEntity
  8
DV1_Default
  6
Continuous
 62
     7
 48
25.4
100
AcDbLine
 10
148.3867707985
 20
256.8103686222
 30
0.0
 11
140.8867707985
 21
256.8103686222
 31
0.0
  0
LINE
  5
10A
330
5C
100
AcDbEntity
  8
DV1_Default
  6
Continuous
 62
     7
 48
25.4
100
AcDbLine
 10
148.3867707985
 20
244.8103686222
 30
0.0
 11
148.8867707985
 21
245.3103686222
 31
0.0
  0
LINE
  5
10B
330
5C
100
AcDbEntity
  8
DV1_Default
  6
Continuous
 62
     7
 48
25.4
100
AcDbLine
 10
148.3867707985
 20
256.8103686222
 30
0.0
 11
148.8867707985
 21
256.3103686222
 31
0.0
  0
LINE
  5
10C
330
5C
100
AcDbEntity
  8
DV1_Default
  6
Continuous
 62
     7
 48
25.4
100
AcDbLine
 10
148.3867707985
 20
256.8103686222
 30
0.0
 11
148.3867707985
 21
244.8103686222
 31
0.0
  0
LINE
  5
10D
330
5C
100
AcDbEntity
  8
DV1_Default
  6
Continuous
 62
     7
 48
25.4
100
AcDbLine
 10
140.8867707985
 20
254.8103686222
 30
0.0
 11
121.8867707985
 21
254.8103686222
 31
0.0
  0
LINE
  5
10E
330
5C
100
AcDbEntity
  8
DV1_Default
  6
Continuous
 62
     7
 48
25.4
100
AcDbLine
 10
121.8867707985
 20
246.8103686222
 30
0.0
 11
140.8867707985
 21
246.8103686222
 31
0.0
  0
LINE
  5
10F
330
5C
100
AcDbEntity
  8
DV1_Default
  6
Continuous
 62
     7
 48
25.4
100
AcDbLine
 10
140.8867707985
 20
254.3103686222
 30
0.0
 11
121.3867707985
 21
254.3103686222
 31
0.0
  0
LINE
  5
110
330
5C
100
AcDbEntity
  8
DV1_Default
  6
Continuous
 62
     7
 48
25.4
100
AcDbLine
 10
121.3867707985
 20
247.3103686222
 30
0.0
 11
140.8867707985
 21
247.3103686222
 31
0.0
  0
LINE
  5
111
330
5C
100
AcDbEntity
  8
DV1_Default
  6
Continuous
 62
     7
 48
25.4
100
AcDbLine
 10
149.8867707985
 20
248.501249897
 30
0.0
 11
185.565053609
 21
248.501249897
 31
0.0
  0
LINE
  5
112
330
5C
100
AcDbEntity
  8
DV1_Default
  6
Continuous
 62
     7
 48
25.4
100
AcDbLine
 10
121.3867707985
 20
247.3103686222
 30
0.0
 11
121.3867707985
 21
254.3103686222
 31
0.0
  0
LINE
  5
113
330
5C
100
AcDbEntity
  8
DV1_Default
  6
Continuous
 62
     7
 48
25.4
100
AcDbLine
 10
121.3867707985
 20
247.3103686222
 30
0.0
 11
121.8867707985
 21
246.8103686222
 31
0.0
  0
LINE
  5
114
330
5C
100
AcDbEntity
  8
DV1_Default
  6
Continuous
 62
     7
 48
25.4
100
AcDbLine
 10
121.8867707985
 20
254.8103686222
 30
0.0
 11
121.3867707985
 21
254.3103686222
 31
0.0
  0
LINE
  5
115
330
5C
100
AcDbEntity
  8
DV1_Default
  6
Continuous
 62
     7
 48
25.4
100
AcDbLine
 10
121.8867707985
 20
254.8103686222
 30
0.0
 11
121.8867707985
 21
246.8103686222
 31
0.0
  0
LINE
  5
116
330
5C
100
AcDbEntity
  8
DV1_Default
  6
Continuous
 62
     7
 48
25.4
100
AcDbLine
 10
178.8867707985
 20
327.2844421291
 30
0.0
 11
175.8867707985
 21
327.2844421291
 31
0.0
  0
LINE
  5
117
330
5C
100
AcDbEntity
  8
DV1_Default
  6
Continuous
 62
     7
 48
25.4
100
AcDbLine
 10
175.8867707985
 20
327.2844421291
 30
0.0
 11
175.8867707985
 21
329.7844421291
 31
0.0
  0
LINE
  5
118
330
5C
100
AcDbEntity
  8
DV1_Default
  6
Continuous
 62
     7
 48
25.4
100
AcDbLine
 10
175.8867707985
 20
329.7844421291
 30
0.0
 11
171.8867707985
 21
329.7844421291
 31
0.0
  0
LINE
  5
119
330
5C
100
AcDbEntity
  8
DV1_Default
  6
Continuous
 62
     7
 48
25.4
100
AcDbLine
 10
171.8867707985
 20
328.4103686222
 30
0.0
 11
171.8867707985
 21
329.7844421291
 31
0.0
  0
LINE
  5
11A
330
5C
100
AcDbEntity
  8
DV1_Default
  6
Continuous
 62
     7
 48
25.4
100
AcDbLine
 10
176.8867707985
 20
326.1603686222
 30
0.0
 11
176.8867707985
 21
325.1603686222
 31
0.0
  0
LINE
  5
11B
330
5C
100
AcDbEntity
  8
DV1_Default
  6
Continuous
 62
     7
 48
25.4
100
AcDbLine
 10
176.8867707985
 20
326.1603686222
 30
0.0
 11
173.8867707985
 21
326.1603686222
 31
0.0
  0
LINE
  5
11C
330
5C
100
AcDbEntity
  8
DV1_Default
  6
Continuous
 62
     7
 48
25.4
100
AcDbLine
 10
178.8867707985
 20
327.2844421291
 30
0.0
 11
179.3867707985
 21
327.2844421291
 31
0.0
  0
LINE
  5
11D
330
5C
100
AcDbEntity
  8
DV1_Default
  6
Continuous
 62
     7
 48
25.4
100
AcDbLine
 10
179.3867707985
 20
327.2844421291
 30
0.0
 11
179.3867707985
 21
324.0353686222
 31
0.0
  0
LINE
  5
11E
330
5C
100
AcDbEntity
  8
DV1_Default
  6
Continuous
 62
     7
 48
25.4
100
AcDbLine
 10
179.3867707985
 20
324.0353686222
 30
0.0
 11
180.3867707985
 21
323.0353686222
 31
0.0
  0
LINE
  5
11F
330
5C
100
AcDbEntity
  8
DV1_Default
  6
Continuous
 62
     7
 48
25.4
100
AcDbLine
 10
162.4698093422
 20
328.4103686222
 30
0.0
 11
162.4698093422
 21
338.8194873474
 31
0.0
  0
LINE
  5
120
330
5C
100
AcDbEntity
  8
DV1_Default
  6
Continuous
 62
     7
 48
25.4
100
AcDbLine
 10
146.9091323435
 20
326.9297813975
 30
0.0
 11
149.8867707985
 21
326.9297813975
 31
0.0
  0
LINE
  5
121
330
5C
100
AcDbEntity
  8
DV1_Default
  6
Continuous
 62
     7
 48
25.4
100
AcDbLine
 10
149.8867707985
 20
330.0103686222
 30
0.0
 11
149.8867707985
 21
336.5103686222
 31
0.0
  0
LINE
  5
122
330
5C
100
AcDbEntity
  8
DV1_Default
  6
Continuous
 62
     7
 48
25.4
100
AcDbLine
 10
149.8867707985
 20
338.8194873474
 30
0.0
 11
185.565053609
 21
338.8194873474
 31
0.0
  0
LINE
  5
123
330
5C
100
AcDbEntity
  8
DV1_Default
  6
CENTER2
 62
     7
 48
25.4
100
AcDbLine
 10
152.5774013726
 20
250.8103686222
 30
0.0
 11
113.5773385673
 21
250.8103686222
 31
0.0
  0
LINE
  5
124
330
5C
100
AcDbEntity
  8
DV1_Default
  6
Continuous
 62
     7
 48
25.4
100
AcDbLine
 10
156.3867707985
 20
258.9103686222
 30
0.0
 11
171.8867707985
 21
258.9103686222
 31
0.0
  0
LINE
  5
125
330
5C
100
AcDbEntity
  8
DV1_Default
  6
Continuous
 62
     7
 48
25.4
100
AcDbLine
 10
156.3867707985
 20
328.4103686222
 30
0.0
 11
171.8867707985
 21
328.4103686222
 31
0.0
  0
LINE
  5
126
330
5C
100
AcDbEntity
  8
DV1_Default
  6
Continuous
 62
     7
 48
25.4
100
AcDbLine
 10
173.8867707985
 20
326.1603686222
 30
0.0
 11
155.3867707985
 21
326.1603686222
 31
0.0
  0
LINE
  5
127
330
5C
100
AcDbEntity
  8
DV1_Default
  6
Continuous
 62
     7
 48
25.4
100
AcDbLine
 10
155.3867707985
 20
325.1603686222
 30
0.0
 11
173.8867707985
 21
325.1603686222
 31
0.0
  0
LINE
  5
128
330
5C
100
AcDbEntity
  8
DV1_Default
  6
Continuous
 62
     7
 48
25.4
100
AcDbLine
 10
155.3867707985
 20
259.9103686222
 30
0.0
 11
155.3867707985
 21
327.4103686222
 31
0.0
  0
LINE
  5
129
330
5C
100
AcDbEntity
  8
DV1_Default
  6
Continuous
 62
     7
 48
25.4
100
AcDbLine
 10
155.3867707985
 20
259.9103686222
 30
0.0
 11
156.3867707985
 21
258.9103686222
 31
0.0
  0
LINE
  5
12A
330
5C
100
AcDbEntity
  8
DV1_Default
  6
Continuous
 62
     7
 48
25.4
100
AcDbLine
 10
155.3867707985
 20
327.4103686222
 30
0.0
 11
156.3867707985
 21
328.4103686222
 31
0.0
  0
LINE
  5
12B
330
5C
100
AcDbEntity
  8
DV1_Default
  6
Continuous
 62
     7
 48
25.4
100
AcDbLine
 10
155.3867707985
 20
308.6603686222
 30
0.0
 11
173.8867707985
 21
308.6603686222
 31
0.0
  0
LINE
  5
12C
330
5C
100
AcDbEntity
  8
DV1_Default
  6
Continuous
 62
     7
 48
25.4
100
AcDbLine
 10
155.3867707985
 20
278.6603686222
 30
0.0
 11
173.8867707985
 21
278.6603686222
 31
0.0
  0
LINE
  5
12D
330
5C
100
AcDbEntity
  8
DV1_Default
  6
Continuous
 62
     7
 48
25.4
100
AcDbLine
 10
155.3867707985
 20
262.1603686222
 30
0.0
 11
173.8867707985
 21
262.1603686222
 31
0.0
  0
ENDBLK
  5
12F
330
5C
100
AcDbEntity
  8
0
100
AcDbBlockEnd
  0
BLOCK
  5
21A
330
130
100
AcDbEntity
  8
0
100
AcDbBlockBegin
  2
SE1
 70
     0
 71
     0
 10
0.0
 20
0.0
 30
0.0
  3
SE1
  1

  0
LINE
  5
133
330
130
100
AcDbEntity
  8
DV2_Default
  6
CENTER2
 62
     7
 48
25.4
100
AcDbLine
 10
329.0940057603
 20
291.9416635387
 30
0.0
 11
538.447798854
 21
291.9416635387
 31
0.0
  0
LINE
  5
134
330
130
100
AcDbEntity
  8
DV2_Default
  6
CENTER2
 62
     7
 48
25.4
100
AcDbLine
 10
434.9573763507
 20
398.682087255
 30
0.0
 11
434.9573763507
 21
182.9381347792
 31
0.0
  0
LINE
  5
135
330
130
100
AcDbEntity
  8
DV2_Default
  6
CENTER2
 62
     7
 48
25.4
100
AcDbLine
 10
434.9573763507
 20
291.9416635387
 30
0.0
 11
530.2328329181
 21
236.9343530424
 31
0.0
  0
LINE
  5
136
330
130
100
AcDbEntity
  8
DV2_Default
  6
CENTER2
 62
     7
 48
25.4
100
AcDbLine
 10
434.9573763507
 20
291.9416635387
 30
0.0
 11
340.8344872769
 21
237.5997881951
 31
0.0
  0
LINE
  5
137
330
130
100
AcDbEntity
  8
DV2_Default
  6
CENTER2
 62
     7
 48
25.4
100
AcDbLine
 10
483.9781120349
 20
305.0767300777
 30
0.0
 11
499.4329252555
 21
309.2178347993
 31
0.0
  0
LINE
  5
138
330
130
100
AcDbEntity
  8
DV2_Default
  6
CENTER2
 62
     7
 48
25.4
100
AcDbLine
 10
470.8430454959
 20
327.8273326839
 30
0.0
 11
482.1567539949
 21
339.1410411829
 31
0.0
  0
CIRCLE
  5
139
330
130
100
AcDbEntity
  8
DV2_Default
  6
Continuous
 62
     7
 48
25.4
100
AcDbCircle
 10
491.7055186452
 20
307.1472824385
 30
0.0
 40
8.0
  0
CIRCLE
  5
13A
330
130
100
AcDbEntity
  8
DV2_Default
  6
Continuous
 62
     7
 48
25.4
100
AcDbCircle
 10
491.7055186452
 20
307.1472824385
 30
0.0
 40
5.249999999999999
  0
CIRCLE
  5
13B
330
130
100
AcDbEntity
  8
DV2_Default
  6
Continuous
 62
     7
 48
25.4
100
AcDbCircle
 10
476.4998997454
 20
333.4841869334
 30
0.0
 40
8.0
  0
CIRCLE
  5
13C
330
130
100
AcDbEntity
  8
DV2_Default
  6
Continuous
 62
     7
 48
25.4
100
AcDbCircle
 10
476.4998997454
 20
333.4841869334
 30
0.0
 40
5.249999999999999
  0
ARC
  5
13D
330
130
100
AcDbEntity
  8
DV2_Default
  6
CENTER2
 62
     7
 48
25.4
100
AcDbCircle
 10
434.9573763507
 20
291.9416635387
 30
0.0
 40
58.75000000000001
100
AcDbArc
 50
7.1919811195
 51
52.8080188805
  0
LINE
  5
13E
330
130
100
AcDbEntity
  8
DV2_Default
  6
CENTER2
 62
     7
 48
25.4
100
AcDbLine
 10
470.8430454959
 20
327.8273326839
 30
0.0
 11
482.1567539949
 21
339.1410411829
 31
0.0
  0
CIRCLE
  5
13F
330
130
100
AcDbEntity
  8
DV2_Default
  6
Continuous
 62
     7
 48
25.4
100
AcDbCircle
 10
469.2718913296
 20
301.136210116
 30
0.0
 40
3.75
  0
CIRCLE
  5
140
330
130
100
AcDbEntity
  8
DV2_Default
  6
Continuous
 62
     7
 48
25.4
100
AcDbCircle
 10
469.2718913296
 20
301.136210116
 30
0.0
 40
3.5
  0
LINE
  5
141
330
130
100
AcDbEntity
  8
DV2_Default
  6
Continuous
 62
     7
 48
25.4
100
AcDbLine
 10
467.4607804053
 20
300.6509244064
 30
0.0
 11
468.7866056201
 21
299.3250991917
 31
0.0
  0
LINE
  5
142
330
130
100
AcDbEntity
  8
DV2_Default
  6
Continuous
 62
     7
 48
25.4
100
AcDbLine
 10
468.7866056201
 20
299.3250991917
 30
0.0
 11
470.5977165444
 21
299.8103849013
 31
0.0
  0
LINE
  5
143
330
130
100
AcDbEntity
  8
DV2_Default
  6
Continuous
 62
     7
 48
25.4
100
AcDbLine
 10
470.5977165444
 20
299.8103849013
 30
0.0
 11
471.0830022539
 21
301.6214958256
 31
0.0
  0
LINE
  5
144
330
130
100
AcDbEntity
  8
DV2_Default
  6
Continuous
 62
     7
 48
25.4
100
AcDbLine
 10
471.0830022539
 20
301.6214958256
 30
0.0
 11
469.7571770392
 21
302.9473210403
 31
0.0
  0
LINE
  5
145
330
130
100
AcDbEntity
  8
DV2_Default
  6
Continuous
 62
     7
 48
25.4
100
AcDbLine
 10
469.7571770392
 20
302.9473210403
 30
0.0
 11
467.9460661149
 21
302.4620353307
 31
0.0
  0
LINE
  5
146
330
130
100
AcDbEntity
  8
DV2_Default
  6
Continuous
 62
     7
 48
25.4
100
AcDbLine
 10
467.9460661149
 20
302.4620353307
 30
0.0
 11
467.4607804053
 21
300.6509244064
 31
0.0
  0
CIRCLE
  5
147
330
130
100
AcDbEntity
  8
DV2_Default
  6
Continuous
 62
     7
 48
25.4
100
AcDbCircle
 10
460.0773447524
 20
317.0616319404
 30
0.0
 40
3.75
  0
CIRCLE
  5
148
330
130
100
AcDbEntity
  8
DV2_Default
  6
Continuous
 62
     7
 48
25.4
100
AcDbCircle
 10
460.0773447524
 20
317.0616319404
 30
0.0
 40
3.5
  0
LINE
  5
149
330
130
100
AcDbEntity
  8
DV2_Default
  6
Continuous
 62
     7
 48
25.4
100
AcDbLine
 10
458.7515195376
 20
315.7358067256
 30
0.0
 11
460.5626304619
 21
315.2505210161
 31
0.0
  0
LINE
  5
14A
330
130
100
AcDbEntity
  8
DV2_Default
  6
Continuous
 62
     7
 48
25.4
100
AcDbLine
 10
460.5626304619
 20
315.2505210161
 30
0.0
 11
461.8884556767
 21
316.5763462308
 31
0.0
  0
LINE
  5
14B
330
130
100
AcDbEntity
  8
DV2_Default
  6
Continuous
 62
     7
 48
25.4
100
AcDbLine
 10
461.8884556767
 20
316.5763462308
 30
0.0
 11
461.4031699671
 21
318.3874571551
 31
0.0
  0
LINE
  5
14C
330
130
100
AcDbEntity
  8
DV2_Default
  6
Continuous
 62
     7
 48
25.4
100
AcDbLine
 10
461.4031699671
 20
318.3874571551
 30
0.0
 11
459.5920590428
 21
318.8727428647
 31
0.0
  0
LINE
  5
14D
330
130
100
AcDbEntity
  8
DV2_Default
  6
Continuous
 62
     7
 48
25.4
100
AcDbLine
 10
459.5920590428
 20
318.8727428647
 30
0.0
 11
458.2662338281
 21
317.5469176499
 31
0.0
  0
LINE
  5
14E
330
130
100
AcDbEntity
  8
DV2_Default
  6
Continuous
 62
     7
 48
25.4
100
AcDbLine
 10
458.2662338281
 20
317.5469176499
 30
0.0
 11
458.7515195376
 21
315.7358067256
 31
0.0
  0
CIRCLE
  5
14F
330
130
100
AcDbEntity
  8
DV2_Default
  6
HIDDEN2
 62
     7
 48
25.4
100
AcDbCircle
 10
477.8073763507
 20
291.9416635387
 30
0.0
 40
2.5
  0
CIRCLE
  5
150
330
130
100
AcDbEntity
  8
DV2_Default
  6
HIDDEN2
 62
     7
 48
25.4
100
AcDbCircle
 10
477.8073763507
 20
291.9416635387
 30
0.0
 40
2.25
  0
CIRCLE
  5
151
330
130
100
AcDbEntity
  8
DV2_Default
  6
HIDDEN2
 62
     7
 48
25.4
100
AcDbCircle
 10
456.3684916714
 20
329.0588649516
 30
0.0
 40
2.5
  0
CIRCLE
  5
152
330
130
100
AcDbEntity
  8
DV2_Default
  6
HIDDEN2
 62
     7
 48
25.4
100
AcDbCircle
 10
456.3684916714
 20
329.0588649516
 30
0.0
 40
2.25
  0
ARC
  5
153
330
130
100
AcDbEntity
  8
DV2_Default
  6
CENTER2
 62
     7
 48
25.4
100
AcDbCircle
 10
434.9573763507
 20
291.9416635387
 30
0.0
 40
42.85
100
AcDbArc
 50
356.6567147685
 51
3.3432852315
  0
LINE
  5
154
330
130
100
AcDbEntity
  8
DV2_Default
  6
CENTER2
 62
     7
 48
25.4
100
AcDbLine
 10
455.0448763507
 20
326.7342341358
 30
0.0
 11
457.6323491521
 21
331.2158684909
 31
0.0
  0
ARC
  5
155
330
130
100
AcDbEntity
  8
DV2_Default
  6
CENTER2
 62
     7
 48
25.4
100
AcDbCircle
 10
434.9573763507
 20
291.9416635387
 30
0.0
 40
42.85
100
AcDbArc
 50
56.6781500966
 51
63.3647205597
  0
LINE
  5
156
330
130
100
AcDbEntity
  8
DV2_Default
  6
CENTER2
 62
     7
 48
25.4
100
AcDbLine
 10
475.1323763507
 20
291.9416635387
 30
0.0
 11
480.3073763507
 21
291.9416635387
 31
0.0
  0
LINE
  5
157
330
130
100
AcDbEntity
  8
DV2_Default
  6
CENTER2
 62
     7
 48
25.4
100
AcDbLine
 10
455.0448763507
 20
326.7342341358
 30
0.0
 11
457.6323491521
 21
331.2158684909
 31
0.0
  0
LINE
  5
158
330
130
100
AcDbEntity
  8
DV2_Default
  6
CENTER2
 62
     7
 48
25.4
100
AcDbLine
 10
483.9781120349
 20
305.0767300777
 30
0.0
 11
499.4329252555
 21
309.2178347993
 31
0.0
  0
LINE
  5
159
330
130
100
AcDbEntity
  8
DV2_Default
  6
CENTER2
 62
     7
 48
25.4
100
AcDbLine
 10
465.6496694811
 20
300.1656386969
 30
0.0
 11
472.8941131782
 21
302.1067815351
 31
0.0
  0
LINE
  5
15A
330
130
100
AcDbEntity
  8
DV2_Default
  6
CENTER2
 62
     7
 48
25.4
100
AcDbLine
 10
457.4256943229
 20
314.4099815109
 30
0.0
 11
462.7289951818
 21
319.7132823698
 31
0.0
  0
ARC
  5
15B
330
130
100
AcDbEntity
  8
DV2_Default
  6
CENTER2
 62
     7
 48
25.4
100
AcDbCircle
 10
434.9573763507
 20
291.9416635387
 30
0.0
 40
35.525
100
AcDbArc
 50
38.9490765948
 51
51.0509234052
  0
ARC
  5
15C
330
130
100
AcDbEntity
  8
DV2_Default
  6
CENTER2
 62
     7
 48
25.4
100
AcDbCircle
 10
434.9573763507
 20
291.9416635387
 30
0.0
 40
35.525
100
AcDbArc
 50
8.9490765948
 51
21.0509234052
  0
LINE
  5
15D
330
130
100
AcDbEntity
  8
DV2_Default
  6
CENTER2
 62
     7
 48
25.4
100
AcDbLine
 10
399.0717072055
 20
327.8273326839
 30
0.0
 11
387.7579987065
 21
339.1410411829
 31
0.0
  0
LINE
  5
15E
330
130
100
AcDbEntity
  8
DV2_Default
  6
CENTER2
 62
     7
 48
25.4
100
AcDbLine
 10
385.9366406666
 20
305.0767300777
 30
0.0
 11
370.4818274459
 21
309.2178347993
 31
0.0
  0
CIRCLE
  5
15F
330
130
100
AcDbEntity
  8
DV2_Default
  6
Continuous
 62
     7
 48
25.4
100
AcDbCircle
 10
393.414852956
 20
333.4841869334
 30
0.0
 40
8.0
  0
CIRCLE
  5
160
330
130
100
AcDbEntity
  8
DV2_Default
  6
Continuous
 62
     7
 48
25.4
100
AcDbCircle
 10
393.414852956
 20
333.4841869334
 30
0.0
 40
5.249999999999999
  0
CIRCLE
  5
161
330
130
100
AcDbEntity
  8
DV2_Default
  6
Continuous
 62
     7
 48
25.4
100
AcDbCircle
 10
378.2092340562
 20
307.1472824385
 30
0.0
 40
8.0
  0
CIRCLE
  5
162
330
130
100
AcDbEntity
  8
DV2_Default
  6
Continuous
 62
     7
 48
25.4
100
AcDbCircle
 10
378.2092340562
 20
307.1472824385
 30
0.0
 40
5.249999999999999
  0
ARC
  5
163
330
130
100
AcDbEntity
  8
DV2_Default
  6
CENTER2
 62
     7
 48
25.4
100
AcDbCircle
 10
434.9573763507
 20
291.9416635387
 30
0.0
 40
58.75000000000001
100
AcDbArc
 50
127.1919811195
 51
172.8080188805
  0
LINE
  5
164
330
130
100
AcDbEntity
  8
DV2_Default
  6
CENTER2
 62
     7
 48
25.4
100
AcDbLine
 10
385.9366406666
 20
305.0767300777
 30
0.0
 11
370.4818274459
 21
309.2178347993
 31
0.0
  0
CIRCLE
  5
165
330
130
100
AcDbEntity
  8
DV2_Default
  6
Continuous
 62
     7
 48
25.4
100
AcDbCircle
 10
409.8374079491
 20
317.0616319404
 30
0.0
 40
3.75
  0
CIRCLE
  5
166
330
130
100
AcDbEntity
  8
DV2_Default
  6
Continuous
 62
     7
 48
25.4
100
AcDbCircle
 10
409.8374079491
 20
317.0616319404
 30
0.0
 40
3.5
  0
LINE
  5
167
330
130
100
AcDbEntity
  8
DV2_Default
  6
Continuous
 62
     7
 48
25.4
100
AcDbLine
 10
411.1632331638
 20
315.7358067256
 30
0.0
 11
411.6485188734
 21
317.5469176499
 31
0.0
  0
LINE
  5
168
330
130
100
AcDbEntity
  8
DV2_Default
  6
Continuous
 62
     7
 48
25.4
100
AcDbLine
 10
411.6485188734
 20
317.5469176499
 30
0.0
 11
410.3226936586
 21
318.8727428647
 31
0.0
  0
LINE
  5
169
330
130
100
AcDbEntity
  8
DV2_Default
  6
Continuous
 62
     7
 48
25.4
100
AcDbLine
 10
410.3226936586
 20
318.8727428647
 30
0.0
 11
408.5115827343
 21
318.3874571551
 31
0.0
  0
LINE
  5
16A
330
130
100
AcDbEntity
  8
DV2_Default
  6
Continuous
 62
     7
 48
25.4
100
AcDbLine
 10
408.5115827343
 20
318.3874571551
 30
0.0
 11
408.0262970248
 21
316.5763462308
 31
0.0
  0
LINE
  5
16B
330
130
100
AcDbEntity
  8
DV2_Default
  6
Continuous
 62
     7
 48
25.4
100
AcDbLine
 10
408.0262970248
 20
316.5763462308
 30
0.0
 11
409.3521222395
 21
315.2505210161
 31
0.0
  0
LINE
  5
16C
330
130
100
AcDbEntity
  8
DV2_Default
  6
Continuous
 62
     7
 48
25.4
100
AcDbLine
 10
409.3521222395
 20
315.2505210161
 30
0.0
 11
411.1632331638
 21
315.7358067256
 31
0.0
  0
CIRCLE
  5
16D
330
130
100
AcDbEntity
  8
DV2_Default
  6
Continuous
 62
     7
 48
25.4
100
AcDbCircle
 10
400.6428613718
 20
301.136210116
 30
0.0
 40
3.75
  0
CIRCLE
  5
16E
330
130
100
AcDbEntity
  8
DV2_Default
  6
Continuous
 62
     7
 48
25.4
100
AcDbCircle
 10
400.6428613718
 20
301.136210116
 30
0.0
 40
3.5
  0
LINE
  5
16F
330
130
100
AcDbEntity
  8
DV2_Default
  6
Continuous
 62
     7
 48
25.4
100
AcDbLine
 10
402.4539722961
 20
300.6509244064
 30
0.0
 11
401.9686865865
 21
302.4620353307
 31
0.0
  0
LINE
  5
170
330
130
100
AcDbEntity
  8
DV2_Default
  6
Continuous
 62
     7
 48
25.4
100
AcDbLine
 10
401.9686865865
 20
302.4620353307
 30
0.0
 11
400.1575756622
 21
302.9473210403
 31
0.0
  0
LINE
  5
171
330
130
100
AcDbEntity
  8
DV2_Default
  6
Continuous
 62
     7
 48
25.4
100
AcDbLine
 10
400.1575756622
 20
302.9473210403
 30
0.0
 11
398.8317504475
 21
301.6214958256
 31
0.0
  0
LINE
  5
172
330
130
100
AcDbEntity
  8
DV2_Default
  6
Continuous
 62
     7
 48
25.4
100
AcDbLine
 10
398.8317504475
 20
301.6214958256
 30
0.0
 11
399.3170361571
 21
299.8103849013
 31
0.0
  0
LINE
  5
173
330
130
100
AcDbEntity
  8
DV2_Default
  6
Continuous
 62
     7
 48
25.4
100
AcDbLine
 10
399.3170361571
 20
299.8103849013
 30
0.0
 11
401.1281470814
 21
299.3250991917
 31
0.0
  0
LINE
  5
174
330
130
100
AcDbEntity
  8
DV2_Default
  6
Continuous
 62
     7
 48
25.4
100
AcDbLine
 10
401.1281470814
 20
299.3250991917
 30
0.0
 11
402.4539722961
 21
300.6509244064
 31
0.0
  0
CIRCLE
  5
175
330
130
100
AcDbEntity
  8
DV2_Default
  6
HIDDEN2
 62
     7
 48
25.4
100
AcDbCircle
 10
413.5323763507
 20
329.0508520909
 30
0.0
 40
2.5
  0
CIRCLE
  5
176
330
130
100
AcDbEntity
  8
DV2_Default
  6
HIDDEN2
 62
     7
 48
25.4
100
AcDbCircle
 10
413.5323763507
 20
329.0508520909
 30
0.0
 40
2.25
  0
CIRCLE
  5
177
330
130
100
AcDbEntity
  8
DV2_Default
  6
HIDDEN2
 62
     7
 48
25.4
100
AcDbCircle
 10
392.1073793494
 20
291.9256326234
 30
0.0
 40
2.5
  0
CIRCLE
  5
178
330
130
100
AcDbEntity
  8
DV2_Default
  6
HIDDEN2
 62
     7
 48
25.4
100
AcDbCircle
 10
392.1073793494
 20
291.9256326234
 30
0.0
 40
2.25
  0
ARC
  5
179
330
130
100
AcDbEntity
  8
DV2_Default
  6
CENTER2
 62
     7
 48
25.4
100
AcDbCircle
 10
434.9573763507
 20
291.9416635387
 30
0.0
 40
42.85
100
AcDbArc
 50
116.6567147685
 51
123.3432852315
  0
LINE
  5
17A
330
130
100
AcDbEntity
  8
DV2_Default
  6
CENTER2
 62
     7
 48
25.4
100
AcDbLine
 10
394.7823763507
 20
291.9416635387
 30
0.0
 11
389.607430748
 21
291.9416635387
 31
0.0
  0
ARC
  5
17B
330
130
100
AcDbEntity
  8
DV2_Default
  6
CENTER2
 62
     7
 48
25.4
100
AcDbCircle
 10
434.9573763507
 20
291.9416635387
 30
0.0
 40
42.85
100
AcDbArc
 50
176.6781500966
 51
183.3647205597
  0
LINE
  5
17C
330
130
100
AcDbEntity
  8
DV2_Default
  6
CENTER2
 62
     7
 48
25.4
100
AcDbLine
 10
414.8698763507
 20
326.7342341358
 30
0.0
 11
412.2823763507
 21
331.2159156003
 31
0.0
  0
LINE
  5
17D
330
130
100
AcDbEntity
  8
DV2_Default
  6
CENTER2
 62
     7
 48
25.4
100
AcDbLine
 10
394.7823763507
 20
291.9416635387
 30
0.0
 11
389.607430748
 21
291.9416635387
 31
0.0
  0
LINE
  5
17E
330
130
100
AcDbEntity
  8
DV2_Default
  6
CENTER2
 62
     7
 48
25.4
100
AcDbLine
 10
399.0717072055
 20
327.8273326839
 30
0.0
 11
387.7579987065
 21
339.1410411829
 31
0.0
  0
LINE
  5
17F
330
130
100
AcDbEntity
  8
DV2_Default
  6
CENTER2
 62
     7
 48
25.4
100
AcDbLine
 10
412.4890583785
 20
314.4099815109
 30
0.0
 11
407.1857575196
 21
319.7132823698
 31
0.0
  0
LINE
  5
180
330
130
100
AcDbEntity
  8
DV2_Default
  6
CENTER2
 62
     7
 48
25.4
100
AcDbLine
 10
404.2650832204
 20
300.1656386969
 30
0.0
 11
397.0206395232
 21
302.1067815351
 31
0.0
  0
ARC
  5
181
330
130
100
AcDbEntity
  8
DV2_Default
  6
CENTER2
 62
     7
 48
25.4
100
AcDbCircle
 10
434.9573763507
 20
291.9416635387
 30
0.0
 40
35.525
100
AcDbArc
 50
158.9490765948
 51
171.0509234052
  0
ARC
  5
182
330
130
100
AcDbEntity
  8
DV2_Default
  6
CENTER2
 62
     7
 48
25.4
100
AcDbCircle
 10
434.9573763507
 20
291.9416635387
 30
0.0
 40
35.525
100
AcDbArc
 50
128.9490765948
 51
141.0509234052
  0
LINE
  5
183
330
130
100
AcDbEntity
  8
DV2_Default
  6
Continuous
 62
     7
 48
25.4
100
AcDbLine
 10
434.9573763507
 20
388.1916635387
 30
0.0
 11
419.4573763507
 21
388.1916635387
 31
0.0
  0
LINE
  5
184
330
130
100
AcDbEntity
  8
DV2_Default
  6
Continuous
 62
     7
 48
25.4
100
AcDbLine
 10
434.9573763507
 20
388.1916635387
 30
0.0
 11
450.4573763507
 21
388.1916635387
 31
0.0
  0
LINE
  5
185
330
130
100
AcDbEntity
  8
DV2_Default
  6
Continuous
 62
     7
 48
25.4
100
AcDbLine
 10
450.4573763507
 20
388.1916635387
 30
0.0
 11
450.4573763507
 21
305.6916635387
 31
0.0
  0
LINE
  5
186
330
130
100
AcDbEntity
  8
DV2_Default
  6
Continuous
 62
     7
 48
25.4
100
AcDbLine
 10
450.4573763507
 20
305.6916635387
 30
0.0
 11
419.4573763507
 21
305.6916635387
 31
0.0
  0
LINE
  5
187
330
130
100
AcDbEntity
  8
DV2_Default
  6
Continuous
 62
     7
 48
25.4
100
AcDbLine
 10
419.4573763507
 20
305.6916635387
 30
0.0
 11
419.4573763507
 21
388.1916635387
 31
0.0
  0
LINE
  5
188
330
130
100
AcDbEntity
  8
DV2_Default
  6
Continuous
 62
     7
 48
25.4
100
AcDbLine
 10
434.9573763507
 20
387.1916635387
 30
0.0
 11
434.9573763507
 21
387.6916635387
 31
0.0
  0
LINE
  5
189
330
130
100
AcDbEntity
  8
DV2_Default
  6
Continuous
 62
     7
 48
25.4
100
AcDbLine
 10
450.4573763507
 20
387.6916635387
 30
0.0
 11
451.4573763507
 21
387.6916635387
 31
0.0
  0
LINE
  5
18A
330
130
100
AcDbEntity
  8
DV2_Default
  6
Continuous
 62
     7
 48
25.4
100
AcDbLine
 10
434.9573763507
 20
388.1916635387
 30
0.0
 11
419.4573763507
 21
388.1916635387
 31
0.0
  0
LINE
  5
18B
330
130
100
AcDbEntity
  8
DV2_Default
  6
Continuous
 62
     7
 48
25.4
100
AcDbLine
 10
434.9573763507
 20
387.1916635387
 30
0.0
 11
434.9573763507
 21
387.6916635387
 31
0.0
  0
LINE
  5
18C
330
130
100
AcDbEntity
  8
DV2_Default
  6
Continuous
 62
     7
 48
25.4
100
AcDbLine
 10
419.4573763507
 20
387.6916635387
 30
0.0
 11
418.4573763507
 21
387.6916635387
 31
0.0
  0
LINE
  5
18D
330
130
100
AcDbEntity
  8
DV2_Default
  6
Continuous
 62
     7
 48
25.4
100
AcDbLine
 10
418.4573763507
 20
387.6916635387
 30
0.0
 11
411.4096816948
 21
385.1265124638
 31
0.0
  0
LINE
  5
18E
330
130
100
AcDbEntity
  8
DV2_Default
  6
Continuous
 62
     7
 48
25.4
100
AcDbLine
 10
411.4096816948
 20
385.1265124638
 30
0.0
 11
411.4096816948
 21
384.2350467056
 31
0.0
  0
LINE
  5
18F
330
130
100
AcDbEntity
  8
DV2_Default
  6
Continuous
 62
     7
 48
25.4
100
AcDbLine
 10
450.4573763507
 20
387.6916635387
 30
0.0
 11
451.4573763507
 21
387.6916635387
 31
0.0
  0
LINE
  5
190
330
130
100
AcDbEntity
  8
DV2_Default
  6
Continuous
 62
     7
 48
25.4
100
AcDbLine
 10
451.4573763507
 20
387.6916635387
 30
0.0
 11
458.5050710066
 21
385.1265124638
 31
0.0
  0
LINE
  5
191
330
130
100
AcDbEntity
  8
DV2_Default
  6
Continuous
 62
     7
 48
25.4
100
AcDbLine
 10
458.5050710066
 20
385.1265124638
 30
0.0
 11
458.5050710066
 21
384.2350467056
 31
0.0
  0
ARC
  5
192
330
130
100
AcDbEntity
  8
DV2_Default
  6
Continuous
 62
     7
 48
25.4
100
AcDbCircle
 10
434.9573763507
 20
291.9416635387
 30
0.0
 40
95.25
100
AcDbArc
 50
219.9755752805
 51
320.0244247195
  0
CIRCLE
  5
193
330
130
100
AcDbEntity
  8
DV2_Default
  6
Continuous
 62
     7
 48
25.4
100
AcDbCircle
 10
434.9573763507
 20
369.6916635387
 30
0.0
 40
7.999999999999998
  0
CIRCLE
  5
194
330
130
100
AcDbEntity
  8
DV2_Default
  6
Continuous
 62
     7
 48
25.4
100
AcDbCircle
 10
434.9573763507
 20
369.6916635387
 30
0.0
 40
7.5
  0
LINE
  5
195
330
130
100
AcDbEntity
  8
DV2_Default
  6
Continuous
 62
     7
 48
25.4
100
AcDbLine
 10
434.9573763507
 20
374.6916635387
 30
0.0
 11
430.6272493318
 21
372.1916635387
 31
0.0
  0
LINE
  5
196
330
130
100
AcDbEntity
  8
DV2_Default
  6
Continuous
 62
     7
 48
25.4
100
AcDbLine
 10
430.6272493318
 20
372.1916635387
 30
0.0
 11
430.6272493318
 21
367.1916635387
 31
0.0
  0
LINE
  5
197
330
130
100
AcDbEntity
  8
DV2_Default
  6
Continuous
 62
     7
 48
25.4
100
AcDbLine
 10
430.6272493318
 20
367.1916635387
 30
0.0
 11
434.9573763507
 21
364.6916635387
 31
0.0
  0
LINE
  5
198
330
130
100
AcDbEntity
  8
DV2_Default
  6
Continuous
 62
     7
 48
25.4
100
AcDbLine
 10
434.9573763507
 20
364.6916635387
 30
0.0
 11
439.2875033696
 21
367.1916635387
 31
0.0
  0
LINE
  5
199
330
130
100
AcDbEntity
  8
DV2_Default
  6
Continuous
 62
     7
 48
25.4
100
AcDbLine
 10
439.2875033696
 20
367.1916635387
 30
0.0
 11
439.2875033696
 21
372.1916635387
 31
0.0
  0
LINE
  5
19A
330
130
100
AcDbEntity
  8
DV2_Default
  6
Continuous
 62
     7
 48
25.4
100
AcDbLine
 10
439.2875033696
 20
372.1916635387
 30
0.0
 11
434.9573763507
 21
374.6916635387
 31
0.0
  0
LINE
  5
19B
330
130
100
AcDbEntity
  8
DV2_Default
  6
CENTER2
 62
     7
 48
25.4
100
AcDbLine
 10
425.2073763507
 20
369.6916635387
 30
0.0
 11
444.7073763507
 21
369.6916635387
 31
0.0
  0
CIRCLE
  5
19C
330
130
100
AcDbEntity
  8
DV2_Default
  6
Continuous
 62
     7
 48
25.4
100
AcDbCircle
 10
434.9573763507
 20
348.1916635387
 30
0.0
 40
7.999999999999998
  0
CIRCLE
  5
19D
330
130
100
AcDbEntity
  8
DV2_Default
  6
Continuous
 62
     7
 48
25.4
100
AcDbCircle
 10
434.9573763507
 20
348.1916635387
 30
0.0
 40
7.5
  0
LINE
  5
19E
330
130
100
AcDbEntity
  8
DV2_Default
  6
Continuous
 62
     7
 48
25.4
100
AcDbLine
 10
434.9573763507
 20
343.1916635387
 30
0.0
 11
430.6272493318
 21
345.6916635387
 31
0.0
  0
LINE
  5
19F
330
130
100
AcDbEntity
  8
DV2_Default
  6
Continuous
 62
     7
 48
25.4
100
AcDbLine
 10
430.6272493318
 20
345.6916635387
 30
0.0
 11
430.6272493318
 21
350.6916635387
 31
0.0
  0
LINE
  5
1A0
330
130
100
AcDbEntity
  8
DV2_Default
  6
Continuous
 62
     7
 48
25.4
100
AcDbLine
 10
430.6272493318
 20
350.6916635387
 30
0.0
 11
434.9573763507
 21
353.1916635387
 31
0.0
  0
LINE
  5
1A1
330
130
100
AcDbEntity
  8
DV2_Default
  6
Continuous
 62
     7
 48
25.4
100
AcDbLine
 10
434.9573763507
 20
353.1916635387
 30
0.0
 11
439.2875033696
 21
350.6916635387
 31
0.0
  0
LINE
  5
1A2
330
130
100
AcDbEntity
  8
DV2_Default
  6
Continuous
 62
     7
 48
25.4
100
AcDbLine
 10
439.2875033696
 20
350.6916635387
 30
0.0
 11
439.2875033696
 21
345.6916635387
 31
0.0
  0
LINE
  5
1A3
330
130
100
AcDbEntity
  8
DV2_Default
  6
Continuous
 62
     7
 48
25.4
100
AcDbLine
 10
439.2875033696
 20
345.6916635387
 30
0.0
 11
434.9573763507
 21
343.1916635387
 31
0.0
  0
LINE
  5
1A4
330
130
100
AcDbEntity
  8
DV2_Default
  6
CENTER2
 62
     7
 48
25.4
100
AcDbLine
 10
424.3490651949
 20
348.1916635387
 30
0.0
 11
445.3941032307
 21
348.1916635387
 31
0.0
  0
LINE
  5
1A5
330
130
100
AcDbEntity
  8
DV2_Default
  6
Continuous
 62
     7
 48
25.4
100
AcDbLine
 10
517.4462960612
 20
244.3166635387
 30
0.0
 11
517.8793087631
 21
244.0666635387
 31
0.0
  0
LINE
  5
1A6
330
130
100
AcDbEntity
  8
DV2_Default
  6
Continuous
 62
     7
 48
25.4
100
AcDbLine
 10
517.8793087631
 20
244.0666635387
 30
0.0
 11
510.1293087631
 21
230.6432697801
 31
0.0
  0
LINE
  5
1A7
330
130
100
AcDbEntity
  8
DV2_Default
  6
Continuous
 62
     7
 48
25.4
100
AcDbLine
 10
510.1293087631
 20
230.6432697801
 30
0.0
 11
509.6293087631
 21
229.7772443763
 31
0.0
  0
LINE
  5
1A8
330
130
100
AcDbEntity
  8
DV2_Default
  6
Continuous
 62
     7
 48
25.4
100
AcDbLine
 10
509.6293087631
 20
229.7772443763
 30
0.0
 11
455.5027210266
 21
261.0272443763
 31
0.0
  0
LINE
  5
1A9
330
130
100
AcDbEntity
  8
DV2_Default
  6
Continuous
 62
     7
 48
25.4
100
AcDbLine
 10
452.4781021306
 20
255.7884507749
 30
0.0
 11
475.0273399226
 21
294.8448763026
 31
0.0
  0
LINE
  5
1AA
330
130
100
AcDbEntity
  8
DV2_Default
  6
Continuous
 62
     7
 48
25.4
100
AcDbLine
 10
517.4462960612
 20
244.3166635387
 30
0.0
 11
517.8793087631
 21
244.0666635387
 31
0.0
  0
LINE
  5
1AB
330
130
100
AcDbEntity
  8
DV2_Default
  6
Continuous
 62
     7
 48
25.4
100
AcDbLine
 10
517.8793087631
 20
244.0666635387
 30
0.0
 11
525.6293087631
 21
257.4900572974
 31
0.0
  0
LINE
  5
1AC
330
130
100
AcDbEntity
  8
DV2_Default
  6
Continuous
 62
     7
 48
25.4
100
AcDbLine
 10
525.6293087631
 20
257.4900572974
 30
0.0
 11
526.1293087631
 21
258.3560827012
 31
0.0
  0
LINE
  5
1AD
330
130
100
AcDbEntity
  8
DV2_Default
  6
Continuous
 62
     7
 48
25.4
100
AcDbLine
 10
526.1293087631
 20
258.3560827012
 30
0.0
 11
472.0027210266
 21
289.6060827012
 31
0.0
  0
LINE
  5
1AE
330
130
100
AcDbEntity
  8
DV2_Default
  6
Continuous
 62
     7
 48
25.4
100
AcDbLine
 10
448.6602822518
 20
254.1757927707
 30
0.0
 11
474.5150327824
 21
298.9575343067
 31
0.0
  0
LINE
  5
1AF
330
130
100
AcDbEntity
  8
DV2_Default
  6
Continuous
 62
     7
 48
25.4
100
AcDbLine
 10
526.1293087631
 20
258.3560827012
 30
0.0
 11
527.4316700956
 21
265.7421408488
 31
0.0
  0
LINE
  5
1B0
330
130
100
AcDbEntity
  8
DV2_Default
  6
Continuous
 62
     7
 48
25.4
100
AcDbLine
 10
527.4316700956
 20
265.7421408488
 30
0.0
 11
526.6596381024
 21
266.1878737278
 31
0.0
  0
LINE
  5
1B1
330
130
100
AcDbEntity
  8
DV2_Default
  6
Continuous
 62
     7
 48
25.4
100
AcDbLine
 10
510.1293087631
 20
230.6432697801
 30
0.0
 11
509.6293087631
 21
229.7772443763
 31
0.0
  0
LINE
  5
1B2
330
130
100
AcDbEntity
  8
DV2_Default
  6
Continuous
 62
     7
 48
25.4
100
AcDbLine
 10
509.6293087631
 20
229.7772443763
 30
0.0
 11
503.8839754397
 21
224.9563373036
 31
0.0
  0
LINE
  5
1B3
330
130
100
AcDbEntity
  8
DV2_Default
  6
Continuous
 62
     7
 48
25.4
100
AcDbLine
 10
503.8839754397
 20
224.9563373036
 30
0.0
 11
503.1119434465
 21
225.4020701827
 31
0.0
  0
CIRCLE
  5
1B4
330
130
100
AcDbEntity
  8
DV2_Default
  6
Continuous
 62
     7
 48
25.4
100
AcDbCircle
 10
500.5588006874
 20
254.0666635387
 30
0.0
 40
5.0
  0
CIRCLE
  5
1B5
330
130
100
AcDbEntity
  8
DV2_Default
  6
Continuous
 62
     7
 48
25.4
100
AcDbCircle
 10
481.939254506
 20
264.8166635387
 30
0.0
 40
5.0
  0
CIRCLE
  5
1B6
330
130
100
AcDbEntity
  8
DV2_Default
  6
Continuous
 62
     7
 48
25.4
100
AcDbCircle
 10
481.939254506
 20
264.8166635387
 30
0.0
 40
4.500000000000001
  0
CIRCLE
  5
1B7
330
130
100
AcDbEntity
  8
DV2_Default
  6
Continuous
 62
     7
 48
25.4
100
AcDbCircle
 10
500.5588006874
 20
254.0666635387
 30
0.0
 40
4.500000000000001
  0
LINE
  5
1B8
330
130
100
AcDbEntity
  8
DV2_Default
  6
Continuous
 62
     7
 48
25.4
100
AcDbLine
 10
517.8793087631
 20
244.0666635387
 30
0.0
 11
514.7543087631
 21
238.6540047651
 31
0.0
  0
LINE
  5
1B9
330
130
100
AcDbEntity
  8
DV2_Default
  6
Continuous
 62
     7
 48
25.4
100
AcDbLine
 10
514.7543087631
 20
238.6540047651
 30
0.0
 11
466.2013462764
 21
266.6860707267
 31
0.0
  0
LINE
  5
1BA
330
130
100
AcDbEntity
  8
DV2_Default
  6
Continuous
 62
     7
 48
25.4
100
AcDbLine
 10
466.2013462764
 20
266.6860707267
 30
0.0
 11
461.0763462764
 21
257.8093103379
 31
0.0
  0
LINE
  5
1BB
330
130
100
AcDbEntity
  8
DV2_Default
  6
Continuous
 62
     7
 48
25.4
100
AcDbLine
 10
525.6293087631
 20
257.4900572974
 30
0.0
 11
526.1293087631
 21
258.3560827012
 31
0.0
  0
LINE
  5
1BC
330
130
100
AcDbEntity
  8
DV2_Default
  6
Continuous
 62
     7
 48
25.4
100
AcDbLine
 10
525.6293087631
 20
257.4900572974
 30
0.0
 11
526.1293087631
 21
258.3560827012
 31
0.0
  0
LINE
  5
1BD
330
130
100
AcDbEntity
  8
DV2_Default
  6
Continuous
 62
     7
 48
25.4
100
AcDbLine
 10
521.0043087631
 20
249.4793223124
 30
0.0
 11
472.4513462764
 21
277.511388274
 31
0.0
  0
LINE
  5
1BE
330
130
100
AcDbEntity
  8
DV2_Default
  6
Continuous
 62
     7
 48
25.4
100
AcDbLine
 10
472.4513462764
 20
277.511388274
 30
0.0
 11
477.5763462764
 21
286.3881486628
 31
0.0
  0
LINE
  5
1BF
330
130
100
AcDbEntity
  8
DV2_Default
  6
Continuous
 62
     7
 48
25.4
100
AcDbLine
 10
506.0940547252
 20
243.6540047651
 30
0.0
 11
512.3440547252
 21
254.4793223124
 31
0.0
  0
ARC
  5
1C0
330
130
100
AcDbEntity
  8
DV2_Default
  6
Continuous
 62
     7
 48
25.4
100
AcDbCircle
 10
470.6760410468
 20
271.3194828613
 30
0.0
 40
6.500000000000001
100
AcDbArc
 50
73.872859549
 51
226.127140451
  0
ARC
  5
1C1
330
130
100
AcDbEntity
  8
DV2_Default
  6
Continuous
 62
     7
 48
25.4
100
AcDbCircle
 10
471.7008511902
 20
270.7475198313
 30
0.0
 40
8.033518305671219
100
AcDbArc
 50
81.5230712118
 51
218.5230447866
  0
LINE
  5
1C2
330
130
100
AcDbEntity
  8
DV2_Default
  6
Continuous
 62
     7
 48
25.4
100
AcDbLine
 10
472.9530385739
 20
266.2520809764
 30
0.0
 11
476.2030385739
 21
271.881246101
 31
0.0
  0
LINE
  5
1C3
330
130
100
AcDbEntity
  8
DV2_Default
  6
Continuous
 62
     7
 48
25.4
100
AcDbLine
 10
472.9530385739
 20
266.2520809764
 30
0.0
 11
474.0511147852
 21
262.1540047651
 31
0.0
  0
LINE
  5
1C4
330
130
100
AcDbEntity
  8
DV2_Default
  6
Continuous
 62
     7
 48
25.4
100
AcDbLine
 10
480.3011147852
 20
272.9793223124
 30
0.0
 11
476.2030385739
 21
271.881246101
 31
0.0
  0
LINE
  5
1C5
330
130
100
AcDbEntity
  8
DV2_Default
  6
Continuous
 62
     7
 48
25.4
100
AcDbLine
 10
352.4684566403
 20
244.3166635387
 30
0.0
 11
352.0354439384
 21
244.0666635387
 31
0.0
  0
LINE
  5
1C6
330
130
100
AcDbEntity
  8
DV2_Default
  6
Continuous
 62
     7
 48
25.4
100
AcDbLine
 10
352.0354439384
 20
244.0666635387
 30
0.0
 11
344.2854439384
 21
257.4900572974
 31
0.0
  0
LINE
  5
1C7
330
130
100
AcDbEntity
  8
DV2_Default
  6
Continuous
 62
     7
 48
25.4
100
AcDbLine
 10
344.2854439384
 20
257.4900572974
 30
0.0
 11
343.7854439384
 21
258.3560827012
 31
0.0
  0
LINE
  5
1C8
330
130
100
AcDbEntity
  8
DV2_Default
  6
Continuous
 62
     7
 48
25.4
100
AcDbLine
 10
343.7854439384
 20
258.3560827012
 30
0.0
 11
397.9120316749
 21
289.6060827012
 31
0.0
  0
LINE
  5
1C9
330
130
100
AcDbEntity
  8
DV2_Default
  6
Continuous
 62
     7
 48
25.4
100
AcDbLine
 10
394.8874127789
 20
294.8448763026
 30
0.0
 11
417.4366505709
 21
255.7884507749
 31
0.0
  0
LINE
  5
1CA
330
130
100
AcDbEntity
  8
DV2_Default
  6
Continuous
 62
     7
 48
25.4
100
AcDbLine
 10
352.4684566403
 20
244.3166635387
 30
0.0
 11
352.0354439384
 21
244.0666635387
 31
0.0
  0
LINE
  5
1CB
330
130
100
AcDbEntity
  8
DV2_Default
  6
Continuous
 62
     7
 48
25.4
100
AcDbLine
 10
352.0354439384
 20
244.0666635387
 30
0.0
 11
359.7854439384
 21
230.6432697801
 31
0.0
  0
LINE
  5
1CC
330
130
100
AcDbEntity
  8
DV2_Default
  6
Continuous
 62
     7
 48
25.4
100
AcDbLine
 10
359.7854439384
 20
230.6432697801
 30
0.0
 11
360.2854439384
 21
229.7772443763
 31
0.0
  0
LINE
  5
1CD
330
130
100
AcDbEntity
  8
DV2_Default
  6
Continuous
 62
     7
 48
25.4
100
AcDbLine
 10
360.2854439384
 20
229.7772443763
 30
0.0
 11
414.4120316749
 21
261.0272443763
 31
0.0
  0
LINE
  5
1CE
330
130
100
AcDbEntity
  8
DV2_Default
  6
Continuous
 62
     7
 48
25.4
100
AcDbLine
 10
395.399719919
 20
298.9575343067
 30
0.0
 11
421.2544704497
 21
254.1757927707
 31
0.0
  0
LINE
  5
1CF
330
130
100
AcDbEntity
  8
DV2_Default
  6
Continuous
 62
     7
 48
25.4
100
AcDbLine
 10
360.2854439384
 20
229.7772443763
 30
0.0
 11
366.0307772618
 21
224.9563373036
 31
0.0
  0
LINE
  5
1D0
330
130
100
AcDbEntity
  8
DV2_Default
  6
Continuous
 62
     7
 48
25.4
100
AcDbLine
 10
366.0307772618
 20
224.9563373036
 30
0.0
 11
366.8028092549
 21
225.4020701827
 31
0.0
  0
LINE
  5
1D1
330
130
100
AcDbEntity
  8
DV2_Default
  6
Continuous
 62
     7
 48
25.4
100
AcDbLine
 10
344.2854439384
 20
257.4900572974
 30
0.0
 11
343.7854439384
 21
258.3560827012
 31
0.0
  0
LINE
  5
1D2
330
130
100
AcDbEntity
  8
DV2_Default
  6
Continuous
 62
     7
 48
25.4
100
AcDbLine
 10
343.7854439384
 20
258.3560827012
 30
0.0
 11
342.4830826059
 21
265.7421408488
 31
0.0
  0
LINE
  5
1D3
330
130
100
AcDbEntity
  8
DV2_Default
  6
Continuous
 62
     7
 48
25.4
100
AcDbLine
 10
342.4830826059
 20
265.7421408488
 30
0.0
 11
343.255114599
 21
266.1878737278
 31
0.0
  0
CIRCLE
  5
1D4
330
130
100
AcDbEntity
  8
DV2_Default
  6
Continuous
 62
     7
 48
25.4
100
AcDbCircle
 10
369.3559520141
 20
254.0666635387
 30
0.0
 40
5.0
  0
CIRCLE
  5
1D5
330
130
100
AcDbEntity
  8
DV2_Default
  6
Continuous
 62
     7
 48
25.4
100
AcDbCircle
 10
387.9754981954
 20
264.8166635387
 30
0.0
 40
5.0
  0
CIRCLE
  5
1D6
330
130
100
AcDbEntity
  8
DV2_Default
  6
Continuous
 62
     7
 48
25.4
100
AcDbCircle
 10
387.9754981954
 20
264.8166635387
 30
0.0
 40
4.500000000000001
  0
CIRCLE
  5
1D7
330
130
100
AcDbEntity
  8
DV2_Default
  6
Continuous
 62
     7
 48
25.4
100
AcDbCircle
 10
369.3559520141
 20
254.0666635387
 30
0.0
 40
4.500000000000001
  0
LINE
  5
1D8
330
130
100
AcDbEntity
  8
DV2_Default
  6
Continuous
 62
     7
 48
25.4
100
AcDbLine
 10
352.0354439384
 20
244.0666635387
 30
0.0
 11
348.9104439384
 21
249.4793223124
 31
0.0
  0
LINE
  5
1D9
330
130
100
AcDbEntity
  8
DV2_Default
  6
Continuous
 62
     7
 48
25.4
100
AcDbLine
 10
348.9104439384
 20
249.4793223124
 30
0.0
 11
397.4634064251
 21
277.511388274
 31
0.0
  0
LINE
  5
1DA
330
130
100
AcDbEntity
  8
DV2_Default
  6
Continuous
 62
     7
 48
25.4
100
AcDbLine
 10
397.4634064251
 20
277.511388274
 30
0.0
 11
392.3384064251
 21
286.3881486628
 31
0.0
  0
LINE
  5
1DB
330
130
100
AcDbEntity
  8
DV2_Default
  6
Continuous
 62
     7
 48
25.4
100
AcDbLine
 10
359.7854439384
 20
230.6432697801
 30
0.0
 11
360.2854439384
 21
229.7772443763
 31
0.0
  0
LINE
  5
1DC
330
130
100
AcDbEntity
  8
DV2_Default
  6
Continuous
 62
     7
 48
25.4
100
AcDbLine
 10
359.7854439384
 20
230.6432697801
 30
0.0
 11
360.2854439384
 21
229.7772443763
 31
0.0
  0
LINE
  5
1DD
330
130
100
AcDbEntity
  8
DV2_Default
  6
Continuous
 62
     7
 48
25.4
100
AcDbLine
 10
355.1604439384
 20
238.6540047651
 30
0.0
 11
403.7134064251
 21
266.6860707267
 31
0.0
  0
LINE
  5
1DE
330
130
100
AcDbEntity
  8
DV2_Default
  6
Continuous
 62
     7
 48
25.4
100
AcDbLine
 10
403.7134064251
 20
266.6860707267
 30
0.0
 11
408.8384064251
 21
257.8093103379
 31
0.0
  0
LINE
  5
1DF
330
130
100
AcDbEntity
  8
DV2_Default
  6
Continuous
 62
     7
 48
25.4
100
AcDbLine
 10
357.5706979762
 20
254.4793223124
 30
0.0
 11
363.8206979762
 21
243.6540047651
 31
0.0
  0
ARC
  5
1E0
330
130
100
AcDbEntity
  8
DV2_Default
  6
Continuous
 62
     7
 48
25.4
100
AcDbCircle
 10
399.2387116546
 20
271.3194828613
 30
0.0
 40
6.500000000000001
100
AcDbArc
 50
313.872859549
 51
106.127140451
  0
ARC
  5
1E1
330
130
100
AcDbEntity
  8
DV2_Default
  6
Continuous
 62
     7
 48
25.4
100
AcDbCircle
 10
398.2309720689
 20
270.7179527581
 30
0.0
 40
8.033518305671219
100
AcDbArc
 50
321.5230712118
 51
98.5230447866
  0
LINE
  5
1E2
330
130
100
AcDbEntity
  8
DV2_Default
  6
Continuous
 62
     7
 48
25.4
100
AcDbLine
 10
393.7117141276
 20
271.881246101
 30
0.0
 11
396.9617141276
 21
266.2520809764
 31
0.0
  0
LINE
  5
1E3
330
130
100
AcDbEntity
  8
DV2_Default
  6
Continuous
 62
     7
 48
25.4
100
AcDbLine
 10
393.7117141276
 20
271.881246101
 30
0.0
 11
389.6136379162
 21
272.9793223124
 31
0.0
  0
LINE
  5
1E4
330
130
100
AcDbEntity
  8
DV2_Default
  6
Continuous
 62
     7
 48
25.4
100
AcDbLine
 10
395.8636379162
 20
262.1540047651
 30
0.0
 11
396.9617141276
 21
266.2520809764
 31
0.0
  0
ARC
  5
1E5
330
130
100
AcDbEntity
  8
DV2_Default
  6
Continuous
 62
     7
 48
25.4
100
AcDbCircle
 10
434.9573763507
 20
291.9416635387
 30
0.0
 40
40.175
100
AcDbArc
 50
354.2490147244
 51
67.3058360493
  0
LINE
  5
1E6
330
130
100
AcDbEntity
  8
DV2_Default
  6
HIDDEN2
 62
     7
 48
25.4
100
AcDbLine
 10
404.5200822521
 20
265.7195020511
 30
0.0
 11
355.7690961588
 21
237.5997881951
 31
0.0
  0
LINE
  5
1E7
330
130
100
AcDbEntity
  8
DV2_Default
  6
HIDDEN2
 62
     7
 48
25.4
100
AcDbLine
 10
397.0403469057
 20
278.6627515654
 30
0.0
 11
348.4311786892
 21
250.3094340743
 31
0.0
  0
ARC
  5
1E8
330
130
100
AcDbEntity
  8
DV2_Default
  6
Continuous
 62
     7
 48
25.4
100
AcDbCircle
 10
434.9573763507
 20
291.9416635387
 30
0.0
 40
40.175
100
AcDbArc
 50
234.2490147244
 51
305.7509852756
  0
ARC
  5
1E9
330
130
100
AcDbEntity
  8
DV2_Default
  6
Continuous
 62
     7
 48
25.4
100
AcDbCircle
 10
434.9573763507
 20
291.9416635387
 30
0.0
 40
40.175
100
AcDbArc
 50
112.6941639507
 51
185.7509852756
  0
LINE
  5
1EA
330
130
100
AcDbEntity
  8
DV2_Default
  6
HIDDEN2
 62
     7
 48
25.4
100
AcDbLine
 10
465.4157661767
 20
265.74400879
 30
0.0
 11
514.1499889536
 21
237.607292151
 31
0.0
  0
LINE
  5
1EB
330
130
100
AcDbEntity
  8
DV2_Default
  6
HIDDEN2
 62
     7
 48
25.4
100
AcDbLine
 10
472.8850813905
 20
278.6932743707
 30
0.0
 11
521.6245142337
 21
250.5535496985
 31
0.0
  0
ARC
  5
1EC
330
130
100
AcDbEntity
  8
DV2_Default
  6
Continuous
 62
     7
 48
25.4
100
AcDbCircle
 10
434.9573763507
 20
291.9416635387
 30
0.0
 40
95.25
100
AcDbArc
 50
339.9755752805
 51
80.6346289559
  0
ARC
  5
1ED
330
130
100
AcDbEntity
  8
DV2_Default
  6
Continuous
 62
     7
 48
25.4
100
AcDbCircle
 10
434.9573763507
 20
291.9416635387
 30
0.0
 40
95.25
100
AcDbArc
 50
99.3653710441
 51
200.0244247195
  0
LINE
  5
1EE
330
130
100
AcDbEntity
  8
DV2_Default
  6
CENTER2
 62
     7
 48
25.4
100
AcDbLine
 10
421.8223098118
 20
242.9209278546
 30
0.0
 11
417.6812050901
 21
227.4661146339
 31
0.0
  0
LINE
  5
1EF
330
130
100
AcDbEntity
  8
DV2_Default
  6
CENTER2
 62
     7
 48
25.4
100
AcDbLine
 10
448.0924428897
 20
242.9209278546
 30
0.0
 11
452.2335476113
 21
227.4661146339
 31
0.0
  0
CIRCLE
  5
1F0
330
130
100
AcDbEntity
  8
DV2_Default
  6
Continuous
 62
     7
 48
25.4
100
AcDbCircle
 10
419.7517574509
 20
235.1935212442
 30
0.0
 40
8.0
  0
CIRCLE
  5
1F1
330
130
100
AcDbEntity
  8
DV2_Default
  6
Continuous
 62
     7
 48
25.4
100
AcDbCircle
 10
419.7517574509
 20
235.1935212442
 30
0.0
 40
5.249999999999999
  0
CIRCLE
  5
1F2
330
130
100
AcDbEntity
  8
DV2_Default
  6
Continuous
 62
     7
 48
25.4
100
AcDbCircle
 10
450.1629952505
 20
235.1935212442
 30
0.0
 40
8.0
  0
CIRCLE
  5
1F3
330
130
100
AcDbEntity
  8
DV2_Default
  6
Continuous
 62
     7
 48
25.4
100
AcDbCircle
 10
450.1629952505
 20
235.1935212442
 30
0.0
 40
5.249999999999999
  0
ARC
  5
1F4
330
130
100
AcDbEntity
  8
DV2_Default
  6
CENTER2
 62
     7
 48
25.4
100
AcDbCircle
 10
434.9573763507
 20
291.9416635387
 30
0.0
 40
58.75000000000001
100
AcDbArc
 50
247.1919811195
 51
292.8080188805
  0
LINE
  5
1F5
330
130
100
AcDbEntity
  8
DV2_Default
  6
CENTER2
 62
     7
 48
25.4
100
AcDbLine
 10
448.0924428897
 20
242.9209278546
 30
0.0
 11
452.2335476113
 21
227.4661146339
 31
0.0
  0
CIRCLE
  5
1F6
330
130
100
AcDbEntity
  8
DV2_Default
  6
Continuous
 62
     7
 48
25.4
100
AcDbCircle
 10
425.7628297735
 20
257.6271485598
 30
0.0
 40
3.75
  0
CIRCLE
  5
1F7
330
130
100
AcDbEntity
  8
DV2_Default
  6
Continuous
 62
     7
 48
25.4
100
AcDbCircle
 10
425.7628297735
 20
257.6271485598
 30
0.0
 40
3.5
  0
LINE
  5
1F8
330
130
100
AcDbEntity
  8
DV2_Default
  6
Continuous
 62
     7
 48
25.4
100
AcDbLine
 10
426.248115483
 20
259.4382594841
 30
0.0
 11
424.4370045587
 21
258.9529737745
 31
0.0
  0
LINE
  5
1F9
330
130
100
AcDbEntity
  8
DV2_Default
  6
Continuous
 62
     7
 48
25.4
100
AcDbLine
 10
424.4370045587
 20
258.9529737745
 30
0.0
 11
423.9517188492
 21
257.1418628502
 31
0.0
  0
LINE
  5
1FA
330
130
100
AcDbEntity
  8
DV2_Default
  6
Continuous
 62
     7
 48
25.4
100
AcDbLine
 10
423.9517188492
 20
257.1418628502
 30
0.0
 11
425.2775440639
 21
255.8160376355
 31
0.0
  0
LINE
  5
1FB
330
130
100
AcDbEntity
  8
DV2_Default
  6
Continuous
 62
     7
 48
25.4
100
AcDbLine
 10
425.2775440639
 20
255.8160376355
 30
0.0
 11
427.0886549882
 21
256.3013233451
 31
0.0
  0
LINE
  5
1FC
330
130
100
AcDbEntity
  8
DV2_Default
  6
Continuous
 62
     7
 48
25.4
100
AcDbLine
 10
427.0886549882
 20
256.3013233451
 30
0.0
 11
427.5739406977
 21
258.1124342694
 31
0.0
  0
LINE
  5
1FD
330
130
100
AcDbEntity
  8
DV2_Default
  6
Continuous
 62
     7
 48
25.4
100
AcDbLine
 10
427.5739406977
 20
258.1124342694
 30
0.0
 11
426.248115483
 21
259.4382594841
 31
0.0
  0
CIRCLE
  5
1FE
330
130
100
AcDbEntity
  8
DV2_Default
  6
Continuous
 62
     7
 48
25.4
100
AcDbCircle
 10
444.151922928
 20
257.6271485598
 30
0.0
 40
3.75
  0
CIRCLE
  5
1FF
330
130
100
AcDbEntity
  8
DV2_Default
  6
Continuous
 62
     7
 48
25.4
100
AcDbCircle
 10
444.151922928
 20
257.6271485598
 30
0.0
 40
3.5
  0
LINE
  5
200
330
130
100
AcDbEntity
  8
DV2_Default
  6
Continuous
 62
     7
 48
25.4
100
AcDbLine
 10
443.6666372184
 20
259.4382594841
 30
0.0
 11
442.3408120037
 21
258.1124342694
 31
0.0
  0
LINE
  5
201
330
130
100
AcDbEntity
  8
DV2_Default
  6
Continuous
 62
     7
 48
25.4
100
AcDbLine
 10
442.3408120037
 20
258.1124342694
 30
0.0
 11
442.8260977133
 21
256.3013233451
 31
0.0
  0
LINE
  5
202
330
130
100
AcDbEntity
  8
DV2_Default
  6
Continuous
 62
     7
 48
25.4
100
AcDbLine
 10
442.8260977133
 20
256.3013233451
 30
0.0
 11
444.6372086376
 21
255.8160376355
 31
0.0
  0
LINE
  5
203
330
130
100
AcDbEntity
  8
DV2_Default
  6
Continuous
 62
     7
 48
25.4
100
AcDbLine
 10
444.6372086376
 20
255.8160376355
 30
0.0
 11
445.9630338523
 21
257.1418628502
 31
0.0
  0
LINE
  5
204
330
130
100
AcDbEntity
  8
DV2_Default
  6
Continuous
 62
     7
 48
25.4
100
AcDbLine
 10
445.9630338523
 20
257.1418628502
 30
0.0
 11
445.4777481427
 21
258.9529737745
 31
0.0
  0
LINE
  5
205
330
130
100
AcDbEntity
  8
DV2_Default
  6
Continuous
 62
     7
 48
25.4
100
AcDbLine
 10
445.4777481427
 20
258.9529737745
 30
0.0
 11
443.6666372184
 21
259.4382594841
 31
0.0
  0
CIRCLE
  5
206
330
130
100
AcDbEntity
  8
DV2_Default
  6
HIDDEN2
 62
     7
 48
25.4
100
AcDbCircle
 10
413.5323763507
 20
254.8324749866
 30
0.0
 40
2.5
  0
CIRCLE
  5
207
330
130
100
AcDbEntity
  8
DV2_Default
  6
HIDDEN2
 62
     7
 48
25.4
100
AcDbCircle
 10
413.5323763507
 20
254.8324749866
 30
0.0
 40
2.25
  0
CIRCLE
  5
208
330
130
100
AcDbEntity
  8
DV2_Default
  6
HIDDEN2
 62
     7
 48
25.4
100
AcDbCircle
 10
456.3962580313
 20
254.8404930412
 30
0.0
 40
2.5
  0
CIRCLE
  5
209
330
130
100
AcDbEntity
  8
DV2_Default
  6
HIDDEN2
 62
     7
 48
25.4
100
AcDbCircle
 10
456.3962580313
 20
254.8404930412
 30
0.0
 40
2.25
  0
ARC
  5
20A
330
130
100
AcDbEntity
  8
DV2_Default
  6
CENTER2
 62
     7
 48
25.4
100
AcDbCircle
 10
434.9573763507
 20
291.9416635387
 30
0.0
 40
42.85
100
AcDbArc
 50
236.6567147685
 51
243.3432852315
  0
LINE
  5
20B
330
130
100
AcDbEntity
  8
DV2_Default
  6
CENTER2
 62
     7
 48
25.4
100
AcDbLine
 10
455.0448763507
 20
257.1490929417
 30
0.0
 11
457.6323491521
 21
252.6674585865
 31
0.0
  0
ARC
  5
20C
330
130
100
AcDbEntity
  8
DV2_Default
  6
CENTER2
 62
     7
 48
25.4
100
AcDbCircle
 10
434.9573763507
 20
291.9416635387
 30
0.0
 40
42.85
100
AcDbArc
 50
296.6781500966
 51
303.3647205597
  0
LINE
  5
20D
330
130
100
AcDbEntity
  8
DV2_Default
  6
CENTER2
 62
     7
 48
25.4
100
AcDbLine
 10
414.8698763507
 20
257.1490929417
 30
0.0
 11
412.2823763507
 21
252.6674114771
 31
0.0
  0
LINE
  5
20E
330
130
100
AcDbEntity
  8
DV2_Default
  6
CENTER2
 62
     7
 48
25.4
100
AcDbLine
 10
455.0448763507
 20
257.1490929417
 30
0.0
 11
457.6323491521
 21
252.6674585865
 31
0.0
  0
LINE
  5
20F
330
130
100
AcDbEntity
  8
DV2_Default
  6
CENTER2
 62
     7
 48
25.4
100
AcDbLine
 10
421.8223098118
 20
242.9209278546
 30
0.0
 11
417.6812050901
 21
227.4661146339
 31
0.0
  0
LINE
  5
210
330
130
100
AcDbEntity
  8
DV2_Default
  6
CENTER2
 62
     7
 48
25.4
100
AcDbLine
 10
426.7334011926
 20
261.2493704084
 30
0.0
 11
424.7922583543
 21
254.0049267112
 31
0.0
  0
LINE
  5
211
330
130
100
AcDbEntity
  8
DV2_Default
  6
CENTER2
 62
     7
 48
25.4
100
AcDbLine
 10
443.1813515089
 20
261.2493704084
 30
0.0
 11
445.1224943471
 21
254.0049267112
 31
0.0
  0
ARC
  5
212
330
130
100
AcDbEntity
  8
DV2_Default
  6
CENTER2
 62
     7
 48
25.4
100
AcDbCircle
 10
434.9573763507
 20
291.9416635387
 30
0.0
 40
35.525
100
AcDbArc
 50
278.9490765948
 51
291.0509234052
  0
ARC
  5
213
330
130
100
AcDbEntity
  8
DV2_Default
  6
CENTER2
 62
     7
 48
25.4
100
AcDbCircle
 10
434.9573763507
 20
291.9416635387
 30
0.0
 40
35.525
100
AcDbArc
 50
248.9490765948
 51
261.0509234052
  0
ARC
  5
214
330
130
100
AcDbEntity
  8
DV2_Default
  6
Continuous
 62
     7
 48
25.4
100
AcDbCircle
 10
434.9573763507
 20
291.9416635387
 30
0.0
 40
29.375
100
AcDbArc
 50
121.8474576693
 51
58.1525423307
  0
ARC
  5
215
330
130
100
AcDbEntity
  8
DV2_Default
  6
Continuous
 62
     7
 48
25.4
100
AcDbCircle
 10
434.9573763507
 20
291.9416635387
 30
0.0
 40
15.0
100
AcDbArc
 50
113.5564643091
 51
66.4435356909
  0
LINE
  5
216
330
130
100
AcDbEntity
  8
DV2_Default
  6
CENTER2
 62
     7
 48
25.4
100
AcDbLine
 10
485.2527067435
 20
271.0638399321
 30
0.0
 11
479.1323116572
 21
259.5659878913
 31
0.0
  0
LINE
  5
217
330
130
100
AcDbEntity
  8
DV2_Default
  6
CENTER2
 62
     7
 48
25.4
100
AcDbLine
 10
503.4377205618
 20
258.8629177475
 30
0.0
 11
497.5104835985
 21
249.1145449598
 31
0.0
  0
LINE
  5
218
330
130
100
AcDbEntity
  8
DV2_Default
  6
CENTER2
 62
     7
 48
25.4
100
AcDbLine
 10
385.0675742392
 20
269.8856426841
 30
0.0
 11
390.9335450832
 21
259.7254831466
 31
0.0
  0
LINE
  5
219
330
130
100
AcDbEntity
  8
DV2_Default
  6
CENTER2
 62
     7
 48
25.4
100
AcDbLine
 10
366.5064557222
 20
259.0447140561
 30
0.0
 11
372.1247652174
 21
249.3135165578
 31
0.0
  0
ENDBLK
  5
21B
330
130
100
AcDbEntity
  8
0
100
AcDbBlockEnd
  0
BLOCK
  5
2BD
330
21C
100
AcDbEntity
  8
0
100
AcDbBlockBegin
  2
SE2
 70
     0
 71
     0
 10
0.0
 20
0.0
 30
0.0
  3
SE2
  1

  0
LINE
  5
21F
330
21C
100
AcDbEntity
  8
DV3_Default
  6
Continuous
 62
     7
 48
25.4
100
AcDbLine
 10
404.6303751659
 20
133.5888594766
 30
0.0
 11
284.6303751659
 21
133.5888594766
 31
0.0
  0
LINE
  5
220
330
21C
100
AcDbEntity
  8
DV3_Default
  6
Continuous
 62
     7
 48
25.4
100
AcDbLine
 10
404.6303751659
 20
133.5888594766
 30
0.0
 11
404.6303751659
 21
41.7888594766
 31
0.0
  0
LINE
  5
221
330
21C
100
AcDbEntity
  8
DV3_Default
  6
Continuous
 62
     7
 48
25.4
100
AcDbLine
 10
404.6303751659
 20
41.7888594766
 30
0.0
 11
284.6303751659
 21
41.7888594766
 31
0.0
  0
LINE
  5
222
330
21C
100
AcDbEntity
  8
DV3_Default
  6
Continuous
 62
     7
 48
25.4
100
AcDbLine
 10
284.6303751659
 20
41.7888594766
 30
0.0
 11
284.6303751659
 21
133.5888594766
 31
0.0
  0
TEXT
  5
223
330
21C
100
AcDbEntity
  8
DV3_Default
  6
Continuous
 62
     7
 48
25.4
100
AcDbText
 10
283.2246399084
 20
36.9711749696
 30
0.0
 40
3.0
  1
0
  7
SEACAD_arial_ttf
 11
283.2246399084
 21
39.9711749696
 31
0.0
100
AcDbText
 73
     3
  0
TEXT
  5
224
330
21C
100
AcDbEntity
  8
DV3_Default
  6
Continuous
 62
     7
 48
25.4
100
AcDbText
 10
327.8037882999
 20
36.8410553657
 30
0.0
 40
3.0
  1
1000
  7
SEACAD_arial_ttf
 11
327.8037882999
 21
39.8410553657
 31
0.0
100
AcDbText
 73
     3
  0
TEXT
  5
225
330
21C
100
AcDbEntity
  8
DV3_Default
  6
Continuous
 62
     7
 48
25.4
100
AcDbText
 10
376.1481845068
 20
36.7129702381
 30
0.0
 40
3.0
  1
2000
  7
SEACAD_arial_ttf
 11
376.1481845068
 21
39.7129702381
 31
0.0
100
AcDbText
 73
     3
  0
TEXT
  5
226
330
21C
100
AcDbEntity
  8
DV3_Default
  6
Continuous
 62
     7
 48
25.4
100
AcDbText
 10
279.3164521565
 20
50.8782254032
 30
0.0
 40
3.0
  1
20
  7
SEACAD_arial_ttf
 11
279.3164521565
 21
53.8782254032
 31
0.0
100
AcDbText
 73
     3
  0
TEXT
  5
227
330
21C
100
AcDbEntity
  8
DV3_Default
  6
Continuous
 62
     7
 48
25.4
100
AcDbText
 10
279.0650856737
 20
61.060042237
 30
0.0
 40
3.0
  1
40
  7
SEACAD_arial_ttf
 11
279.0650856737
 21
64.060042237
 31
0.0
100
AcDbText
 73
     3
  0
TEXT
  5
228
330
21C
100
AcDbEntity
  8
DV3_Default
  6
Continuous
 62
     7
 48
25.4
100
AcDbText
 10
279.1325999581
 20
71.2255870047
 30
0.0
 40
3.0
  1
60
  7
SEACAD_arial_ttf
 11
279.1325999581
 21
74.2255870047
 31
0.0
100
AcDbText
 73
     3
  0
TEXT
  5
229
330
21C
100
AcDbEntity
  8
DV3_Default
  6
Continuous
 62
     7
 48
25.4
100
AcDbText
 10
277.024036542
 20
91.1595424497
 30
0.0
 40
3.0
  1
100
  7
SEACAD_arial_ttf
 11
277.024036542
 21
94.1595424497
 31
0.0
100
AcDbText
 73
     3
  0
TEXT
  5
22A
330
21C
100
AcDbEntity
  8
DV3_Default
  6
Continuous
 62
     7
 48
25.4
100
AcDbText
 10
279.0319931195
 20
81.270674472
 30
0.0
 40
3.0
  1
80
  7
SEACAD_arial_ttf
 11
279.0319931195
 21
84.270674472
 31
0.0
100
AcDbText
 73
     3
  0
TEXT
  5
22B
330
21C
100
AcDbEntity
  8
DV3_Default
  6
Continuous
 62
     7
 48
25.4
100
AcDbText
 10
277.1627556317
 20
101.3738433135
 30
0.0
 40
3.0
  1
120
  7
SEACAD_arial_ttf
 11
277.1627556317
 21
104.3738433135
 31
0.0
100
AcDbText
 73
     3
  0
TEXT
  5
22C
330
21C
100
AcDbEntity
  8
DV3_Default
  6
Continuous
 62
     7
 48
25.4
100
AcDbText
 10
333.0729223914
 20
129.3721039369
 30
0.0
 40
3.6
  1
Input Force
  7
SEACAD_arial_ttf
 11
333.0729223914
 21
132.9721039369
 31
0.0
100
AcDbText
 73
     3
  0
TEXT
  5
22D
330
21C
100
AcDbEntity
  8
DV3_Default
  6
Continuous
 62
     7
 48
25.4
100
AcDbText
 10
333.369542585
 20
124.2044196967
 30
0.0
 40
3.0
  1
71KN
  7
SEACAD_arial_ttf
 11
333.369542585
 21
127.2044196967
 31
0.0
100
AcDbText
 73
     3
  0
TEXT
  5
22E
330
21C
100
AcDbEntity
  8
DV3_Default
  6
Continuous
 62
     7
 48
25.4
100
AcDbText
 10
333.2784817765
 20
104.4796325221
 30
0.0
 40
3.0
  1
55.2KN
  7
SEACAD_arial_ttf
 11
333.2784817765
 21
107.4796325221
 31
0.0
100
AcDbText
 73
     3
  0
TEXT
  5
22F
330
21C
100
AcDbEntity
  8
DV3_Default
  6
Continuous
 62
     7
 48
25.4
100
AcDbText
 10
333.1994321365
 20
84.3856632287
 30
0.0
 40
3.0
  1
39.4KN
  7
SEACAD_arial_ttf
 11
333.1994321365
 21
87.3856632287
 31
0.0
100
AcDbText
 73
     3
  0
TEXT
  5
230
330
21C
100
AcDbEntity
  8
DV3_Default
  6
Continuous
 62
     7
 48
25.4
100
AcDbText
 10
333.3279486472
 20
64.0612255247
 30
0.0
 40
3.0
  1
23.7KN
  7
SEACAD_arial_ttf
 11
333.3279486472
 21
67.0612255247
 31
0.0
100
AcDbText
 73
     3
  0
TEXT
  5
231
330
21C
100
AcDbEntity
  8
DV3_Default
  6
Continuous
 62
     7
 48
25.4
100
AcDbText
 10
333.9295423752
 20
25.549129038
 30
0.0
 40
3.6
  1
Speed in min-
  7
SEACAD_arial_ttf
 11
333.9295423752
 21
29.149129038
 31
0.0
100
AcDbText
 73
     3
  0
TEXT
  5
232
330
21C
100
AcDbEntity
  8
DV3_Default
  6
Continuous
 62
     7
 48
25.4
100
AcDbText
 10
365.1556293317
 20
25.549129038
 30
0.0
 40
2.7516666667
  1
¹
  7
SEACAD_arial_ttf
 11
365.1556293317
 21
28.3007957046
 31
0.0
100
AcDbText
 73
     3
  0
TEXT
  5
233
330
21C
100
AcDbEntity
  8
DV3_Default
  6
Continuous
 62
     7
 48
25.4
100
AcDbText
 10
241.516097035
 20
90.3572802521
 30
0.0
 40
3.6
  1
Total Gripping 
  7
SEACAD_arial_ttf
 11
241.516097035
 21
93.9572802521
 31
0.0
100
AcDbText
 73
     3
  0
TEXT
  5
234
330
21C
100
AcDbEntity
  8
DV3_Default
  6
Continuous
 62
     7
 48
25.4
100
AcDbText
 10
241.516097035
 20
84.7224976434
 30
0.0
 40
3.6
  1
Force in KN
  7
SEACAD_arial_ttf
 11
241.516097035
 21
88.3224976434
 31
0.0
100
AcDbText
 73
     3
  0
TEXT
  5
235
330
21C
100
AcDbEntity
  8
DV3_Default
  6
Continuous
 62
     7
 48
25.4
100
AcDbText
 10
296.6434100425
 20
146.2214598829
 30
0.0
 40
3.6
  1
Gripping Characteristic Graph For B-15A8
  7
SEACAD_arial_ttf
 11
296.6434100425
 21
149.8214598829
 31
0.0
100
AcDbText
 73
     3
  0
LWPOLYLINE
  5
236
330
21C
100
AcDbEntity
  8
DV3_Default
  6
Continuous
 62
     7
 48
25.4
100
AcDbPolyline
 90
        2
 70
     0
 43
0.0
 10
408.8574671255
 20
46.8095306022
 10
378.5381196347
 20
58.9569494637
  0
HATCH
  5
237
330
21C
100
AcDbEntity
  8
DV3_Default
  6
Continuous
 62
     7
 48
25.4
100
AcDbHatch
 10
0.0
 20
0.0
 30
0.0
210
0.0
220
0.0
230
1.0
  2
SOLID
 70
     1
 71
     0
 91
        1
 92
        1
 93
        3
 72
     1
 10
382.1030332886671
 20
58.17503458877378
 11
378.5381196347453
 21
58.95694946370927
 72
     1
 10
378.5381196347453
 20
58.95694946370926
 11
381.6567412398274
 21
57.06111204560641
 72
     1
 10
381.6567412398274
 20
57.06111204560642
 11
382.1030332886671
 21
58.17503458877378
 97
        0
 75
     0
 76
     1
 98
        0
  0
LWPOLYLINE
  5
238
330
21C
100
AcDbEntity
  8
DV3_Default
  6
Continuous
 62
     7
 48
25.4
370
    20
100
AcDbPolyline
 90
        4
 70
     1
 43
0.0
 10
382.1030332887
 20
58.1750345888
 10
378.5381196347
 20
58.9569494637
 10
381.6567412398
 20
57.0611120456
 10
382.1030332887
 20
58.1750345888
  0
LINE
  5
239
330
21C
100
AcDbEntity
  8
DV3_Default
  6
Continuous
 62
     7
 48
25.4
100
AcDbLine
 10
408.8574671255
 20
46.8095306022
 30
0.0
 11
460.9009453864
 21
46.8095306022
 31
0.0
  0
TEXT
  5
23A
330
21C
100
AcDbEntity
  8
DV3_Default
  6
Continuous
 62
     7
 48
25.4
100
AcDbText
 10
408.8574671255
 20
47.7095306022
 30
0.0
 40
3.6
  1
Revolution Speed Limit
  7
SEACAD_arial_ttf
 11
408.8574671255
 21
51.3095306022
 31
0.0
100
AcDbText
 73
     3
  0
TEXT
  5
23B
330
21C
100
AcDbEntity
  8
DV3_Default
  6
Continuous
 62
     7
 48
25.4
100
AcDbText
 10
25.8967587732
 20
128.2831184079
 30
0.0
 40
3.0
  1
SPINDLE NOSE SIZE
  7
SEACAD_arial_ttf
 11
25.8967587732
 21
131.2831184079
 31
0.0
100
AcDbText
 73
     3
  0
TEXT
  5
23C
330
21C
100
AcDbEntity
  8
DV3_Default
  6
Continuous
 62
     7
 48
25.4
100
AcDbText
 10
115.2278384459
 20
128.1840600593
 30
0.0
 40
3.0
  1
A2-8
  7
SEACAD_arial_ttf
 11
115.2278384459
 21
131.1840600593
 31
0.0
100
AcDbText
 73
     3
  0
TEXT
  5
23D
330
21C
100
AcDbEntity
  8
DV3_Default
  6
Continuous
 62
     7
 48
25.4
100
AcDbText
 10
26.2337417026
 20
63.8580749344
 30
0.0
 40
3.0
  1
TOTAL GRIPPING FORCE AT MAX. SPEED
  7
SEACAD_arial_ttf
 11
26.2337417026
 21
66.8580749344
 31
0.0
100
AcDbText
 73
     3
  0
TEXT
  5
23E
330
21C
100
AcDbEntity
  8
DV3_Default
  6
Continuous
 62
     7
 48
25.4
100
AcDbText
 10
115.1714159725
 20
20.3967822926
 30
0.0
 40
3.0
  1
SB15C1/KSJ-215
  7
SEACAD_arial_ttf
 11
115.1714159725
 21
23.3967822926
 31
0.0
100
AcDbText
 73
     3
  0
LINE
  5
23F
330
21C
100
AcDbEntity
  8
DV3_Default
  6
Continuous
 62
     7
 48
25.4
100
AcDbLine
 10
23.5456390004
 20
25.3897052563
 30
0.0
 11
167.5456390004
 21
25.3897052563
 31
0.0
  0
LINE
  5
240
330
21C
100
AcDbEntity
  8
DV3_Default
  6
Continuous
 62
     7
 48
25.4
100
AcDbLine
 10
167.5456390004
 20
133.3897052563
 30
0.0
 11
23.5456390004
 21
133.3897052563
 31
0.0
  0
LINE
  5
241
330
21C
100
AcDbEntity
  8
DV3_Default
  6
Continuous
 62
     7
 48
25.4
100
AcDbLine
 10
23.5456390004
 20
126.1897052563
 30
0.0
 11
167.5456390004
 21
126.1897052563
 31
0.0
  0
LINE
  5
242
330
21C
100
AcDbEntity
  8
DV3_Default
  6
Continuous
 62
     7
 48
25.4
100
AcDbLine
 10
167.5456390004
 20
118.9897052563
 30
0.0
 11
23.5456390004
 21
118.9897052563
 31
0.0
  0
LINE
  5
243
330
21C
100
AcDbEntity
  8
DV3_Default
  6
Continuous
 62
     7
 48
25.4
100
AcDbLine
 10
23.5456390004
 20
111.7897052563
 30
0.0
 11
167.5456390004
 21
111.7897052563
 31
0.0
  0
LINE
  5
244
330
21C
100
AcDbEntity
  8
DV3_Default
  6
Continuous
 62
     7
 48
25.4
100
AcDbLine
 10
167.5456390004
 20
104.5897052563
 30
0.0
 11
23.5456390004
 21
104.5897052563
 31
0.0
  0
LINE
  5
245
330
21C
100
AcDbEntity
  8
DV3_Default
  6
Continuous
 62
     7
 48
25.4
100
AcDbLine
 10
23.5456390004
 20
97.3897052563
 30
0.0
 11
167.5456390004
 21
97.3897052563
 31
0.0
  0
LINE
  5
246
330
21C
100
AcDbEntity
  8
DV3_Default
  6
Continuous
 62
     7
 48
25.4
100
AcDbLine
 10
167.5456390004
 20
90.1897052563
 30
0.0
 11
23.5456390004
 21
90.1897052563
 31
0.0
  0
LINE
  5
247
330
21C
100
AcDbEntity
  8
DV3_Default
  6
Continuous
 62
     7
 48
25.4
100
AcDbLine
 10
23.5456390004
 20
82.9897052563
 30
0.0
 11
167.5456390004
 21
82.9897052563
 31
0.0
  0
LINE
  5
248
330
21C
100
AcDbEntity
  8
DV3_Default
  6
Continuous
 62
     7
 48
25.4
100
AcDbLine
 10
167.5456390004
 20
75.7897052563
 30
0.0
 11
23.5456390004
 21
75.7897052563
 31
0.0
  0
LINE
  5
249
330
21C
100
AcDbEntity
  8
DV3_Default
  6
Continuous
 62
     7
 48
25.4
100
AcDbLine
 10
23.5456390004
 20
68.5897052563
 30
0.0
 11
167.5456390004
 21
68.5897052563
 31
0.0
  0
LINE
  5
24A
330
21C
100
AcDbEntity
  8
DV3_Default
  6
Continuous
 62
     7
 48
25.4
100
AcDbLine
 10
167.5456390004
 20
61.3897052563
 30
0.0
 11
23.5456390004
 21
61.3897052563
 31
0.0
  0
LINE
  5
24B
330
21C
100
AcDbEntity
  8
DV3_Default
  6
Continuous
 62
     7
 48
25.4
100
AcDbLine
 10
23.5456390004
 20
54.1897052563
 30
0.0
 11
167.5456390004
 21
54.1897052563
 31
0.0
  0
LINE
  5
24C
330
21C
100
AcDbEntity
  8
DV3_Default
  6
Continuous
 62
     7
 48
25.4
100
AcDbLine
 10
167.5456390004
 20
46.9897052563
 30
0.0
 11
23.5456390004
 21
46.9897052563
 31
0.0
  0
LINE
  5
24D
330
21C
100
AcDbEntity
  8
DV3_Default
  6
Continuous
 62
     7
 48
25.4
100
AcDbLine
 10
23.5456390004
 20
39.7897052563
 30
0.0
 11
167.5456390004
 21
39.7897052563
 31
0.0
  0
LINE
  5
24E
330
21C
100
AcDbEntity
  8
DV3_Default
  6
Continuous
 62
     7
 48
25.4
100
AcDbLine
 10
167.5456390004
 20
32.5897052563
 30
0.0
 11
23.5456390004
 21
32.5897052563
 31
0.0
  0
TEXT
  5
24F
330
21C
100
AcDbEntity
  8
DV3_Default
  6
Continuous
 62
     7
 48
25.4
100
AcDbText
 10
76.0056227953
 20
148.0946088676
 30
0.0
 40
3.6
  1
Specifications
  7
SEACAD_arial_ttf
 11
76.0056227953
 21
151.6946088676
 31
0.0
100
AcDbText
 73
     3
  0
TEXT
  5
250
330
21C
100
AcDbEntity
  8
DV3_Default
  6
Continuous
 62
     7
 48
25.4
100
AcDbText
 10
26.2530387906
 20
120.8483774958
 30
0.0
 40
3.0
  1
THROUGH HOLE
  7
SEACAD_arial_ttf
 11
26.2530387906
 21
123.8483774958
 31
0.0
100
AcDbText
 73
     3
  0
TEXT
  5
251
330
21C
100
AcDbEntity
  8
DV3_Default
  6
Continuous
 62
     7
 48
25.4
100
AcDbText
 10
114.9537365934
 20
121.0908582563
 30
0.0
 40
3.0
  1
117.5mm
  7
SEACAD_arial_ttf
 11
114.9537365934
 21
124.0908582563
 31
0.0
100
AcDbText
 73
     3
  0
TEXT
  5
252
330
21C
100
AcDbEntity
  8
DV3_Default
  6
Continuous
 62
     7
 48
25.4
100
AcDbText
 10
26.0783201786
 20
113.7973911263
 30
0.0
 40
3.0
  1
MAX. GRIPPING RANGE
  7
SEACAD_arial_ttf
 11
26.0783201786
 21
116.7973911263
 31
0.0
100
AcDbText
 73
     3
  0
TEXT
  5
253
330
21C
100
AcDbEntity
  8
DV3_Default
  6
Continuous
 62
     7
 48
25.4
100
AcDbText
 10
25.9595747818
 20
106.8879014727
 30
0.0
 40
3.0
  1
MIN. GRIPPING RANGE
  7
SEACAD_arial_ttf
 11
25.9595747818
 21
109.8879014727
 31
0.0
100
AcDbText
 73
     3
  0
TEXT
  5
254
330
21C
100
AcDbEntity
  8
DV3_Default
  6
Continuous
 62
     7
 48
25.4
100
AcDbText
 10
25.9798038744
 20
99.4936717164
 30
0.0
 40
3.0
  1
JAW STROKE
  7
SEACAD_arial_ttf
 11
25.9798038744
 21
102.4936717164
 31
0.0
100
AcDbText
 73
     3
  0
TEXT
  5
255
330
21C
100
AcDbEntity
  8
DV3_Default
  6
Continuous
 62
     7
 48
25.4
100
AcDbText
 10
25.9580950072
 20
92.1004844119
 30
0.0
 40
3.0
  1
PLUNGER STROKE
  7
SEACAD_arial_ttf
 11
25.9580950072
 21
95.1004844119
 31
0.0
100
AcDbText
 73
     3
  0
TEXT
  5
256
330
21C
100
AcDbEntity
  8
DV3_Default
  6
Continuous
 62
     7
 48
25.4
100
AcDbText
 10
25.9580950072
 20
84.8332787933
 30
0.0
 40
3.0
  1
MAX. DRAW BAR PULL FORCE
  7
SEACAD_arial_ttf
 11
25.9580950072
 21
87.8332787933
 31
0.0
100
AcDbText
 73
     3
  0
TEXT
  5
257
330
21C
100
AcDbEntity
  8
DV3_Default
  6
Continuous
 62
     7
 48
25.4
100
AcDbText
 10
26.042576056
 20
77.7920509393
 30
0.0
 40
3.0
  1
MAX. GRIPPING FORCE
  7
SEACAD_arial_ttf
 11
26.042576056
 21
80.7920509393
 31
0.0
100
AcDbText
 73
     3
  0
TEXT
  5
258
330
21C
100
AcDbEntity
  8
DV3_Default
  6
Continuous
 62
     7
 48
25.4
100
AcDbText
 10
26.0010754189
 20
70.6150828839
 30
0.0
 40
3.0
  1
MAX. SPEED
  7
SEACAD_arial_ttf
 11
26.0010754189
 21
73.6150828839
 31
0.0
100
AcDbText
 73
     3
  0
TEXT
  5
259
330
21C
100
AcDbEntity
  8
DV3_Default
  6
Continuous
 62
     7
 48
25.4
100
AcDbText
 10
26.0570486341
 20
56.2138896216
 30
0.0
 40
3.0
  1
NET WEIGHT WITH SOFT TOP JAWS
  7
SEACAD_arial_ttf
 11
26.0570486341
 21
59.2138896216
 31
0.0
100
AcDbText
 73
     3
  0
TEXT
  5
25A
330
21C
100
AcDbEntity
  8
DV3_Default
  6
Continuous
 62
     7
 48
25.4
100
AcDbText
 10
25.9440597518
 20
49.0441578554
 30
0.0
 40
3.0
  1
MOMENT OF INERTIA
  7
SEACAD_arial_ttf
 11
25.9440597518
 21
52.0441578554
 31
0.0
100
AcDbText
 73
     3
  0
TEXT
  5
25B
330
21C
100
AcDbEntity
  8
DV3_Default
  6
Continuous
 62
     7
 48
25.4
100
AcDbText
 10
25.992796678
 20
41.9184489526
 30
0.0
 40
3.0
  1
MATCHING CYLINDER
  7
SEACAD_arial_ttf
 11
25.992796678
 21
44.9184489526
 31
0.0
100
AcDbText
 73
     3
  0
TEXT
  5
25C
330
21C
100
AcDbEntity
  8
DV3_Default
  6
Continuous
 62
     7
 48
25.4
100
AcDbText
 10
26.1057855603
 20
34.6072204705
 30
0.0
 40
3.0
  1
MAX. PRESSURE
  7
SEACAD_arial_ttf
 11
26.1057855603
 21
37.6072204705
 31
0.0
100
AcDbText
 73
     3
  0
TEXT
  5
25D
330
21C
100
AcDbEntity
  8
DV3_Default
  6
Continuous
 62
     7
 48
25.4
100
AcDbText
 10
25.9642888445
 20
27.5230122048
 30
0.0
 40
3.0
  1
MATCHING HARD TOP JAW
  7
SEACAD_arial_ttf
 11
25.9642888445
 21
30.5230122048
 31
0.0
100
AcDbText
 73
     3
  0
TEXT
  5
25E
330
21C
100
AcDbEntity
  8
DV3_Default
  6
Continuous
 62
     7
 48
25.4
100
AcDbText
 10
25.9642888445
 20
20.8680081493
 30
0.0
 40
3.0
  1
MATCHING SOFT TOP JAW
  7
SEACAD_arial_ttf
 11
25.9642888445
 21
23.8680081493
 31
0.0
100
AcDbText
 73
     3
  0
LINE
  5
25F
330
21C
100
AcDbEntity
  8
DV3_Default
  6
Continuous
 62
     7
 48
25.4
100
AcDbLine
 10
23.5456390004
 20
18.1897052563
 30
0.0
 11
167.5456390004
 21
18.1897052563
 31
0.0
  0
LINE
  5
260
330
21C
100
AcDbEntity
  8
DV3_Default
  6
Continuous
 62
     7
 48
25.4
100
AcDbLine
 10
113.4359359005
 20
133.3897052563
 30
0.0
 11
113.4359359005
 21
18.1897052563
 31
0.0
  0
LINE
  5
261
330
21C
100
AcDbEntity
  8
DV3_Default
  6
Continuous
 62
     7
 48
25.4
100
AcDbLine
 10
23.5456390004
 20
133.3897052563
 30
0.0
 11
23.5456390004
 21
18.1897052563
 31
0.0
  0
LINE
  5
262
330
21C
100
AcDbEntity
  8
DV3_Default
  6
Continuous
 62
     7
 48
25.4
100
AcDbLine
 10
167.5456390004
 20
133.3897052563
 30
0.0
 11
167.5456390004
 21
18.1897052563
 31
0.0
  0
TEXT
  5
263
330
21C
100
AcDbEntity
  8
DV3_Default
  6
Continuous
 62
     7
 48
25.4
100
AcDbText
 10
115.1912092176
 20
113.8824756337
 30
0.0
 40
3.0
  1
381mm
  7
SEACAD_arial_ttf
 11
115.1912092176
 21
116.8824756337
 31
0.0
100
AcDbText
 73
     3
  0
TEXT
  5
264
330
21C
100
AcDbEntity
  8
DV3_Default
  6
Continuous
 62
     7
 48
25.4
100
AcDbText
 10
115.0166962623
 20
106.7247786958
 30
0.0
 40
3.0
  1
30mm
  7
SEACAD_arial_ttf
 11
115.0166962623
 21
109.7247786958
 31
0.0
100
AcDbText
 73
     3
  0
TEXT
  5
265
330
21C
100
AcDbEntity
  8
DV3_Default
  6
Continuous
 62
     7
 48
25.4
100
AcDbText
 10
114.9819482894
 20
99.439441298
 30
0.0
 40
3.0
  1
10.6mm
  7
SEACAD_arial_ttf
 11
114.9819482894
 21
102.439441298
 31
0.0
100
AcDbText
 73
     3
  0
TEXT
  5
266
330
21C
100
AcDbEntity
  8
DV3_Default
  6
Continuous
 62
     7
 48
25.4
100
AcDbText
 10
115.3274314031
 20
92.168361855
 30
0.0
 40
3.0
  1
23mm
  7
SEACAD_arial_ttf
 11
115.3274314031
 21
95.168361855
 31
0.0
100
AcDbText
 73
     3
  0
TEXT
  5
267
330
21C
100
AcDbEntity
  8
DV3_Default
  6
Continuous
 62
     7
 48
25.4
100
AcDbText
 10
115.2506280902
 20
85.0735202791
 30
0.0
 40
3.0
  1
71kN
  7
SEACAD_arial_ttf
 11
115.2506280902
 21
88.0735202791
 31
0.0
100
AcDbText
 73
     3
  0
TEXT
  5
268
330
21C
100
AcDbEntity
  8
DV3_Default
  6
Continuous
 62
     7
 48
25.4
100
AcDbText
 10
114.8276009483
 20
77.7339430725
 30
0.0
 40
3.0
  1
180kN
  7
SEACAD_arial_ttf
 11
114.8276009483
 21
80.7339430725
 31
0.0
100
AcDbText
 73
     3
  0
TEXT
  5
269
330
21C
100
AcDbEntity
  8
DV3_Default
  6
Continuous
 62
     7
 48
25.4
100
AcDbText
 10
115.2633816072
 20
70.6971230354
 30
0.0
 40
3.0
  1
2500min-
  7
SEACAD_arial_ttf
 11
115.2633816072
 21
73.6971230354
 31
0.0
100
AcDbText
 73
     3
  0
TEXT
  5
26A
330
21C
100
AcDbEntity
  8
DV3_Default
  6
Continuous
 62
     7
 48
25.4
100
AcDbText
 10
132.8720772594
 20
70.6971230354
 30
0.0
 40
2.7516666667
  1
¹
  7
SEACAD_arial_ttf
 11
132.8720772594
 21
73.4487897021
 31
0.0
100
AcDbText
 73
     3
  0
TEXT
  5
26B
330
21C
100
AcDbEntity
  8
DV3_Default
  6
Continuous
 62
     7
 48
25.4
100
AcDbText
 10
114.9026886938
 20
56.3838832064
 30
0.0
 40
3.0
  1
134.0kg
  7
SEACAD_arial_ttf
 11
114.9026886938
 21
59.3838832064
 31
0.0
100
AcDbText
 73
     3
  0
TEXT
  5
26C
330
21C
100
AcDbEntity
  8
DV3_Default
  6
Continuous
 62
     7
 48
25.4
100
AcDbText
 10
115.2513681669
 20
49.1720036684
 30
0.0
 40
3.0
  1
2.470kg.m
  7
SEACAD_arial_ttf
 11
115.2513681669
 21
52.1720036684
 31
0.0
100
AcDbText
 73
     3
  0
TEXT
  5
26D
330
21C
100
AcDbEntity
  8
DV3_Default
  6
Continuous
 62
     7
 48
25.4
100
AcDbText
 10
135.0774551235
 20
49.1720036684
 30
0.0
 40
2.7516666667
  1
²
  7
SEACAD_arial_ttf
 11
135.0774551235
 21
51.9236703351
 31
0.0
100
AcDbText
 73
     3
  0
TEXT
  5
26E
330
21C
100
AcDbEntity
  8
DV3_Default
  6
Continuous
 62
     7
 48
25.4
100
AcDbText
 10
114.9560195472
 20
41.7627523714
 30
0.0
 40
3.0
  1
F2511H
  7
SEACAD_arial_ttf
 11
114.9560195472
 21
44.7627523714
 31
0.0
100
AcDbText
 73
     3
  0
TEXT
  5
26F
330
21C
100
AcDbEntity
  8
DV3_Default
  6
Continuous
 62
     7
 48
25.4
100
AcDbText
 10
115.1718941453
 20
34.6882450425
 30
0.0
 40
3.0
  1
2.30MPa
  7
SEACAD_arial_ttf
 11
115.1718941453
 21
37.6882450425
 31
0.0
100
AcDbText
 73
     3
  0
TEXT
  5
270
330
21C
100
AcDbEntity
  8
DV3_Default
  6
Continuous
 62
     7
 48
25.4
100
AcDbText
 10
114.9663978911
 20
27.3361488821
 30
0.0
 40
3.0
  1
HB15A1
  7
SEACAD_arial_ttf
 11
114.9663978911
 21
30.3361488821
 31
0.0
100
AcDbText
 73
     3
  0
TEXT
  5
271
330
21C
100
AcDbEntity
  8
DV3_Default
  6
Continuous
 62
     7
 48
25.4
100
AcDbText
 10
277.1083951043
 20
111.7538044061
 30
0.0
 40
3.0
  1
140
  7
SEACAD_arial_ttf
 11
277.1083951043
 21
114.7538044061
 31
0.0
100
AcDbText
 73
     3
  0
LINE
  5
272
330
21C
100
AcDbEntity
  8
DV3_Default
  6
CENTER2
 62
     7
 48
25.4
100
AcDbLine
 10
193.496449421
 20
134.1676828539
 30
0.0
 11
226.783618
 21
134.1676828539
 31
0.0
  0
LINE
  5
273
330
21C
100
AcDbEntity
  8
DV3_Default
  6
Continuous
 62
     7
 48
25.4
100
AcDbLine
 10
284.6303751659
 20
51.9888594766
 30
0.0
 11
404.6303751659
 21
51.9888594766
 31
0.0
  0
LINE
  5
274
330
21C
100
AcDbEntity
  8
DV3_Default
  6
Continuous
 62
     7
 48
25.4
100
AcDbLine
 10
404.6303751659
 20
62.1888594766
 30
0.0
 11
284.6303751659
 21
62.1888594766
 31
0.0
  0
LINE
  5
275
330
21C
100
AcDbEntity
  8
DV3_Default
  6
Continuous
 62
     7
 48
25.4
100
AcDbLine
 10
284.6303751659
 20
72.3888594766
 30
0.0
 11
404.6303751659
 21
72.3888594766
 31
0.0
  0
LINE
  5
276
330
21C
100
AcDbEntity
  8
DV3_Default
  6
Continuous
 62
     7
 48
25.4
100
AcDbLine
 10
404.6303751659
 20
82.5888594766
 30
0.0
 11
284.6303751659
 21
82.5888594766
 31
0.0
  0
LINE
  5
277
330
21C
100
AcDbEntity
  8
DV3_Default
  6
Continuous
 62
     7
 48
25.4
100
AcDbLine
 10
284.6303751659
 20
92.7888594766
 30
0.0
 11
404.6303751659
 21
92.7888594766
 31
0.0
  0
LINE
  5
278
330
21C
100
AcDbEntity
  8
DV3_Default
  6
Continuous
 62
     7
 48
25.4
100
AcDbLine
 10
404.6303751659
 20
102.9888594766
 30
0.0
 11
284.6303751659
 21
102.9888594766
 31
0.0
  0
LINE
  5
279
330
21C
100
AcDbEntity
  8
DV3_Default
  6
Continuous
 62
     7
 48
25.4
100
AcDbLine
 10
284.6303751659
 20
113.1888594766
 30
0.0
 11
404.6303751659
 21
113.1888594766
 31
0.0
  0
LINE
  5
27A
330
21C
100
AcDbEntity
  8
DV3_Default
  6
Continuous
 62
     7
 48
25.4
100
AcDbLine
 10
404.6303751659
 20
123.3888594766
 30
0.0
 11
284.6303751659
 21
123.3888594766
 31
0.0
  0
TEXT
  5
27B
330
21C
100
AcDbEntity
  8
DV3_Default
  6
Continuous
 62
     7
 48
25.4
100
AcDbText
 10
277.1083951043
 20
121.9191878704
 30
0.0
 40
3.0
  1
160
  7
SEACAD_arial_ttf
 11
277.1083951043
 21
124.9191878704
 31
0.0
100
AcDbText
 73
     3
  0
TEXT
  5
27C
330
21C
100
AcDbEntity
  8
DV3_Default
  6
Continuous
 62
     7
 48
25.4
100
AcDbText
 10
277.1083951043
 20
131.970353543
 30
0.0
 40
3.0
  1
180
  7
SEACAD_arial_ttf
 11
277.1083951043
 21
134.970353543
 31
0.0
100
AcDbText
 73
     3
  0
TEXT
  5
27D
330
21C
100
AcDbEntity
  8
DV3_Default
  6
Continuous
 62
     7
 48
25.4
100
AcDbText
 10
304.9296039624
 20
36.7377822887
 30
0.0
 40
3.0
  1
500
  7
SEACAD_arial_ttf
 11
304.9296039624
 21
39.7377822887
 31
0.0
100
AcDbText
 73
     3
  0
TEXT
  5
27E
330
21C
100
AcDbEntity
  8
DV3_Default
  6
Continuous
 62
     7
 48
25.4
100
AcDbText
 10
351.9739351483
 20
36.8901392341
 30
0.0
 40
3.0
  1
1500
  7
SEACAD_arial_ttf
 11
351.9739351483
 21
39.8901392341
 31
0.0
100
AcDbText
 73
     3
  0
TEXT
  5
27F
330
21C
100
AcDbEntity
  8
DV3_Default
  6
Continuous
 62
     7
 48
25.4
100
AcDbText
 10
399.8583321242
 20
36.7393996661
 30
0.0
 40
3.0
  1
2500
  7
SEACAD_arial_ttf
 11
399.8583321242
 21
39.7393996661
 31
0.0
100
AcDbText
 73
     3
  0
LINE
  5
280
330
21C
100
AcDbEntity
  8
DV3_Default
  6
Continuous
 62
     7
 48
25.4
100
AcDbLine
 10
308.6303751659
 20
41.7888594766
 30
0.0
 11
308.6303751659
 21
133.5888594766
 31
0.0
  0
LINE
  5
281
330
21C
100
AcDbEntity
  8
DV3_Default
  6
Continuous
 62
     7
 48
25.4
100
AcDbLine
 10
332.6303751659
 20
133.5888594766
 30
0.0
 11
332.6303751659
 21
41.7888594766
 31
0.0
  0
LINE
  5
282
330
21C
100
AcDbEntity
  8
DV3_Default
  6
Continuous
 62
     7
 48
25.4
100
AcDbLine
 10
356.6303751659
 20
41.7888594766
 30
0.0
 11
356.6303751659
 21
133.5888594766
 31
0.0
  0
LINE
  5
283
330
21C
100
AcDbEntity
  8
DV3_Default
  6
Continuous
 62
     7
 48
25.4
100
AcDbLine
 10
380.6303751659
 20
133.5888594766
 30
0.0
 11
380.6303751659
 21
41.7888594766
 31
0.0
  0
ARC
  5
284
330
21C
100
AcDbEntity
  8
DV3_Default
  6
Continuous
 62
     7
 48
25.4
100
AcDbCircle
 10
276.6293169621
 20
304.4436613922
 30
0.0
 40
265.0164183467938
100
AcDbArc
 50
287.2601225019
 51
298.8810585745
  0
ARC
  5
285
330
21C
100
AcDbEntity
  8
DV3_Default
  6
Continuous
 62
     7
 48
25.4
100
AcDbCircle
 10
276.1750553857
 20
-85.1556764184
 30
0.0
 40
157.771268686567
100
AcDbArc
 50
59.9153721945
 51
86.9279175814
  0
ARC
  5
286
330
21C
100
AcDbEntity
  8
DV3_Default
  6
Continuous
 62
     7
 48
25.4
100
AcDbCircle
 10
272.8238682983
 20
-80.8123493122
 30
0.0
 40
174.0022221046388
100
AcDbArc
 50
53.4405354924
 51
86.1093418541
  0
ARC
  5
287
330
21C
100
AcDbEntity
  8
DV3_Default
  6
Continuous
 62
     7
 48
25.4
100
AcDbCircle
 10
276.4548669238
 20
-43.3252969568
 30
0.0
 40
156.7275345913873
100
AcDbArc
 50
43.6422113803
 51
87.0098756806
  0
ARC
  5
288
330
21C
100
AcDbEntity
  8
DV3_Default
  6
Continuous
 62
     7
 48
25.4
100
AcDbCircle
 10
274.0531441396
 20
-35.3978680259
 30
0.0
 40
169.3174293692328
100
AcDbArc
 50
39.5384265171
 51
86.4184103005
  0
TEXT
  5
289
330
21C
100
AcDbEntity
  8
DV3_Default
  6
Continuous
 62
     7
 48
25.4
100
AcDbText
 10
115.1122749054
 20
63.6120039524
 30
0.0
 40
3.0
  1
60kN
  7
SEACAD_arial_ttf
 11
115.1122749054
 21
66.6120039524
 31
0.0
100
AcDbText
 73
     3
  0
LINE
  5
28A
330
21C
100
AcDbEntity
  8
DV3_Default
  6
Continuous
 62
     7
 48
25.4
100
AcDbLine
 10
218.5264247237
 20
134.1676828539
 30
0.0
 11
223.4751454531
 21
134.1676828539
 31
0.0
  0
LINE
  5
28B
330
21C
100
AcDbEntity
  8
DV3_Default
  6
Continuous
 62
     7
 48
25.4
100
AcDbLine
 10
223.4751454531
 20
134.1676828539
 30
0.0
 11
223.4751454531
 21
127.5676828539
 31
0.0
  0
LINE
  5
28C
330
21C
100
AcDbEntity
  8
DV3_Default
  6
Continuous
 62
     7
 48
25.4
100
AcDbLine
 10
223.4751454531
 20
127.5676828539
 30
0.0
 11
218.9751454531
 21
127.5676828539
 31
0.0
  0
LINE
  5
28D
330
21C
100
AcDbEntity
  8
DV3_Default
  6
Continuous
 62
     7
 48
25.4
100
AcDbLine
 10
218.9751454531
 20
127.5676828539
 30
0.0
 11
218.9751454531
 21
126.9676828539
 31
0.0
  0
LINE
  5
28E
330
21C
100
AcDbEntity
  8
DV3_Default
  6
Continuous
 62
     7
 48
25.4
100
AcDbLine
 10
218.9751454531
 20
126.9676828539
 30
0.0
 11
201.5751454531
 21
126.9676828539
 31
0.0
  0
LINE
  5
28F
330
21C
100
AcDbEntity
  8
DV3_Default
  6
Continuous
 62
     7
 48
25.4
100
AcDbLine
 10
201.5751454531
 20
126.9676828539
 30
0.0
 11
201.5751454531
 21
124.1176828539
 31
0.0
  0
LINE
  5
290
330
21C
100
AcDbEntity
  8
DV3_Default
  6
Continuous
 62
     7
 48
25.4
100
AcDbLine
 10
196.1751454531
 20
134.1676828539
 30
0.0
 11
195.8751454531
 21
134.1676828539
 31
0.0
  0
LINE
  5
291
330
21C
100
AcDbEntity
  8
DV3_Default
  6
Continuous
 62
     7
 48
25.4
100
AcDbLine
 10
195.8751454531
 20
134.1676828539
 30
0.0
 11
195.8751454531
 21
125.0176828539
 31
0.0
  0
LINE
  5
292
330
21C
100
AcDbEntity
  8
DV3_Default
  6
Continuous
 62
     7
 48
25.4
100
AcDbLine
 10
197.0751454531
 20
123.8176828539
 30
0.0
 11
201.5751454531
 21
123.8176828539
 31
0.0
  0
LINE
  5
293
330
21C
100
AcDbEntity
  8
DV3_Default
  6
Continuous
 62
     7
 48
25.4
100
AcDbLine
 10
201.5751454531
 20
123.8176828539
 30
0.0
 11
201.8751454531
 21
123.8176828539
 31
0.0
  0
LINE
  5
294
330
21C
100
AcDbEntity
  8
DV3_Default
  6
Continuous
 62
     7
 48
25.4
100
AcDbLine
 10
201.8751454531
 20
126.6676828539
 30
0.0
 11
201.8751454531
 21
123.8176828539
 31
0.0
  0
LINE
  5
295
330
21C
100
AcDbEntity
  8
DV3_Default
  6
Continuous
 62
     7
 48
25.4
100
AcDbLine
 10
201.8751454531
 20
126.6676828539
 30
0.0
 11
210.2751454531
 21
126.6676828539
 31
0.0
  0
LINE
  5
296
330
21C
100
AcDbEntity
  8
DV3_Default
  6
Continuous
 62
     7
 48
25.4
100
AcDbLine
 10
210.2751454531
 20
126.6676828539
 30
0.0
 11
210.2751454531
 21
126.9676828539
 31
0.0
  0
LINE
  5
297
330
21C
100
AcDbEntity
  8
DV3_Default
  6
Continuous
 62
     7
 48
25.4
100
AcDbLine
 10
196.1751454531
 20
125.9176828539
 30
0.0
 11
196.1751454531
 21
134.1676828539
 31
0.0
  0
LINE
  5
298
330
21C
100
AcDbEntity
  8
DV3_Default
  6
Continuous
 62
     7
 48
25.4
100
AcDbLine
 10
197.9751454531
 20
124.1176828539
 30
0.0
 11
201.5751454531
 21
124.1176828539
 31
0.0
  0
ARC
  5
299
330
21C
100
AcDbEntity
  8
DV3_Default
  6
Continuous
 62
     7
 48
25.4
100
AcDbCircle
 10
197.0751454531
 20
125.0176828539
 30
0.0
 40
1.2
100
AcDbArc
 50
180.0
 51
270.0
  0
LINE
  5
29A
330
21C
100
AcDbEntity
  8
DV3_Default
  6
Continuous
 62
     7
 48
25.4
100
AcDbLine
 10
223.4751454531
 20
134.1676828539
 30
0.0
 11
223.4751454531
 21
127.5676828539
 31
0.0
  0
LINE
  5
29B
330
21C
100
AcDbEntity
  8
DV3_Default
  6
Continuous
 62
     7
 48
25.4
100
AcDbLine
 10
218.5264247237
 20
134.1676828539
 30
0.0
 11
223.4751454531
 21
134.1676828539
 31
0.0
  0
LINE
  5
29C
330
21C
100
AcDbEntity
  8
DV3_Default
  6
Continuous
 62
     7
 48
25.4
100
AcDbLine
 10
223.4751454531
 20
134.1676828539
 30
0.0
 11
223.4751454531
 21
140.7676828539
 31
0.0
  0
LINE
  5
29D
330
21C
100
AcDbEntity
  8
DV3_Default
  6
Continuous
 62
     7
 48
25.4
100
AcDbLine
 10
223.4751454531
 20
140.7676828539
 30
0.0
 11
218.9751454531
 21
140.7676828539
 31
0.0
  0
LINE
  5
29E
330
21C
100
AcDbEntity
  8
DV3_Default
  6
Continuous
 62
     7
 48
25.4
100
AcDbLine
 10
218.9751454531
 20
140.7676828539
 30
0.0
 11
218.9751454531
 21
141.3676828539
 31
0.0
  0
LINE
  5
29F
330
21C
100
AcDbEntity
  8
DV3_Default
  6
Continuous
 62
     7
 48
25.4
100
AcDbLine
 10
218.9751454531
 20
141.3676828539
 30
0.0
 11
201.5751454531
 21
141.3676828539
 31
0.0
  0
LINE
  5
2A0
330
21C
100
AcDbEntity
  8
DV3_Default
  6
Continuous
 62
     7
 48
25.4
100
AcDbLine
 10
201.5751454531
 20
141.3676828539
 30
0.0
 11
201.5751454531
 21
144.2176828539
 31
0.0
  0
LINE
  5
2A1
330
21C
100
AcDbEntity
  8
DV3_Default
  6
Continuous
 62
     7
 48
25.4
100
AcDbLine
 10
196.1751454531
 20
134.1676828539
 30
0.0
 11
195.8751454531
 21
134.1676828539
 31
0.0
  0
LINE
  5
2A2
330
21C
100
AcDbEntity
  8
DV3_Default
  6
Continuous
 62
     7
 48
25.4
100
AcDbLine
 10
195.8751454531
 20
134.1676828539
 30
0.0
 11
195.8751454531
 21
143.3176828539
 31
0.0
  0
LINE
  5
2A3
330
21C
100
AcDbEntity
  8
DV3_Default
  6
Continuous
 62
     7
 48
25.4
100
AcDbLine
 10
197.0751454531
 20
144.5176828539
 30
0.0
 11
201.5751454531
 21
144.5176828539
 31
0.0
  0
LINE
  5
2A4
330
21C
100
AcDbEntity
  8
DV3_Default
  6
Continuous
 62
     7
 48
25.4
100
AcDbLine
 10
201.5751454531
 20
144.5176828539
 30
0.0
 11
201.8751454531
 21
144.5176828539
 31
0.0
  0
LINE
  5
2A5
330
21C
100
AcDbEntity
  8
DV3_Default
  6
Continuous
 62
     7
 48
25.4
100
AcDbLine
 10
201.8751454531
 20
141.6676828539
 30
0.0
 11
201.8751454531
 21
144.5176828539
 31
0.0
  0
LINE
  5
2A6
330
21C
100
AcDbEntity
  8
DV3_Default
  6
Continuous
 62
     7
 48
25.4
100
AcDbLine
 10
201.8751454531
 20
141.6676828539
 30
0.0
 11
210.2751454531
 21
141.6676828539
 31
0.0
  0
LINE
  5
2A7
330
21C
100
AcDbEntity
  8
DV3_Default
  6
Continuous
 62
     7
 48
25.4
100
AcDbLine
 10
210.2751454531
 20
141.6676828539
 30
0.0
 11
210.2751454531
 21
141.3676828539
 31
0.0
  0
LINE
  5
2A8
330
21C
100
AcDbEntity
  8
DV3_Default
  6
Continuous
 62
     7
 48
25.4
100
AcDbLine
 10
196.1751454531
 20
142.4176828539
 30
0.0
 11
196.1751454531
 21
134.1676828539
 31
0.0
  0
LINE
  5
2A9
330
21C
100
AcDbEntity
  8
DV3_Default
  6
Continuous
 62
     7
 48
25.4
100
AcDbLine
 10
197.9751454531
 20
144.2176828539
 30
0.0
 11
201.5751454531
 21
144.2176828539
 31
0.0
  0
ARC
  5
2AA
330
21C
100
AcDbEntity
  8
DV3_Default
  6
Continuous
 62
     7
 48
25.4
100
AcDbCircle
 10
197.0751454531
 20
143.3176828539
 30
0.0
 40
1.2
100
AcDbArc
 50
90.0
 51
180.0
  0
LINE
  5
2AB
330
21C
100
AcDbEntity
  8
DV3_Default
  6
Continuous
 62
     7
 48
25.4
100
AcDbLine
 10
223.4751454531
 20
134.1676828539
 30
0.0
 11
223.4751454531
 21
140.7676828539
 31
0.0
  0
LINE
  5
2AC
330
21C
100
AcDbEntity
  8
DV3_Default
  6
Continuous
 62
     7
 48
25.4
100
AcDbLine
 10
223.4751454531
 20
140.7676828539
 30
0.0
 11
219.8751454531
 21
140.7676828539
 31
0.0
  0
LINE
  5
2AD
330
21C
100
AcDbEntity
  8
DV3_Default
  6
Continuous
 62
     7
 48
25.4
100
AcDbLine
 10
219.8751454531
 20
142.2676828539
 30
0.0
 11
219.8751454531
 21
151.8676828539
 31
0.0
  0
LINE
  5
2AE
330
21C
100
AcDbEntity
  8
DV3_Default
  6
Continuous
 62
     7
 48
25.4
100
AcDbLine
 10
218.9751454531
 20
152.7676828539
 30
0.0
 11
204.3330064461
 21
152.7676828539
 31
0.0
  0
LINE
  5
2AF
330
21C
100
AcDbEntity
  8
DV3_Default
  6
Continuous
 62
     7
 48
25.4
100
AcDbLine
 10
218.9751454531
 20
141.3676828539
 30
0.0
 11
219.8751454531
 21
142.2676828539
 31
0.0
  0
LINE
  5
2B0
330
21C
100
AcDbEntity
  8
DV3_Default
  6
Continuous
 62
     7
 48
25.4
100
AcDbLine
 10
218.9751454531
 20
152.7676828539
 30
0.0
 11
219.8751454531
 21
151.8676828539
 31
0.0
  0
LINE
  5
2B1
330
21C
100
AcDbEntity
  8
DV3_Default
  6
Continuous
 62
     7
 48
25.4
100
AcDbLine
 10
219.2884884561
 20
152.4543398509
 30
0.0
 11
219.2884884561
 21
141.6810258569
 31
0.0
  0
LINE
  5
2B2
330
21C
100
AcDbEntity
  8
DV3_Default
  6
Continuous
 62
     7
 48
25.4
100
AcDbLine
 10
216.8751454531
 20
152.7676828539
 30
0.0
 11
216.8751454531
 21
164.7676828539
 31
0.0
  0
LINE
  5
2B3
330
21C
100
AcDbEntity
  8
DV3_Default
  6
Continuous
 62
     7
 48
25.4
100
AcDbLine
 10
218.9751454531
 20
127.5676828539
 30
0.0
 11
218.9751454531
 21
126.9676828539
 31
0.0
  0
LINE
  5
2B4
330
21C
100
AcDbEntity
  8
DV3_Default
  6
Continuous
 62
     7
 48
25.4
100
AcDbLine
 10
210.2751454531
 20
126.6676828539
 30
0.0
 11
210.2751454531
 21
126.9676828539
 31
0.0
  0
LINE
  5
2B5
330
21C
100
AcDbEntity
  8
DV3_Default
  6
Continuous
 62
     7
 48
25.4
100
AcDbLine
 10
219.8751454531
 20
126.0676828539
 30
0.0
 11
219.8751454531
 21
116.4676828539
 31
0.0
  0
LINE
  5
2B6
330
21C
100
AcDbEntity
  8
DV3_Default
  6
Continuous
 62
     7
 48
25.4
100
AcDbLine
 10
218.9751454531
 20
115.5676828539
 30
0.0
 11
204.3330064461
 21
115.5676828539
 31
0.0
  0
LINE
  5
2B7
330
21C
100
AcDbEntity
  8
DV3_Default
  6
Continuous
 62
     7
 48
25.4
100
AcDbLine
 10
218.9751454531
 20
126.9676828539
 30
0.0
 11
219.8751454531
 21
126.0676828539
 31
0.0
  0
LINE
  5
2B8
330
21C
100
AcDbEntity
  8
DV3_Default
  6
Continuous
 62
     7
 48
25.4
100
AcDbLine
 10
218.9751454531
 20
115.5676828539
 30
0.0
 11
219.8751454531
 21
116.4676828539
 31
0.0
  0
LINE
  5
2B9
330
21C
100
AcDbEntity
  8
DV3_Default
  6
Continuous
 62
     7
 48
25.4
100
AcDbLine
 10
219.2884884561
 20
115.8810258569
 30
0.0
 11
219.2884884561
 21
126.6543398509
 31
0.0
  0
LINE
  5
2BA
330
21C
100
AcDbEntity
  8
DV3_Default
  6
Continuous
 62
     7
 48
25.4
100
AcDbLine
 10
216.8751454531
 20
115.5676828539
 30
0.0
 11
216.8751454531
 21
103.5676828539
 31
0.0
  0
LINE
  5
2BB
330
21C
100
AcDbEntity
  8
DV3_Default
  6
Continuous
 62
     7
 48
25.4
100
AcDbLine
 10
196.1751454531
 20
142.4176828539
 30
0.0
 11
197.9751454531
 21
144.2176828539
 31
0.0
  0
LINE
  5
2BC
330
21C
100
AcDbEntity
  8
DV3_Default
  6
Continuous
 62
     7
 48
25.4
100
AcDbLine
 10
197.9751454531
 20
124.1176828539
 30
0.0
 11
196.1751454531
 21
125.9176828539
 31
0.0
  0
ENDBLK
  5
2BE
330
21C
100
AcDbEntity
  8
0
100
AcDbBlockEnd
  0
BLOCK
  5
2CA
330
2BF
100
AcDbEntity
  8
0
100
AcDbBlockBegin
  2
GDimGGroup
 70
     0
 71
     0
 10
0.0
 20
0.0
 30
0.0
  3
GDimGGroup
  1

  0
HATCH
  5
2C1
330
2BF
100
AcDbEntity
  8
Default
  6
Continuous
 62
     7
 48
25.4
100
AcDbHatch
 10
0.0
 20
0.0
 30
0.0
210
0.0
220
0.0
230
1.0
  2
SOLID
 70
     1
 71
     0
 91
        1
 92
        1
 93
        3
 72
     1
 10
237.5600563493594
 20
131.567683043876
 11
236.2267229526962
 21
131.567683043876
 72
     1
 10
236.2267229526962
 20
131.567683043876
 11
236.8933896510278
 21
127.5676828538862
 72
     1
 10
236.8933896510278
 20
127.5676828538862
 11
237.5600563493594
 21
131.567683043876
 97
        0
 75
     0
 76
     1
 98
        0
  0
LWPOLYLINE
  5
2C2
330
2BF
100
AcDbEntity
  8
Default
  6
Continuous
 62
     7
 48
25.4
370
    20
100
AcDbPolyline
 90
        4
 70
     1
 43
0.0
 10
237.5600563494
 20
131.5676830439
 10
236.893389651
 20
127.5676828539
 10
236.2267229527
 20
131.5676830439
 10
237.5600563494
 20
131.5676830439
  0
HATCH
  5
2C3
330
2BF
100
AcDbEntity
  8
Default
  6
Continuous
 62
     7
 48
25.4
100
AcDbHatch
 10
0.0
 20
0.0
 30
0.0
210
0.0
220
0.0
230
1.0
  2
SOLID
 70
     1
 71
     0
 91
        1
 92
        1
 93
        3
 72
     1
 10
237.5600563493594
 20
136.7676825923708
 11
236.8933896510278
 21
140.7676827823606
 72
     1
 10
236.8933896510278
 20
140.7676827823606
 11
236.2267229526962
 21
136.7676825923708
 72
     1
 10
236.2267229526962
 20
136.7676825923708
 11
237.5600563493594
 21
136.7676825923708
 97
        0
 75
     0
 76
     1
 98
        0
  0
LWPOLYLINE
  5
2C4
330
2BF
100
AcDbEntity
  8
Default
  6
Continuous
 62
     7
 48
25.4
370
    20
100
AcDbPolyline
 90
        4
 70
     1
 43
0.0
 10
237.5600563494
 20
136.7676825924
 10
236.893389651
 20
140.7676827824
 10
236.2267229527
 20
136.7676825924
 10
237.5600563494
 20
136.7676825924
  0
LINE
  5
2C5
330
2BF
100
AcDbEntity
  8
Default
  6
Continuous
 62
     7
 48
25.4
100
AcDbLine
 10
223.4751454531
 20
127.5676828539
 30
0.0
 11
238.893389746
 21
127.5676828539
 31
0.0
  0
LINE
  5
2C6
330
2BF
100
AcDbEntity
  8
Default
  6
Continuous
 62
     7
 48
25.4
100
AcDbLine
 10
223.4751454531
 20
140.7676828539
 30
0.0
 11
238.893389746
 21
140.7676828539
 31
0.0
  0
LINE
  5
2C7
330
2BF
100
AcDbEntity
  8
Default
  6
Continuous
 62
     7
 48
25.4
100
AcDbLine
 10
236.893389651
 20
87.2177076256
 30
0.0
 11
236.893389651
 21
140.7676827824
 31
0.0
  0
TEXT
  5
2C8
330
2BF
100
AcDbEntity
  8
Default
  6
Continuous
 62
     7
 48
25.4
100
AcDbText
 10
235.893389651
 20
88.6177086273
 30
0.0
 40
4.0
  1
22
 50
90.0
  7
SEACAD_arial_ttf
 11
231.893389651
 21
88.6177086273
 31
0.0
100
AcDbText
 73
     3
  0
TEXT
  5
2C9
330
2BF
100
AcDbEntity
  8
Default
  6
Continuous
 62
     7
 48
25.4
100
AcDbText
 10
235.893389651
 20
97.2785781925
 30
0.0
 40
4.0
  1
H8/h8
 50
90.0
  7
SEACAD_arial_ttf
 11
231.893389651
 21
97.2785781925
 31
0.0
100
AcDbText
 73
     3
  0
ENDBLK
  5
2CB
330
2BF
100
AcDbEntity
  8
0
100
AcDbBlockEnd
  0
BLOCK
  5
2D6
330
2CC
100
AcDbEntity
  8
0
100
AcDbBlockBegin
  2
GDimGGroup1
 70
     0
 71
     0
 10
0.0
 20
0.0
 30
0.0
  3
GDimGGroup1
  1

  0
HATCH
  5
2CE
330
2CC
100
AcDbEntity
  8
Default
  6
Continuous
 62
     7
 48
25.4
100
AcDbHatch
 10
0.0
 20
0.0
 30
0.0
210
0.0
220
0.0
230
1.0
  2
SOLID
 70
     1
 71
     0
 91
        1
 92
        1
 93
        3
 72
     1
 10
248.6945074108466
 20
130.967683043876
 11
247.3611740141834
 21
130.967683043876
 72
     1
 10
247.3611740141834
 20
130.967683043876
 11
248.027840712515
 21
126.9676828538862
 72
     1
 10
248.027840712515
 20
126.9676828538862
 11
248.6945074108466
 21
130.967683043876
 97
        0
 75
     0
 76
     1
 98
        0
  0
LWPOLYLINE
  5
2CF
330
2CC
100
AcDbEntity
  8
Default
  6
Continuous
 62
     7
 48
25.4
370
    20
100
AcDbPolyline
 90
        4
 70
     1
 43
0.0
 10
248.6945074108
 20
130.9676830439
 10
248.0278407125
 20
126.9676828539
 10
247.3611740142
 20
130.9676830439
 10
248.6945074108
 20
130.9676830439
  0
HATCH
  5
2D0
330
2CC
100
AcDbEntity
  8
Default
  6
Continuous
 62
     7
 48
25.4
100
AcDbHatch
 10
0.0
 20
0.0
 30
0.0
210
0.0
220
0.0
230
1.0
  2
SOLID
 70
     1
 71
     0
 91
        1
 92
        1
 93
        3
 72
     1
 10
248.6945074108466
 20
137.3676824165371
 11
248.027840712515
 21
141.3676826065269
 72
     1
 10
248.027840712515
 20
141.3676826065269
 11
247.3611740141834
 21
137.3676824165371
 72
     1
 10
247.3611740141834
 20
137.3676824165371
 11
248.6945074108466
 21
137.3676824165371
 97
        0
 75
     0
 76
     1
 98
        0
  0
LWPOLYLINE
  5
2D1
330
2CC
100
AcDbEntity
  8
Default
  6
Continuous
 62
     7
 48
25.4
370
    20
100
AcDbPolyline
 90
        4
 70
     1
 43
0.0
 10
248.6945074108
 20
137.3676824165
 10
248.0278407125
 20
141.3676826065
 10
247.3611740142
 20
137.3676824165
 10
248.6945074108
 20
137.3676824165
  0
LINE
  5
2D2
330
2CC
100
AcDbEntity
  8
Default
  6
Continuous
 62
     7
 48
25.4
100
AcDbLine
 10
218.9751454531
 20
126.9676828539
 30
0.0
 11
250.0278408075
 21
126.9676828539
 31
0.0
  0
LINE
  5
2D3
330
2CC
100
AcDbEntity
  8
Default
  6
Continuous
 62
     7
 48
25.4
100
AcDbLine
 10
218.9751454531
 20
141.3676828539
 30
0.0
 11
250.0278408075
 21
141.3676828539
 31
0.0
  0
LINE
  5
2D4
330
2CC
100
AcDbEntity
  8
Default
  6
Continuous
 62
     7
 48
25.4
100
AcDbLine
 10
248.0278407125
 20
126.9676828539
 30
0.0
 11
248.0278407125
 21
141.3676826065
 31
0.0
  0
TEXT
  5
2D5
330
2CC
100
AcDbEntity
  8
Default
  6
Continuous
 62
     7
 48
25.4
100
AcDbText
 10
247.0278407125
 20
131.0372479476
 30
0.0
 40
4.0
  1
24
 50
90.0
  7
SEACAD_arial_ttf
 11
243.0278407125
 21
131.0372479476
 31
0.0
100
AcDbText
 73
     3
  0
ENDBLK
  5
2D7
330
2CC
100
AcDbEntity
  8
0
100
AcDbBlockEnd
  0
BLOCK
  5
2E2
330
2D8
100
AcDbEntity
  8
0
100
AcDbBlockBegin
  2
GDimGGroup2
 70
     0
 71
     0
 10
0.0
 20
0.0
 30
0.0
  3
GDimGGroup2
  1

  0
HATCH
  5
2DA
330
2D8
100
AcDbEntity
  8
Default
  6
Continuous
 62
     7
 48
25.4
100
AcDbHatch
 10
0.0
 20
0.0
 30
0.0
210
0.0
220
0.0
230
1.0
  2
SOLID
 70
     1
 71
     0
 91
        1
 92
        1
 93
        3
 72
     1
 10
261.1066810843572
 20
119.567683043876
 11
259.7733476876938
 21
119.567683043876
 72
     1
 10
259.7733476876938
 20
119.567683043876
 11
260.4400143860255
 21
115.5676828538862
 72
     1
 10
260.4400143860255
 20
115.5676828538862
 11
261.1066810843572
 21
119.567683043876
 97
        0
 75
     0
 76
     1
 98
        0
  0
LWPOLYLINE
  5
2DB
330
2D8
100
AcDbEntity
  8
Default
  6
Continuous
 62
     7
 48
25.4
370
    20
100
AcDbPolyline
 90
        4
 70
     1
 43
0.0
 10
261.1066810844
 20
119.5676830439
 10
260.440014386
 20
115.5676828539
 10
259.7733476877
 20
119.5676830439
 10
261.1066810844
 20
119.5676830439
  0
HATCH
  5
2DC
330
2D8
100
AcDbEntity
  8
Default
  6
Continuous
 62
     7
 48
25.4
100
AcDbHatch
 10
0.0
 20
0.0
 30
0.0
210
0.0
220
0.0
230
1.0
  2
SOLID
 70
     1
 71
     0
 91
        1
 92
        1
 93
        3
 72
     1
 10
261.1066810843572
 20
148.7676828009871
 11
260.4400143860255
 21
152.7676829909769
 72
     1
 10
260.4400143860255
 20
152.7676829909769
 11
259.7733476876938
 21
148.7676828009871
 72
     1
 10
259.7733476876938
 20
148.7676828009871
 11
261.1066810843572
 21
148.7676828009871
 97
        0
 75
     0
 76
     1
 98
        0
  0
LWPOLYLINE
  5
2DD
330
2D8
100
AcDbEntity
  8
Default
  6
Continuous
 62
     7
 48
25.4
370
    20
100
AcDbPolyline
 90
        4
 70
     1
 43
0.0
 10
261.1066810844
 20
148.767682801
 10
260.440014386
 20
152.767682991
 10
259.7733476877
 20
148.767682801
 10
261.1066810844
 20
148.767682801
  0
LINE
  5
2DE
330
2D8
100
AcDbEntity
  8
Default
  6
Continuous
 62
     7
 48
25.4
100
AcDbLine
 10
218.9751454531
 20
115.5676828539
 30
0.0
 11
262.440014481
 21
115.5676828539
 31
0.0
  0
LINE
  5
2DF
330
2D8
100
AcDbEntity
  8
Default
  6
Continuous
 62
     7
 48
25.4
100
AcDbLine
 10
218.9751454116
 20
152.7676828539
 30
0.0
 11
262.440014481
 21
152.7676828539
 31
0.0
  0
LINE
  5
2E0
330
2D8
100
AcDbEntity
  8
Default
  6
Continuous
 62
     7
 48
25.4
100
AcDbLine
 10
260.440014386
 20
115.5676828539
 30
0.0
 11
260.440014386
 21
152.767682991
 31
0.0
  0
TEXT
  5
2E1
330
2D8
100
AcDbEntity
  8
Default
  6
Continuous
 62
     7
 48
25.4
100
AcDbText
 10
259.440014386
 20
131.0372481398
 30
0.0
 40
4.0
  1
62
 50
90.0
  7
SEACAD_arial_ttf
 11
255.440014386
 21
131.0372481398
 31
0.0
100
AcDbText
 73
     3
  0
ENDBLK
  5
2E3
330
2D8
100
AcDbEntity
  8
0
100
AcDbBlockEnd
  0
BLOCK
  5
2EE
330
2E4
100
AcDbEntity
  8
0
100
AcDbBlockBegin
  2
GDimGGroup3
 70
     0
 71
     0
 10
0.0
 20
0.0
 30
0.0
  3
GDimGGroup3
  1

  0
HATCH
  5
2E6
330
2E4
100
AcDbEntity
  8
Default
  6
Continuous
 62
     7
 48
25.4
100
AcDbHatch
 10
0.0
 20
0.0
 30
0.0
210
0.0
220
0.0
230
1.0
  2
SOLID
 70
     1
 71
     0
 91
        1
 92
        1
 93
        3
 72
     1
 10
212.8751452630733
 20
166.7391418967879
 11
212.8751452630733
 21
165.4058085001247
 72
     1
 10
212.8751452630733
 20
165.4058085001247
 11
216.8751454530631
 21
166.0724751984563
 72
     1
 10
216.8751454530631
 20
166.0724751984563
 11
212.8751452630733
 21
166.7391418967879
 97
        0
 75
     0
 76
     1
 98
        0
  0
LWPOLYLINE
  5
2E7
330
2E4
100
AcDbEntity
  8
Default
  6
Continuous
 62
     7
 48
25.4
370
    20
100
AcDbPolyline
 90
        4
 70
     1
 43
0.0
 10
212.8751452631
 20
166.7391418968
 10
216.8751454531
 20
166.0724751985
 10
212.8751452631
 20
165.4058085001
 10
212.8751452631
 20
166.7391418968
  0
HATCH
  5
2E8
330
2E4
100
AcDbEntity
  8
Default
  6
Continuous
 62
     7
 48
25.4
100
AcDbHatch
 10
0.0
 20
0.0
 30
0.0
210
0.0
220
0.0
230
1.0
  2
SOLID
 70
     1
 71
     0
 91
        1
 92
        1
 93
        3
 72
     1
 10
223.8751456430529
 20
166.7391418967879
 11
219.8751454530631
 21
166.0724751984563
 72
     1
 10
219.8751454530631
 20
166.0724751984563
 11
223.8751456430529
 21
165.4058085001247
 72
     1
 10
223.8751456430529
 20
165.4058085001247
 11
223.8751456430529
 21
166.7391418967879
 97
        0
 75
     0
 76
     1
 98
        0
  0
LWPOLYLINE
  5
2E9
330
2E4
100
AcDbEntity
  8
Default
  6
Continuous
 62
     7
 48
25.4
370
    20
100
AcDbPolyline
 90
        4
 70
     1
 43
0.0
 10
223.8751456431
 20
166.7391418968
 10
219.8751454531
 20
166.0724751985
 10
223.8751456431
 20
165.4058085001
 10
223.8751456431
 20
166.7391418968
  0
LINE
  5
2EA
330
2E4
100
AcDbEntity
  8
Default
  6
Continuous
 62
     7
 48
25.4
100
AcDbLine
 10
216.8751454531
 20
152.7676828539
 30
0.0
 11
216.8751454531
 21
168.0724752935
 31
0.0
  0
LINE
  5
2EB
330
2E4
100
AcDbEntity
  8
Default
  6
Continuous
 62
     7
 48
25.4
100
AcDbLine
 10
219.8751454531
 20
151.8676828539
 30
0.0
 11
219.8751454531
 21
168.0724752935
 31
0.0
  0
LINE
  5
2EC
330
2E4
100
AcDbEntity
  8
Default
  6
Continuous
 62
     7
 48
25.4
100
AcDbLine
 10
208.056425917
 20
166.0724751985
 30
0.0
 11
227.8751453935
 21
166.0724751985
 31
0.0
  0
TEXT
  5
2ED
330
2E4
100
AcDbEntity
  8
Default
  6
Continuous
 62
     7
 48
25.4
100
AcDbText
 10
209.4564260468
 20
167.0724751985
 30
0.0
 40
4.0
  1
5
  7
SEACAD_arial_ttf
 11
209.4564260468
 21
171.0724751985
 31
0.0
100
AcDbText
 73
     3
  0
ENDBLK
  5
2EF
330
2E4
100
AcDbEntity
  8
0
100
AcDbBlockEnd
  0
BLOCK
  5
2FA
330
2F0
100
AcDbEntity
  8
0
100
AcDbBlockBegin
  2
GDimGGroup4
 70
     0
 71
     0
 10
0.0
 20
0.0
 30
0.0
  3
GDimGGroup4
  1

  0
HATCH
  5
2F2
330
2F0
100
AcDbEntity
  8
Default
  6
Continuous
 62
     7
 48
25.4
100
AcDbHatch
 10
0.0
 20
0.0
 30
0.0
210
0.0
220
0.0
230
1.0
  2
SOLID
 70
     1
 71
     0
 91
        1
 92
        1
 93
        3
 72
     1
 10
215.8751452630733
 20
166.739142230574
 11
215.8751452630733
 21
165.4058088339107
 72
     1
 10
215.8751452630733
 20
165.4058088339107
 11
219.8751454530631
 21
166.0724755322423
 72
     1
 10
219.8751454530631
 20
166.0724755322423
 11
215.8751452630733
 21
166.739142230574
 97
        0
 75
     0
 76
     1
 98
        0
  0
LWPOLYLINE
  5
2F3
330
2F0
100
AcDbEntity
  8
Default
  6
Continuous
 62
     7
 48
25.4
370
    20
100
AcDbPolyline
 90
        4
 70
     1
 43
0.0
 10
215.8751452631
 20
166.7391422306
 10
219.8751454531
 20
166.0724755322
 10
215.8751452631
 20
165.4058088339
 10
215.8751452631
 20
166.7391422306
  0
HATCH
  5
2F4
330
2F0
100
AcDbEntity
  8
Default
  6
Continuous
 62
     7
 48
25.4
100
AcDbHatch
 10
0.0
 20
0.0
 30
0.0
210
0.0
220
0.0
230
1.0
  2
SOLID
 70
     1
 71
     0
 91
        1
 92
        1
 93
        3
 72
     1
 10
227.4751456430529
 20
166.739142230574
 11
223.4751454530631
 21
166.0724755322423
 72
     1
 10
223.4751454530631
 20
166.0724755322423
 11
227.4751456430529
 21
165.4058088339107
 72
     1
 10
227.4751456430529
 20
165.4058088339107
 11
227.4751456430529
 21
166.739142230574
 97
        0
 75
     0
 76
     1
 98
        0
  0
LWPOLYLINE
  5
2F5
330
2F0
100
AcDbEntity
  8
Default
  6
Continuous
 62
     7
 48
25.4
370
    20
100
AcDbPolyline
 90
        4
 70
     1
 43
0.0
 10
227.4751456431
 20
166.7391422306
 10
223.4751454531
 20
166.0724755322
 10
227.4751456431
 20
165.4058088339
 10
227.4751456431
 20
166.7391422306
  0
LINE
  5
2F6
330
2F0
100
AcDbEntity
  8
Default
  6
Continuous
 62
     7
 48
25.4
100
AcDbLine
 10
219.8751454531
 20
151.8676828539
 30
0.0
 11
219.8751454531
 21
168.0724756272
 31
0.0
  0
LINE
  5
2F7
330
2F0
100
AcDbEntity
  8
Default
  6
Continuous
 62
     7
 48
25.4
100
AcDbLine
 10
223.4751454531
 20
140.7676828539
 30
0.0
 11
223.4751454531
 21
168.0724756272
 31
0.0
  0
LINE
  5
2F8
330
2F0
100
AcDbEntity
  8
Default
  6
Continuous
 62
     7
 48
25.4
100
AcDbLine
 10
211.8751450731
 20
166.0724755322
 30
0.0
 11
235.7569874553
 21
166.0724755322
 31
0.0
  0
TEXT
  5
2F9
330
2F0
100
AcDbEntity
  8
Default
  6
Continuous
 62
     7
 48
25.4
100
AcDbText
 10
231.2265534742
 20
167.0724755322
 30
0.0
 40
4.0
  1
6
  7
SEACAD_arial_ttf
 11
231.2265534742
 21
171.0724755322
 31
0.0
100
AcDbText
 73
     3
  0
ENDBLK
  5
2FB
330
2F0
100
AcDbEntity
  8
0
100
AcDbBlockEnd
  0
BLOCK
  5
306
330
2FC
100
AcDbEntity
  8
0
100
AcDbBlockBegin
  2
GDimGGroup5
 70
     0
 71
     0
 10
0.0
 20
0.0
 30
0.0
  3
GDimGGroup5
  1

  0
HATCH
  5
2FE
330
2FC
100
AcDbEntity
  8
Default
  6
Continuous
 62
     7
 48
25.4
100
AcDbHatch
 10
0.0
 20
0.0
 30
0.0
210
0.0
220
0.0
230
1.0
  2
SOLID
 70
     1
 71
     0
 91
        1
 92
        1
 93
        3
 72
     1
 10
423.4573765407117
 20
404.2891904584395
 11
419.4573763507219
 21
403.6225237601078
 72
     1
 10
419.4573763507219
 20
403.6225237601078
 11
423.4573765407117
 21
402.9558570617762
 72
     1
 10
423.4573765407117
 20
402.9558570617762
 11
423.4573765407117
 21
404.2891904584395
 97
        0
 75
     0
 76
     1
 98
        0
  0
LWPOLYLINE
  5
2FF
330
2FC
100
AcDbEntity
  8
Default
  6
Continuous
 62
     7
 48
25.4
370
    20
100
AcDbPolyline
 90
        4
 70
     1
 43
0.0
 10
423.4573765407
 20
404.2891904584
 10
419.4573763507
 20
403.6225237601
 10
423.4573765407
 20
402.9558570618
 10
423.4573765407
 20
404.2891904584
  0
HATCH
  5
300
330
2FC
100
AcDbEntity
  8
Default
  6
Continuous
 62
     7
 48
25.4
100
AcDbHatch
 10
0.0
 20
0.0
 30
0.0
210
0.0
220
0.0
230
1.0
  2
SOLID
 70
     1
 71
     0
 91
        1
 92
        1
 93
        3
 72
     1
 10
446.4573756540926
 20
404.2891904584395
 11
446.4573756540926
 21
402.9558570617762
 72
     1
 10
446.4573756540926
 20
402.9558570617762
 11
450.4573758440824
 21
403.6225237601078
 72
     1
 10
450.4573758440824
 20
403.6225237601078
 11
446.4573756540926
 21
404.2891904584395
 97
        0
 75
     0
 76
     1
 98
        0
  0
LWPOLYLINE
  5
301
330
2FC
100
AcDbEntity
  8
Default
  6
Continuous
 62
     7
 48
25.4
370
    20
100
AcDbPolyline
 90
        4
 70
     1
 43
0.0
 10
446.4573756541
 20
404.2891904584
 10
450.4573758441
 20
403.6225237601
 10
446.4573756541
 20
402.9558570618
 10
446.4573756541
 20
404.2891904584
  0
LINE
  5
302
330
2FC
100
AcDbEntity
  8
Default
  6
Continuous
 62
     7
 48
25.4
100
AcDbLine
 10
419.4573763507
 20
388.1916635387
 30
0.0
 11
419.4573763507
 21
405.6225238551
 31
0.0
  0
LINE
  5
303
330
2FC
100
AcDbEntity
  8
Default
  6
Continuous
 62
     7
 48
25.4
100
AcDbLine
 10
450.4573763507
 20
388.1916635387
 30
0.0
 11
450.4573763507
 21
405.6225238551
 31
0.0
  0
LINE
  5
304
330
2FC
100
AcDbEntity
  8
Default
  6
Continuous
 62
     7
 48
25.4
100
AcDbLine
 10
419.4573763507
 20
403.6225237601
 30
0.0
 11
450.4573758441
 21
403.6225237601
 31
0.0
  0
TEXT
  5
305
330
2FC
100
AcDbEntity
  8
Default
  6
Continuous
 62
     7
 48
25.4
100
AcDbText
 10
431.8269413148
 20
404.6225237601
 30
0.0
 40
4.0
  1
62
  7
SEACAD_arial_ttf
 11
431.8269413148
 21
408.6225237601
 31
0.0
100
AcDbText
 73
     3
  0
ENDBLK
  5
307
330
2FC
100
AcDbEntity
  8
0
100
AcDbBlockEnd
  0
BLOCK
  5
312
330
308
100
AcDbEntity
  8
0
100
AcDbBlockBegin
  2
GDimGGroup6
 70
     0
 71
     0
 10
0.0
 20
0.0
 30
0.0
  3
GDimGGroup6
  1

  0
HATCH
  5
30A
330
308
100
AcDbEntity
  8
Default
  6
Continuous
 62
     7
 48
25.4
100
AcDbHatch
 10
0.0
 20
0.0
 30
0.0
210
0.0
220
0.0
230
1.0
  2
SOLID
 70
     1
 71
     0
 91
        1
 92
        1
 93
        3
 72
     1
 10
506.1612342358084
 20
368.7834735297127
 11
509.5051836368206
 21
366.4894708248206
 72
     1
 10
509.5051836368206
 20
366.4894708248205
 11
507.085989134747
 21
369.7439975135603
 72
     1
 10
507.085989134747
 20
369.7439975135603
 11
506.1612342358084
 21
368.7834735297127
 97
        0
 75
     0
 76
     1
 98
        0
  0
LWPOLYLINE
  5
30B
330
308
100
AcDbEntity
  8
Default
  6
Continuous
 62
     7
 48
25.4
370
    20
100
AcDbPolyline
 90
        4
 70
     1
 43
0.0
 10
506.1612342358
 20
368.7834735297
 10
509.5051836368
 20
366.4894708248
 10
507.0859891347
 20
369.7439975136
 10
506.1612342358
 20
368.7834735297
  0
HATCH
  5
30C
330
308
100
AcDbEntity
  8
Default
  6
Continuous
 62
     7
 48
25.4
100
AcDbHatch
 10
0.0
 20
0.0
 30
0.0
210
0.0
220
0.0
230
1.0
  2
SOLID
 70
     1
 71
     0
 91
        1
 92
        1
 93
        3
 72
     1
 10
438.9693007627608
 20
397.958852785702
 11
434.9573740465521
 21
397.3681836478985
 72
     1
 10
434.9573740465521
 20
397.3681836478985
 11
438.9440082281993
 21
396.625759302726
 72
     1
 10
438.9440082281993
 20
396.625759302726
 11
438.9693007627608
 21
397.9588527857019
 97
        0
 75
     0
 76
     1
 98
        0
  0
LWPOLYLINE
  5
30D
330
308
100
AcDbEntity
  8
Default
  6
Continuous
 62
     7
 48
25.4
370
    20
100
AcDbPolyline
 90
        4
 70
     1
 43
0.0
 10
438.9693007628
 20
397.9588527857
 10
434.9573740466
 20
397.3681836479
 10
438.9440082282
 20
396.6257593027
 10
438.9693007628
 20
397.9588527857
  0
LINE
  5
30E
330
308
100
AcDbEntity
  8
Default
  6
Continuous
 62
     7
 48
25.4
100
AcDbLine
 10
476.4998996401
 20
333.4841868281
 30
0.0
 11
510.9193947968
 21
367.9036819848
 31
0.0
  0
LINE
  5
30F
330
308
100
AcDbEntity
  8
Default
  6
Continuous
 62
     7
 48
25.4
100
AcDbLine
 10
434.9573763507
 20
291.9416635387
 30
0.0
 11
434.9573763507
 21
399.3681802504
 31
0.0
  0
ARC
  5
310
330
308
100
AcDbEntity
  8
Default
  6
Continuous
 62
     7
 48
25.4
100
AcDbCircle
 10
434.9573763507
 20
291.9416635387
 30
0.0
 40
105.4265201091769
100
AcDbArc
 50
45.0
 51
90.0000012522
  0
TEXT
  5
311
330
308
100
AcDbEntity
  8
Default
  6
Continuous
 62
     7
 48
25.4
100
AcDbText
 10
471.7485121788
 20
391.8975113741
 30
0.0
 40
4.0
  1
45°
 50
337.5
  7
SEACAD_arial_ttf
 11
473.2792459082
 21
395.5930295041
 31
0.0
100
AcDbText
 73
     3
  0
ENDBLK
  5
313
330
308
100
AcDbEntity
  8
0
100
AcDbBlockEnd
  0
BLOCK
  5
31E
330
314
100
AcDbEntity
  8
0
100
AcDbBlockBegin
  2
GDimGGroup7
 70
     0
 71
     0
 10
0.0
 20
0.0
 30
0.0
  3
GDimGGroup7
  1

  0
HATCH
  5
316
330
314
100
AcDbEntity
  8
Default
  6
Continuous
 62
     7
 48
25.4
100
AcDbHatch
 10
0.0
 20
0.0
 30
0.0
210
0.0
220
0.0
230
1.0
  2
SOLID
 70
     1
 71
     0
 91
        1
 92
        1
 93
        3
 72
     1
 10
535.0426311221592
 20
322.8866941211535
 11
536.7915748999595
 21
319.2280548018606
 72
     1
 10
536.7915748999594
 20
319.2280548018606
 11
536.3237543488378
 21
323.2561548426405
 72
     1
 10
536.3237543488378
 20
323.2561548426405
 11
535.0426311221592
 21
322.8866941211535
 97
        0
 75
     0
 76
     1
 98
        0
  0
LWPOLYLINE
  5
317
330
314
100
AcDbEntity
  8
Default
  6
Continuous
 62
     7
 48
25.4
370
    20
100
AcDbPolyline
 90
        4
 70
     1
 43
0.0
 10
535.0426311222
 20
322.8866941212
 10
536.7915749
 20
319.2280548019
 10
536.3237543488
 20
323.2561548426
 10
535.0426311222
 20
322.8866941212
  0
HATCH
  5
318
330
314
100
AcDbEntity
  8
Default
  6
Continuous
 62
     7
 48
25.4
100
AcDbHatch
 10
0.0
 20
0.0
 30
0.0
210
0.0
220
0.0
230
1.0
  2
SOLID
 70
     1
 71
     0
 91
        1
 92
        1
 93
        3
 72
     1
 10
512.7597092724332
 20
364.0702774534304
 11
509.5051825506245
 21
366.4894719110166
 72
     1
 10
509.5051825506245
 20
366.4894719110166
 11
511.7991853012265
 21
363.145522541362
 72
     1
 10
511.7991853012265
 20
363.145522541362
 11
512.7597092724332
 21
364.0702774534305
 97
        0
 75
     0
 76
     1
 98
        0
  0
LWPOLYLINE
  5
319
330
314
100
AcDbEntity
  8
Default
  6
Continuous
 62
     7
 48
25.4
370
    20
100
AcDbPolyline
 90
        4
 70
     1
 43
0.0
 10
512.7597092724
 20
364.0702774534
 10
509.5051825506
 20
366.489471911
 10
511.7991853012
 20
363.1455225414
 10
512.7597092724
 20
364.0702774534
  0
LINE
  5
31A
330
314
100
AcDbEntity
  8
Default
  6
Continuous
 62
     7
 48
25.4
100
AcDbLine
 10
491.7055185013
 20
307.1472823999
 30
0.0
 11
538.7234232708
 21
319.7456920127
 31
0.0
  0
LINE
  5
31B
330
314
100
AcDbEntity
  8
Default
  6
Continuous
 62
     7
 48
25.4
100
AcDbLine
 10
476.4998996401
 20
333.4841868281
 30
0.0
 11
510.9193947968
 21
367.9036819848
 31
0.0
  0
ARC
  5
31C
330
314
100
AcDbEntity
  8
Default
  6
Continuous
 62
     7
 48
25.4
100
AcDbCircle
 10
434.9573763507
 20
291.9416635387
 30
0.0
 40
105.426520109178
100
AcDbArc
 50
15.0
 51
45.0000008348
  0
TEXT
  5
31D
330
314
100
AcDbEntity
  8
Default
  6
Continuous
 62
     7
 48
25.4
100
AcDbText
 10
524.995011619
 20
348.844944879
 30
0.0
 40
4.0
  1
30°
 50
300.0
  7
SEACAD_arial_ttf
 11
528.4591132342
 21
350.844944879
 31
0.0
100
AcDbText
 73
     3
  0
ENDBLK
  5
31F
330
314
100
AcDbEntity
  8
0
100
AcDbBlockEnd
  0
BLOCK
  5
32A
330
320
100
AcDbEntity
  8
0
100
AcDbBlockBegin
  2
GDimGGroup8
 70
     0
 71
     0
 10
0.0
 20
0.0
 30
0.0
  3
GDimGGroup8
  1

  0
HATCH
  5
322
330
320
100
AcDbEntity
  8
Default
  6
Continuous
 62
     7
 48
25.4
100
AcDbHatch
 10
0.0
 20
0.0
 30
0.0
210
0.0
220
0.0
230
1.0
  2
SOLID
 70
     1
 71
     0
 91
        1
 92
        1
 93
        3
 72
     1
 10
539.6414720311875
 20
295.9282977048119
 11
540.3838964598984
 21
291.9416635387219
 72
     1
 10
540.3838964598984
 20
291.9416635387219
 11
540.9745655136335
 21
295.9535902673079
 72
     1
 10
540.9745655136336
 20
295.9535902673079
 11
539.6414720311875
 21
295.9282977048119
 97
        0
 75
     0
 76
     1
 98
        0
  0
LWPOLYLINE
  5
323
330
320
100
AcDbEntity
  8
Default
  6
Continuous
 62
     7
 48
25.4
370
    20
100
AcDbPolyline
 90
        4
 70
     1
 43
0.0
 10
539.6414720312
 20
295.9282977048
 10
540.3838964599
 20
291.9416635387
 10
540.9745655136
 20
295.9535902673
 10
539.6414720312
 20
295.9282977048
  0
HATCH
  5
324
330
320
100
AcDbEntity
  8
Default
  6
Continuous
 62
     7
 48
25.4
100
AcDbHatch
 10
0.0
 20
0.0
 30
0.0
210
0.0
220
0.0
230
1.0
  2
SOLID
 70
     1
 71
     0
 91
        1
 92
        1
 93
        3
 72
     1
 10
538.4004802636421
 20
315.5057083141566
 11
536.7915747011716
 21
319.2280555437464
 72
     1
 10
536.7915747011717
 20
319.2280555437464
 11
537.1062646452633
 21
315.185109063063
 72
     1
 10
537.1062646452632
 20
315.185109063063
 11
538.4004802636421
 21
315.5057083141566
 97
        0
 75
     0
 76
     1
 98
        0
  0
LWPOLYLINE
  5
325
330
320
100
AcDbEntity
  8
Default
  6
Continuous
 62
     7
 48
25.4
370
    20
100
AcDbPolyline
 90
        4
 70
     1
 43
0.0
 10
538.4004802636
 20
315.5057083142
 10
536.7915747012
 20
319.2280555437
 10
537.1062646453
 20
315.1851090631
 10
538.4004802636
 20
315.5057083142
  0
LINE
  5
326
330
320
100
AcDbEntity
  8
Default
  6
Continuous
 62
     7
 48
25.4
100
AcDbLine
 10
538.4477960366
 20
291.9416635387
 30
0.0
 11
542.3838930624
 21
291.9416635387
 31
0.0
  0
LINE
  5
327
330
320
100
AcDbEntity
  8
Default
  6
Continuous
 62
     7
 48
25.4
100
AcDbLine
 10
491.7055185013
 20
307.1472823999
 30
0.0
 11
538.7234232708
 21
319.7456920127
 31
0.0
  0
ARC
  5
328
330
320
100
AcDbEntity
  8
Default
  6
Continuous
 62
     7
 48
25.4
100
AcDbCircle
 10
434.9573763507
 20
291.9416635387
 30
0.0
 40
105.4265201091688
100
AcDbArc
 50
0.0
 51
15.0000004174
  0
TEXT
  5
329
330
320
100
AcDbEntity
  8
Default
  6
Continuous
 62
     7
 48
25.4
100
AcDbText
 10
539.917247747
 20
310.0575291952
 30
0.0
 40
4.0
  1
15°
 50
277.5
  7
SEACAD_arial_ttf
 11
543.8830271925
 21
310.5796339641
 31
0.0
100
AcDbText
 73
     3
  0
ENDBLK
  5
32B
330
320
100
AcDbEntity
  8
0
100
AcDbBlockEnd
  0
BLOCK
  5
336
330
32C
100
AcDbEntity
  8
0
100
AcDbBlockBegin
  2
GDimGGroup9
 70
     0
 71
     0
 10
0.0
 20
0.0
 30
0.0
  3
GDimGGroup9
  1

  0
HATCH
  5
32E
330
32C
100
AcDbEntity
  8
Default
  6
Continuous
 62
     7
 48
25.4
100
AcDbHatch
 10
0.0
 20
0.0
 30
0.0
210
0.0
220
0.0
230
1.0
  2
SOLID
 70
     1
 71
     0
 91
        1
 92
        1
 93
        3
 72
     1
 10
527.6097796652509
 20
243.0521421619179
 11
526.2594209978597
 21
239.2284034841335
 72
     1
 10
526.2594209978597
 20
239.2284034841335
 11
528.7769187679166
 21
242.4074994223432
 72
     1
 10
528.7769187679166
 20
242.4074994223433
 11
527.6097796652509
 21
243.0521421619179
 97
        0
 75
     0
 76
     1
 98
        0
  0
LWPOLYLINE
  5
32F
330
32C
100
AcDbEntity
  8
Default
  6
Continuous
 62
     7
 48
25.4
370
    20
100
AcDbPolyline
 90
        4
 70
     1
 43
0.0
 10
527.6097796653
 20
243.0521421619
 10
526.2594209979
 20
239.2284034841
 10
528.7769187679
 20
242.4074994223
 10
527.6097796653
 20
243.0521421619
  0
HATCH
  5
330
330
32C
100
AcDbEntity
  8
Default
  6
Continuous
 62
     7
 48
25.4
100
AcDbHatch
 10
0.0
 20
0.0
 30
0.0
210
0.0
220
0.0
230
1.0
  2
SOLID
 70
     1
 71
     0
 91
        1
 92
        1
 93
        3
 72
     1
 10
540.9745655684742
 20
287.9297383543232
 11
540.3838964598984
 21
291.9416650748351
 72
     1
 10
540.3838964598984
 20
291.9416650748351
 11
539.6414720856824
 21
287.9550308985966
 72
     1
 10
539.6414720856825
 20
287.9550308985966
 11
540.9745655684743
 21
287.9297383543232
 97
        0
 75
     0
 76
     1
 98
        0
  0
LWPOLYLINE
  5
331
330
32C
100
AcDbEntity
  8
Default
  6
Continuous
 62
     7
 48
25.4
370
    20
100
AcDbPolyline
 90
        4
 70
     1
 43
0.0
 10
540.9745655685
 20
287.9297383543
 10
540.3838964599
 20
291.9416650748
 10
539.6414720857
 20
287.9550308986
 10
540.9745655685
 20
287.9297383543
  0
LINE
  5
332
330
32C
100
AcDbEntity
  8
Default
  6
Continuous
 62
     7
 48
25.4
100
AcDbLine
 10
500.5588013584
 20
254.0666631513
 30
0.0
 11
527.9914688631
 21
238.2284051829
 31
0.0
  0
LINE
  5
333
330
32C
100
AcDbEntity
  8
Default
  6
Continuous
 62
     7
 48
25.4
100
AcDbLine
 10
538.4477960366
 20
291.9416635387
 30
0.0
 11
542.3838930624
 21
291.9416635387
 31
0.0
  0
ARC
  5
334
330
32C
100
AcDbEntity
  8
Default
  6
Continuous
 62
     7
 48
25.4
100
AcDbCircle
 10
434.9573763507
 20
291.9416635387
 30
0.0
 40
105.4265201091749
100
AcDbArc
 50
330.0
 51
0.0000008348
  0
TEXT
  5
335
330
32C
100
AcDbEntity
  8
Default
  6
Continuous
 62
     7
 48
25.4
100
AcDbText
 10
534.7228548815
 20
260.7984073652
 30
0.0
 40
4.0
  1
30°
 50
75.0
  7
SEACAD_arial_ttf
 11
530.8591515763
 21
261.8336835456
 31
0.0
100
AcDbText
 73
     3
  0
ENDBLK
  5
337
330
32C
100
AcDbEntity
  8
0
100
AcDbBlockEnd
  0
BLOCK
  5
343
330
338
100
AcDbEntity
  8
0
100
AcDbBlockBegin
  2
GDimGGroup10
 70
     0
 71
     0
 10
0.0
 20
0.0
 30
0.0
  3
GDimGGroup10
  1

  0
HATCH
  5
33A
330
338
100
AcDbEntity
  8
Default
  6
Continuous
 62
     7
 48
25.4
100
AcDbHatch
 10
0.0
 20
0.0
 30
0.0
210
0.0
220
0.0
230
1.0
  2
SOLID
 70
     1
 71
     0
 91
        1
 92
        1
 93
        3
 72
     1
 10
46.24966651382658
 20
202.4103688121931
 11
46.91633321215821
 21
198.4103686222033
 72
     1
 10
46.91633321215821
 20
198.4103686222033
 11
47.58299991048985
 21
202.4103688121931
 72
     1
 10
47.58299991048985
 20
202.4103688121931
 11
46.24966651382658
 21
202.4103688121931
 97
        0
 75
     0
 76
     1
 98
        0
  0
LWPOLYLINE
  5
33B
330
338
100
AcDbEntity
  8
Default
  6
Continuous
 62
     7
 48
25.4
370
    20
100
AcDbPolyline
 90
        4
 70
     1
 43
0.0
 10
46.2496665138
 20
202.4103688122
 10
46.9163332122
 20
198.4103686222
 10
47.5829999105
 20
202.4103688122
 10
46.2496665138
 20
202.4103688122
  0
HATCH
  5
33C
330
338
100
AcDbEntity
  8
Default
  6
Continuous
 62
     7
 48
25.4
100
AcDbHatch
 10
0.0
 20
0.0
 30
0.0
210
0.0
220
0.0
230
1.0
  2
SOLID
 70
     1
 71
     0
 91
        1
 92
        1
 93
        3
 72
     1
 10
46.24966651382658
 20
384.9103745118873
 11
47.58299991048985
 21
384.9103745118873
 72
     1
 10
47.58299991048985
 20
384.9103745118873
 11
46.91633321215821
 21
388.9103747018771
 72
     1
 10
46.91633321215821
 20
388.9103747018771
 11
46.24966651382658
 21
384.9103745118873
 97
        0
 75
     0
 76
     1
 98
        0
  0
LWPOLYLINE
  5
33D
330
338
100
AcDbEntity
  8
Default
  6
Continuous
 62
     7
 48
25.4
370
    20
100
AcDbPolyline
 90
        4
 70
     1
 43
0.0
 10
46.2496665138
 20
384.9103745119
 10
46.9163332122
 20
388.9103747019
 10
47.5829999105
 20
384.9103745119
 10
46.2496665138
 20
384.9103745119
  0
LINE
  5
33E
330
338
100
AcDbEntity
  8
Default
  6
Continuous
 62
     7
 48
25.4
100
AcDbLine
 10
146.8867707985
 20
198.4103686222
 30
0.0
 11
44.9163331172
 21
198.4103686222
 31
0.0
  0
LINE
  5
33F
330
338
100
AcDbEntity
  8
Default
  6
Continuous
 62
     7
 48
25.4
100
AcDbLine
 10
146.8867707985
 20
388.9103686222
 30
0.0
 11
44.9163331172
 21
388.9103686222
 31
0.0
  0
LINE
  5
340
330
338
100
AcDbEntity
  8
Default
  6
Continuous
 62
     7
 48
25.4
100
AcDbLine
 10
46.9163332122
 20
198.4103686222
 30
0.0
 11
46.9163332122
 21
388.9103747019
 31
0.0
  0
TEXT
  5
341
330
338
100
AcDbEntity
  8
Default
  6
Continuous
 62
     7
 48
25.4
100
AcDbText
 10
45.9163332122
 20
292.6454212425
 30
0.0
 40
4.0
  1
381
 50
90.0
  7
SEACAD_arial_ttf
 11
41.9163332122
 21
292.6454212425
 31
0.0
100
AcDbText
 73
     3
  0
TEXT
  5
342
330
338
100
AcDbEntity
  8
Default
  6
Continuous
 62
     7
 48
25.4
100
AcDbText
 10
45.9163332122
 20
285.2840177337
 30
0.0
 40
4.0
  1
O
 50
90.0
  7
SEACAD_semeca1_ttf
 11
41.9163332122
 21
285.2840177337
 31
0.0
100
AcDbText
 73
     3
  0
ENDBLK
  5
344
330
338
100
AcDbEntity
  8
0
100
AcDbBlockEnd
  0
BLOCK
  5
350
330
345
100
AcDbEntity
  8
0
100
AcDbBlockBegin
  2
GDimGGroup11
 70
     0
 71
     0
 10
0.0
 20
0.0
 30
0.0
  3
GDimGGroup11
  1

  0
HATCH
  5
347
330
345
100
AcDbEntity
  8
Default
  6
Continuous
 62
     7
 48
25.4
100
AcDbHatch
 10
0.0
 20
0.0
 30
0.0
210
0.0
220
0.0
230
1.0
  2
SOLID
 70
     1
 71
     0
 91
        1
 92
        1
 93
        3
 72
     1
 10
67.1860041636488
 20
222.6603688121931
 11
67.85267086198044
 21
218.6603686222033
 72
     1
 10
67.85267086198044
 20
218.6603686222033
 11
68.51933756031208
 21
222.6603688121931
 72
     1
 10
68.51933756031207
 20
222.6603688121931
 11
67.18600416364879
 21
222.6603688121931
 97
        0
 75
     0
 76
     1
 98
        0
  0
LWPOLYLINE
  5
348
330
345
100
AcDbEntity
  8
Default
  6
Continuous
 62
     7
 48
25.4
370
    20
100
AcDbPolyline
 90
        4
 70
     1
 43
0.0
 10
67.1860041636
 20
222.6603688122
 10
67.852670862
 20
218.6603686222
 10
68.5193375603
 20
222.6603688122
 10
67.1860041636
 20
222.6603688122
  0
HATCH
  5
349
330
345
100
AcDbEntity
  8
Default
  6
Continuous
 62
     7
 48
25.4
100
AcDbHatch
 10
0.0
 20
0.0
 30
0.0
210
0.0
220
0.0
230
1.0
  2
SOLID
 70
     1
 71
     0
 91
        1
 92
        1
 93
        3
 72
     1
 10
67.1860041636488
 20
364.660374392678
 11
68.51933756031208
 21
364.660374392678
 72
     1
 10
68.51933756031207
 20
364.660374392678
 11
67.85267086198043
 21
368.6603745826678
 72
     1
 10
67.85267086198044
 20
368.6603745826678
 11
67.1860041636488
 21
364.660374392678
 97
        0
 75
     0
 76
     1
 98
        0
  0
LWPOLYLINE
  5
34A
330
345
100
AcDbEntity
  8
Default
  6
Continuous
 62
     7
 48
25.4
370
    20
100
AcDbPolyline
 90
        4
 70
     1
 43
0.0
 10
67.1860041636
 20
364.6603743927
 10
67.852670862
 20
368.6603745827
 10
68.5193375603
 20
364.6603743927
 10
67.1860041636
 20
364.6603743927
  0
LINE
  5
34B
330
345
100
AcDbEntity
  8
Default
  6
Continuous
 62
     7
 48
25.4
100
AcDbLine
 10
133.3867707985
 20
218.6603686222
 30
0.0
 11
65.852670767
 21
218.6603686222
 31
0.0
  0
LINE
  5
34C
330
345
100
AcDbEntity
  8
Default
  6
Continuous
 62
     7
 48
25.4
100
AcDbLine
 10
133.3867704483
 20
368.6603686222
 30
0.0
 11
65.852670767
 21
368.6603686222
 31
0.0
  0
LINE
  5
34D
330
345
100
AcDbEntity
  8
Default
  6
Continuous
 62
     7
 48
25.4
100
AcDbLine
 10
67.852670862
 20
218.6603686222
 30
0.0
 11
67.852670862
 21
368.6603745827
 31
0.0
  0
TEXT
  5
34E
330
345
100
AcDbEntity
  8
Default
  6
Continuous
 62
     7
 48
25.4
100
AcDbText
 10
66.852670862
 20
292.6454211829
 30
0.0
 40
4.0
  1
300
 50
90.0
  7
SEACAD_arial_ttf
 11
62.852670862
 21
292.6454211829
 31
0.0
100
AcDbText
 73
     3
  0
TEXT
  5
34F
330
345
100
AcDbEntity
  8
Default
  6
Continuous
 62
     7
 48
25.4
100
AcDbText
 10
66.852670862
 20
285.2840176741
 30
0.0
 40
4.0
  1
O
 50
90.0
  7
SEACAD_semeca1_ttf
 11
62.852670862
 21
285.2840176741
 31
0.0
100
AcDbText
 73
     3
  0
ENDBLK
  5
351
330
345
100
AcDbEntity
  8
0
100
AcDbBlockEnd
  0
BLOCK
  5
35D
330
352
100
AcDbEntity
  8
0
100
AcDbBlockBegin
  2
GDimGGroup12
 70
     0
 71
     0
 10
0.0
 20
0.0
 30
0.0
  3
GDimGGroup12
  1

  0
HATCH
  5
354
330
352
100
AcDbEntity
  8
Default
  6
Continuous
 62
     7
 48
25.4
100
AcDbHatch
 10
0.0
 20
0.0
 30
0.0
210
0.0
220
0.0
230
1.0
  2
SOLID
 70
     1
 71
     0
 91
        1
 92
        1
 93
        3
 72
     1
 10
88.12234053197118
 20
262.7306188121931
 11
88.78900723030282
 21
258.7306186222033
 72
     1
 10
88.78900723030282
 20
258.7306186222033
 11
89.45567392863445
 21
262.7306188121931
 72
     1
 10
89.45567392863444
 20
262.7306188121931
 11
88.12234053197116
 21
262.7306188121931
 97
        0
 75
     0
 76
     1
 98
        0
  0
LWPOLYLINE
  5
355
330
352
100
AcDbEntity
  8
Default
  6
Continuous
 62
     7
 48
25.4
370
    20
100
AcDbPolyline
 90
        4
 70
     1
 43
0.0
 10
88.122340532
 20
262.7306188122
 10
88.7890072303
 20
258.7306186222
 10
89.4556739286
 20
262.7306188122
 10
88.122340532
 20
262.7306188122
  0
HATCH
  5
356
330
352
100
AcDbEntity
  8
Default
  6
Continuous
 62
     7
 48
25.4
100
AcDbHatch
 10
0.0
 20
0.0
 30
0.0
210
0.0
220
0.0
230
1.0
  2
SOLID
 70
     1
 71
     0
 91
        1
 92
        1
 93
        3
 72
     1
 10
88.12234053197118
 20
324.5901156813399
 11
89.45567392863445
 21
324.5901156813399
 72
     1
 10
89.45567392863444
 20
324.5901156813399
 11
88.7890072303028
 21
328.5901158713297
 72
     1
 10
88.78900723030282
 20
328.5901158713297
 11
88.12234053197118
 21
324.5901156813399
 97
        0
 75
     0
 76
     1
 98
        0
  0
LWPOLYLINE
  5
357
330
352
100
AcDbEntity
  8
Default
  6
Continuous
 62
     7
 48
25.4
370
    20
100
AcDbPolyline
 90
        4
 70
     1
 43
0.0
 10
88.122340532
 20
324.5901156813
 10
88.7890072303
 20
328.5901158713
 10
89.4556739286
 20
324.5901156813
 10
88.122340532
 20
324.5901156813
  0
LINE
  5
358
330
352
100
AcDbEntity
  8
Default
  6
Continuous
 62
     7
 48
25.4
100
AcDbLine
 10
133.3867707985
 20
258.7306186222
 30
0.0
 11
86.7890071353
 21
258.7306186222
 31
0.0
  0
LINE
  5
359
330
352
100
AcDbEntity
  8
Default
  6
Continuous
 62
     7
 48
25.4
100
AcDbLine
 10
133.3867707985
 20
328.5901186222
 30
0.0
 11
86.7890071353
 21
328.5901186222
 31
0.0
  0
LINE
  5
35A
330
352
100
AcDbEntity
  8
Default
  6
Continuous
 62
     7
 48
25.4
100
AcDbLine
 10
88.7890072303
 20
258.7306186222
 30
0.0
 11
88.7890072303
 21
328.5901158713
 31
0.0
  0
TEXT
  5
35B
330
352
100
AcDbEntity
  8
Default
  6
Continuous
 62
     7
 48
25.4
100
AcDbText
 10
87.7890072303
 20
287.1671559577
 30
0.0
 40
4.0
  1
139.719
 50
90.0
  7
SEACAD_arial_ttf
 11
83.7890072303
 21
287.1671559577
 31
0.0
100
AcDbText
 73
     3
  0
TEXT
  5
35C
330
352
100
AcDbEntity
  8
Default
  6
Continuous
 62
     7
 48
25.4
100
AcDbText
 10
87.7890072303
 20
279.8057524489
 30
0.0
 40
4.0
  1
O
 50
90.0
  7
SEACAD_semeca1_ttf
 11
83.7890072303
 21
279.8057524489
 31
0.0
100
AcDbText
 73
     3
  0
ENDBLK
  5
35E
330
352
100
AcDbEntity
  8
0
100
AcDbBlockEnd
  0
BLOCK
  5
36A
330
35F
100
AcDbEntity
  8
0
100
AcDbBlockBegin
  2
GDimGGroup13
 70
     0
 71
     0
 10
0.0
 20
0.0
 30
0.0
  3
GDimGGroup13
  1

  0
HATCH
  5
361
330
35F
100
AcDbEntity
  8
Default
  6
Continuous
 62
     7
 48
25.4
100
AcDbHatch
 10
0.0
 20
0.0
 30
0.0
210
0.0
220
0.0
230
1.0
  2
SOLID
 70
     1
 71
     0
 91
        1
 92
        1
 93
        3
 72
     1
 10
229.0616914735001
 20
230.9103688121931
 11
227.7283580768368
 21
230.9103688121931
 72
     1
 10
227.7283580768368
 20
230.9103688121931
 11
228.3950247751684
 21
226.9103686222033
 72
     1
 10
228.3950247751684
 20
226.9103686222033
 11
229.0616914735001
 21
230.9103688121931
 97
        0
 75
     0
 76
     1
 98
        0
  0
LWPOLYLINE
  5
362
330
35F
100
AcDbEntity
  8
Default
  6
Continuous
 62
     7
 48
25.4
370
    20
100
AcDbPolyline
 90
        4
 70
     1
 43
0.0
 10
229.0616914735
 20
230.9103688122
 10
228.3950247752
 20
226.9103686222
 10
227.7283580768
 20
230.9103688122
 10
229.0616914735
 20
230.9103688122
  0
HATCH
  5
363
330
35F
100
AcDbEntity
  8
Default
  6
Continuous
 62
     7
 48
25.4
100
AcDbHatch
 10
0.0
 20
0.0
 30
0.0
210
0.0
220
0.0
230
1.0
  2
SOLID
 70
     1
 71
     0
 91
        1
 92
        1
 93
        3
 72
     1
 10
229.0616914735001
 20
238.9103684322135
 11
228.3950247751684
 21
242.9103686222033
 72
     1
 10
228.3950247751684
 20
242.9103686222033
 11
227.7283580768368
 21
238.9103684322135
 72
     1
 10
227.7283580768368
 20
238.9103684322135
 11
229.0616914735001
 21
238.9103684322135
 97
        0
 75
     0
 76
     1
 98
        0
  0
LWPOLYLINE
  5
364
330
35F
100
AcDbEntity
  8
Default
  6
Continuous
 62
     7
 48
25.4
370
    20
100
AcDbPolyline
 90
        4
 70
     1
 43
0.0
 10
229.0616914735
 20
238.9103684322
 10
228.3950247752
 20
242.9103686222
 10
227.7283580768
 20
238.9103684322
 10
229.0616914735
 20
238.9103684322
  0
LINE
  5
365
330
35F
100
AcDbEntity
  8
Default
  6
Continuous
 62
     7
 48
25.4
100
AcDbLine
 10
213.3867707985
 20
226.9103686222
 30
0.0
 11
230.3950248702
 21
226.9103686222
 31
0.0
  0
LINE
  5
366
330
35F
100
AcDbEntity
  8
Default
  6
Continuous
 62
     7
 48
25.4
100
AcDbLine
 10
213.3867707985
 20
242.9103686222
 30
0.0
 11
230.3950248702
 21
242.9103686222
 31
0.0
  0
LINE
  5
367
330
35F
100
AcDbEntity
  8
Default
  6
Continuous
 62
     7
 48
25.4
100
AcDbLine
 10
228.3950247752
 20
226.9103686222
 30
0.0
 11
228.3950247752
 21
261.7782401749
 31
0.0
  0
TEXT
  5
368
330
35F
100
AcDbEntity
  8
Default
  6
Continuous
 62
     7
 48
25.4
100
AcDbText
 10
227.3950247752
 20
254.1173682299
 30
0.0
 40
4.0
  1
32
 50
90.0
  7
SEACAD_arial_ttf
 11
223.3950247752
 21
254.1173682299
 31
0.0
100
AcDbText
 73
     3
  0
TEXT
  5
369
330
35F
100
AcDbEntity
  8
Default
  6
Continuous
 62
     7
 48
25.4
100
AcDbText
 10
227.3950247752
 20
246.7559647211
 30
0.0
 40
4.0
  1
O
 50
90.0
  7
SEACAD_semeca1_ttf
 11
223.3950247752
 21
246.7559647211
 31
0.0
100
AcDbText
 73
     3
  0
ENDBLK
  5
36B
330
35F
100
AcDbEntity
  8
0
100
AcDbBlockEnd
  0
BLOCK
  5
375
330
36C
100
AcDbEntity
  8
0
100
AcDbBlockBegin
  2
GDimGGroup14
 70
     0
 71
     0
 10
0.0
 20
0.0
 30
0.0
  3
GDimGGroup14
  1

  0
HATCH
  5
36E
330
36C
100
AcDbEntity
  8
Default
  6
Continuous
 62
     7
 48
25.4
100
AcDbHatch
 10
0.0
 20
0.0
 30
0.0
210
0.0
220
0.0
230
1.0
  2
SOLID
 70
     1
 71
     0
 91
        1
 92
        1
 93
        3
 72
     1
 10
203.8867709884555
 20
206.6078085193879
 11
203.8867709884555
 21
207.9411419160511
 72
     1
 10
203.8867709884555
 20
207.9411419160511
 11
199.8867707984657
 21
207.2744752177195
 72
     1
 10
199.8867707984657
 20
207.2744752177195
 11
203.8867709884555
 21
206.6078085193879
 97
        0
 75
     0
 76
     1
 98
        0
  0
LWPOLYLINE
  5
36F
330
36C
100
AcDbEntity
  8
Default
  6
Continuous
 62
     7
 48
25.4
370
    20
100
AcDbPolyline
 90
        4
 70
     1
 43
0.0
 10
203.8867709885
 20
206.6078085194
 10
199.8867707985
 20
207.2744752177
 10
203.8867709885
 20
207.9411419161
 10
203.8867709885
 20
206.6078085194
  0
HATCH
  5
370
330
36C
100
AcDbEntity
  8
Default
  6
Continuous
 62
     7
 48
25.4
100
AcDbHatch
 10
0.0
 20
0.0
 30
0.0
210
0.0
220
0.0
230
1.0
  2
SOLID
 70
     1
 71
     0
 91
        1
 92
        1
 93
        3
 72
     1
 10
209.3867709586532
 20
206.6078085193879
 11
213.386771148643
 21
207.2744752177195
 72
     1
 10
213.386771148643
 20
207.2744752177195
 11
209.3867709586532
 21
207.9411419160511
 72
     1
 10
209.3867709586532
 20
207.9411419160511
 11
209.3867709586532
 21
206.6078085193879
 97
        0
 75
     0
 76
     1
 98
        0
  0
LWPOLYLINE
  5
371
330
36C
100
AcDbEntity
  8
Default
  6
Continuous
 62
     7
 48
25.4
370
    20
100
AcDbPolyline
 90
        4
 70
     1
 43
0.0
 10
209.3867709587
 20
206.6078085194
 10
213.3867711486
 20
207.2744752177
 10
209.3867709587
 20
207.9411419161
 10
209.3867709587
 20
206.6078085194
  0
LINE
  5
372
330
36C
100
AcDbEntity
  8
Default
  6
Continuous
 62
     7
 48
25.4
100
AcDbLine
 10
199.8867707985
 20
226.9103686222
 30
0.0
 11
199.8867707985
 21
205.2744751227
 31
0.0
  0
LINE
  5
373
330
36C
100
AcDbEntity
  8
Default
  6
Continuous
 62
     7
 48
25.4
100
AcDbLine
 10
199.8867707985
 20
207.2744752177
 30
0.0
 11
213.3867711486
 21
207.2744752177
 31
0.0
  0
TEXT
  5
374
330
36C
100
AcDbEntity
  8
Default
  6
Continuous
 62
     7
 48
25.4
100
AcDbText
 10
203.5063361909
 20
208.2744752177
 30
0.0
 40
4.0
  1
27
  7
SEACAD_arial_ttf
 11
203.5063361909
 21
212.2744752177
 31
0.0
100
AcDbText
 73
     3
  0
ENDBLK
  5
376
330
36C
100
AcDbEntity
  8
0
100
AcDbBlockEnd
  0
BLOCK
  5
380
330
377
100
AcDbEntity
  8
0
100
AcDbBlockBegin
  2
GDimGGroup15
 70
     0
 71
     0
 10
0.0
 20
0.0
 30
0.0
  3
GDimGGroup15
  1

  0
HATCH
  5
379
330
377
100
AcDbEntity
  8
Default
  6
Continuous
 62
     7
 48
25.4
100
AcDbHatch
 10
0.0
 20
0.0
 30
0.0
210
0.0
220
0.0
230
1.0
  2
SOLID
 70
     1
 71
     0
 91
        1
 92
        1
 93
        3
 72
     1
 10
153.8867709884555
 20
206.4120370189196
 11
153.8867709884555
 21
207.7453704155829
 72
     1
 10
153.8867709884555
 20
207.7453704155829
 11
149.8867707984657
 21
207.0787037172512
 72
     1
 10
149.8867707984657
 20
207.0787037172512
 11
153.8867709884555
 21
206.4120370189196
 97
        0
 75
     0
 76
     1
 98
        0
  0
LWPOLYLINE
  5
37A
330
377
100
AcDbEntity
  8
Default
  6
Continuous
 62
     7
 48
25.4
370
    20
100
AcDbPolyline
 90
        4
 70
     1
 43
0.0
 10
153.8867709885
 20
206.4120370189
 10
149.8867707985
 20
207.0787037173
 10
153.8867709885
 20
207.7453704156
 10
153.8867709885
 20
206.4120370189
  0
HATCH
  5
37B
330
377
100
AcDbEntity
  8
Default
  6
Continuous
 62
     7
 48
25.4
100
AcDbHatch
 10
0.0
 20
0.0
 30
0.0
210
0.0
220
0.0
230
1.0
  2
SOLID
 70
     1
 71
     0
 91
        1
 92
        1
 93
        3
 72
     1
 10
142.8867706084759
 20
206.4120370189196
 11
146.8867707984657
 21
207.0787037172512
 72
     1
 10
146.8867707984657
 20
207.0787037172512
 11
142.8867706084759
 21
207.7453704155829
 72
     1
 10
142.8867706084759
 20
207.7453704155829
 11
142.8867706084759
 21
206.4120370189196
 97
        0
 75
     0
 76
     1
 98
        0
  0
LWPOLYLINE
  5
37C
330
377
100
AcDbEntity
  8
Default
  6
Continuous
 62
     7
 48
25.4
370
    20
100
AcDbPolyline
 90
        4
 70
     1
 43
0.0
 10
142.8867706085
 20
206.4120370189
 10
146.8867707985
 20
207.0787037173
 10
142.8867706085
 20
207.7453704156
 10
142.8867706085
 20
206.4120370189
  0
LINE
  5
37D
330
377
100
AcDbEntity
  8
Default
  6
Continuous
 62
     7
 48
25.4
100
AcDbLine
 10
149.8867707985
 20
218.6603686222
 30
0.0
 11
149.8867707985
 21
205.0787036223
 31
0.0
  0
LINE
  5
37E
330
377
100
AcDbEntity
  8
Default
  6
Continuous
 62
     7
 48
25.4
100
AcDbLine
 10
160.5829779716
 20
207.0787037173
 30
0.0
 11
138.8867708581
 21
207.0787037173
 31
0.0
  0
TEXT
  5
37F
330
377
100
AcDbEntity
  8
Default
  6
Continuous
 62
     7
 48
25.4
100
AcDbText
 10
156.0525435249
 20
208.0787037173
 30
0.0
 40
4.0
  1
6
  7
SEACAD_arial_ttf
 11
156.0525435249
 21
212.0787037173
 31
0.0
100
AcDbText
 73
     3
  0
ENDBLK
  5
381
330
377
100
AcDbEntity
  8
0
100
AcDbBlockEnd
  0
BLOCK
  5
38B
330
382
100
AcDbEntity
  8
0
100
AcDbBlockBegin
  2
GDimGGroup16
 70
     0
 71
     0
 10
0.0
 20
0.0
 30
0.0
  3
GDimGGroup16
  1

  0
HATCH
  5
384
330
382
100
AcDbEntity
  8
Default
  6
Continuous
 62
     7
 48
25.4
100
AcDbHatch
 10
0.0
 20
0.0
 30
0.0
210
0.0
220
0.0
230
1.0
  2
SOLID
 70
     1
 71
     0
 91
        1
 92
        1
 93
        3
 72
     1
 10
201.0879257873457
 20
268.2853688121931
 11
199.7545923906824
 21
268.2853688121931
 72
     1
 10
199.7545923906824
 20
268.2853688121931
 11
200.4212590890141
 21
264.2853686222033
 72
     1
 10
200.4212590890141
 20
264.2853686222033
 11
201.0879257873457
 21
268.2853688121931
 97
        0
 75
     0
 76
     1
 98
        0
  0
LWPOLYLINE
  5
385
330
382
100
AcDbEntity
  8
Default
  6
Continuous
 62
     7
 48
25.4
370
    20
100
AcDbPolyline
 90
        4
 70
     1
 43
0.0
 10
201.0879257873
 20
268.2853688122
 10
200.421259089
 20
264.2853686222
 10
199.7545923907
 20
268.2853688122
 10
201.0879257873
 20
268.2853688122
  0
HATCH
  5
386
330
382
100
AcDbEntity
  8
Default
  6
Continuous
 62
     7
 48
25.4
100
AcDbHatch
 10
0.0
 20
0.0
 30
0.0
210
0.0
220
0.0
230
1.0
  2
SOLID
 70
     1
 71
     0
 91
        1
 92
        1
 93
        3
 72
     1
 10
201.0879257873457
 20
319.0353682832019
 11
200.4212590890141
 21
323.0353684731917
 72
     1
 10
200.4212590890141
 20
323.0353684731917
 11
199.7545923906824
 21
319.0353682832019
 72
     1
 10
199.7545923906824
 20
319.0353682832019
 11
201.0879257873457
 21
319.0353682832019
 97
        0
 75
     0
 76
     1
 98
        0
  0
LWPOLYLINE
  5
387
330
382
100
AcDbEntity
  8
Default
  6
Continuous
 62
     7
 48
25.4
370
    20
100
AcDbPolyline
 90
        4
 70
     1
 43
0.0
 10
201.0879257873
 20
319.0353682832
 10
200.421259089
 20
323.0353684732
 10
199.7545923907
 20
319.0353682832
 10
201.0879257873
 20
319.0353682832
  0
LINE
  5
388
330
382
100
AcDbEntity
  8
Default
  6
Continuous
 62
     7
 48
25.4
100
AcDbLine
 10
200.421259089
 20
264.2853686222
 30
0.0
 11
200.421259089
 21
323.0353684732
 31
0.0
  0
TEXT
  5
389
330
382
100
AcDbEntity
  8
Default
  6
Continuous
 62
     7
 48
25.4
100
AcDbText
 10
199.421259089
 20
290.2975920412
 30
0.0
 40
4.0
  1
117.5
 50
90.0
  7
SEACAD_arial_ttf
 11
195.421259089
 21
290.2975920412
 31
0.0
100
AcDbText
 73
     3
  0
TEXT
  5
38A
330
382
100
AcDbEntity
  8
Default
  6
Continuous
 62
     7
 48
25.4
100
AcDbText
 10
199.421259089
 20
282.9361885324
 30
0.0
 40
4.0
  1
O
 50
90.0
  7
SEACAD_semeca1_ttf
 11
195.421259089
 21
282.9361885324
 31
0.0
100
AcDbText
 73
     3
  0
ENDBLK
  5
38C
330
382
100
AcDbEntity
  8
0
100
AcDbBlockEnd
  0
BLOCK
  5
399
330
38D
100
AcDbEntity
  8
0
100
AcDbBlockBegin
  2
GDimGGroup17
 70
     0
 71
     0
 10
0.0
 20
0.0
 30
0.0
  3
GDimGGroup17
  1

  0
HATCH
  5
38F
330
38D
100
AcDbEntity
  8
Default
  6
Continuous
 62
     7
 48
25.4
100
AcDbHatch
 10
0.0
 20
0.0
 30
0.0
210
0.0
220
0.0
230
1.0
  2
SOLID
 70
     1
 71
     0
 91
        1
 92
        1
 93
        3
 72
     1
 10
89.15410300830702
 20
338.0719590920171
 11
89.18891221453364
 21
334.0169332812799
 72
     1
 10
89.18891221453364
 20
334.0169332812799
 11
90.47112809320699
 21
337.8640579799426
 72
     1
 10
90.471128093207
 20
337.8640579799426
 11
89.15410300830702
 21
338.0719590920171
 97
        0
 75
     0
 76
     1
 98
        0
  0
LWPOLYLINE
  5
390
330
38D
100
AcDbEntity
  8
Default
  6
Continuous
 62
     7
 48
25.4
370
    20
100
AcDbPolyline
 90
        4
 70
     1
 43
0.0
 10
89.1541030083
 20
338.071959092
 10
89.1889122145
 20
334.0169332813
 10
90.4711280932
 20
337.8640579799
 10
89.1541030083
 20
338.071959092
  0
HATCH
  5
391
330
38D
100
AcDbEntity
  8
Default
  6
Continuous
 62
     7
 48
25.4
100
AcDbHatch
 10
0.0
 20
0.0
 30
0.0
210
0.0
220
0.0
230
1.0
  2
SOLID
 70
     1
 71
     0
 91
        1
 92
        1
 93
        3
 72
     1
 10
89.55925531733813
 20
322.9550697770544
 11
88.75544343591851
 21
326.9297813975208
 72
     1
 10
88.75544343591851
 20
326.9297813975208
 11
88.22671036575873
 21
322.909223308511
 72
     1
 10
88.22671036575875
 20
322.909223308511
 11
89.55925531733814
 21
322.9550697770544
 97
        0
 75
     0
 76
     1
 98
        0
  0
LWPOLYLINE
  5
392
330
38D
100
AcDbEntity
  8
Default
  6
Continuous
 62
     7
 48
25.4
370
    20
100
AcDbPolyline
 90
        4
 70
     1
 43
0.0
 10
89.5592553173
 20
322.9550697771
 10
88.7554434359
 20
326.9297813975
 10
88.2267103658
 20
322.9092233085
 10
89.5592553173
 20
322.9550697771
  0
LINE
  5
393
330
38D
100
AcDbEntity
  8
Default
  6
Continuous
 62
     7
 48
25.4
100
AcDbLine
 10
133.3867710294
 20
328.5901185938
 30
0.0
 11
87.2038195859
 21
334.260672008
 31
0.0
  0
LINE
  5
394
330
38D
100
AcDbEntity
  8
Default
  6
Continuous
 62
     7
 48
25.4
100
AcDbLine
 10
146.9091323435
 20
326.9297813975
 30
0.0
 11
86.7554431081
 21
326.9297813975
 31
0.0
  0
ARC
  5
395
330
38D
100
AcDbEntity
  8
Default
  6
Continuous
 62
     7
 48
25.4
100
AcDbCircle
 10
146.9091323435
 20
326.9297813975
 30
0.0
 40
58.15368890762304
100
AcDbArc
 50
165.1180197544
 51
180.0000000525
  0
ARC
  5
396
330
38D
100
AcDbEntity
  8
Default
  6
Continuous
 62
     7
 48
25.4
100
AcDbCircle
 10
146.9091323435
 20
326.9297813975
 30
0.0
 40
58.15368890761624
100
AcDbArc
 50
180.0
 51
187.8819802456
  0
TEXT
  5
397
330
38D
100
AcDbEntity
  8
Default
  6
Continuous
 62
     7
 48
25.4
100
AcDbText
 10
87.2361807473
 20
320.2472201401
 30
0.0
 40
4.0
  1
7°
 50
86.5
  7
SEACAD_arial_ttf
 11
83.2436415536
 21
320.4914142983
 31
0.0
100
AcDbText
 73
     3
  0
TEXT
  5
398
330
38D
100
AcDbEntity
  8
Default
  6
Continuous
 62
     7
 48
25.4
100
AcDbText
 10
87.7362479146
 20
328.4232460542
 30
0.0
 40
4.0
  1
7'30"
 50
86.5
  7
SEACAD_arial_ttf
 11
83.7437087209
 21
328.6674402123
 31
0.0
100
AcDbText
 73
     3
  0
ENDBLK
  5
39A
330
38D
100
AcDbEntity
  8
0
100
AcDbBlockEnd
  0
BLOCK
  5
3A5
330
39B
100
AcDbEntity
  8
0
100
AcDbBlockBegin
  2
GDimGGroup18
 70
     0
 71
     0
 10
0.0
 20
0.0
 30
0.0
  3
GDimGGroup18
  1

  0
HATCH
  5
39D
330
39B
100
AcDbEntity
  8
Default
  6
Continuous
 62
     7
 48
25.4
100
AcDbHatch
 10
0.0
 20
0.0
 30
0.0
210
0.0
220
0.0
230
1.0
  2
SOLID
 70
     1
 71
     0
 91
        1
 92
        1
 93
        3
 72
     1
 10
217.3867709884555
 20
402.5575756035593
 11
213.3867707984657
 21
401.8909089052276
 72
     1
 10
213.3867707984657
 20
401.8909089052276
 11
217.3867709884555
 21
401.224242206896
 72
     1
 10
217.3867709884555
 20
401.224242206896
 11
217.3867709884555
 21
402.5575756035593
 97
        0
 75
     0
 76
     1
 98
        0
  0
LWPOLYLINE
  5
39E
330
39B
100
AcDbEntity
  8
Default
  6
Continuous
 62
     7
 48
25.4
370
    20
100
AcDbPolyline
 90
        4
 70
     1
 43
0.0
 10
217.3867709885
 20
402.5575756036
 10
213.3867707985
 20
401.8909089052
 10
217.3867709885
 20
401.2242422069
 10
217.3867709885
 20
402.5575756036
  0
HATCH
  5
39F
330
39B
100
AcDbEntity
  8
Default
  6
Continuous
 62
     7
 48
25.4
100
AcDbHatch
 10
0.0
 20
0.0
 30
0.0
210
0.0
220
0.0
230
1.0
  2
SOLID
 70
     1
 71
     0
 91
        1
 92
        1
 93
        3
 72
     1
 10
244.3867707574875
 20
402.5575756035593
 11
244.3867707574875
 21
401.224242206896
 72
     1
 10
244.3867707574875
 20
401.224242206896
 11
248.3867709474773
 21
401.8909089052276
 72
     1
 10
248.3867709474773
 20
401.8909089052276
 11
244.3867707574875
 21
402.5575756035593
 97
        0
 75
     0
 76
     1
 98
        0
  0
LWPOLYLINE
  5
3A0
330
39B
100
AcDbEntity
  8
Default
  6
Continuous
 62
     7
 48
25.4
370
    20
100
AcDbPolyline
 90
        4
 70
     1
 43
0.0
 10
244.3867707575
 20
402.5575756036
 10
248.3867709475
 20
401.8909089052
 10
244.3867707575
 20
401.2242422069
 10
244.3867707575
 20
402.5575756036
  0
LINE
  5
3A1
330
39B
100
AcDbEntity
  8
Default
  6
Continuous
 62
     7
 48
25.4
100
AcDbLine
 10
213.3867707985
 20
388.9103686222
 30
0.0
 11
213.3867707985
 21
403.8909090002
 31
0.0
  0
LINE
  5
3A2
330
39B
100
AcDbEntity
  8
Default
  6
Continuous
 62
     7
 48
25.4
100
AcDbLine
 10
248.3867707985
 20
389.9103686222
 30
0.0
 11
248.3867707985
 21
403.8909090002
 31
0.0
  0
LINE
  5
3A3
330
39B
100
AcDbEntity
  8
Default
  6
Continuous
 62
     7
 48
25.4
100
AcDbLine
 10
213.3867707985
 20
401.8909089052
 30
0.0
 11
248.3867709475
 21
401.8909089052
 31
0.0
  0
TEXT
  5
3A4
330
39B
100
AcDbEntity
  8
Default
  6
Continuous
 62
     7
 48
25.4
100
AcDbText
 10
227.7563360904
 20
402.8909089052
 30
0.0
 40
4.0
  1
70
  7
SEACAD_arial_ttf
 11
227.7563360904
 21
406.8909089052
 31
0.0
100
AcDbText
 73
     3
  0
ENDBLK
  5
3A6
330
39B
100
AcDbEntity
  8
0
100
AcDbBlockEnd
  0
BLOCK
  5
3B1
330
3A7
100
AcDbEntity
  8
0
100
AcDbBlockBegin
  2
GDimGGroup19
 70
     0
 71
     0
 10
0.0
 20
0.0
 30
0.0
  3
GDimGGroup19
  1

  0
HATCH
  5
3A9
330
3A7
100
AcDbEntity
  8
Default
  6
Continuous
 62
     7
 48
25.4
100
AcDbHatch
 10
0.0
 20
0.0
 30
0.0
210
0.0
220
0.0
230
1.0
  2
SOLID
 70
     1
 71
     0
 91
        1
 92
        1
 93
        3
 72
     1
 10
317.8352902189653
 20
311.4103688121931
 11
316.501956822302
 21
311.4103688121931
 72
     1
 10
316.501956822302
 20
311.4103688121931
 11
317.1686235206337
 21
307.4103686222033
 72
     1
 10
317.1686235206337
 20
307.4103686222033
 11
317.8352902189653
 21
311.4103688121931
 97
        0
 75
     0
 76
     1
 98
        0
  0
LWPOLYLINE
  5
3AA
330
3A7
100
AcDbEntity
  8
Default
  6
Continuous
 62
     7
 48
25.4
370
    20
100
AcDbPolyline
 90
        4
 70
     1
 43
0.0
 10
317.835290219
 20
311.4103688122
 10
317.1686235206
 20
307.4103686222
 10
316.5019568223
 20
311.4103688122
 10
317.835290219
 20
311.4103688122
  0
HATCH
  5
3AB
330
3A7
100
AcDbEntity
  8
Default
  6
Continuous
 62
     7
 48
25.4
100
AcDbHatch
 10
0.0
 20
0.0
 30
0.0
210
0.0
220
0.0
230
1.0
  2
SOLID
 70
     1
 71
     0
 91
        1
 92
        1
 93
        3
 72
     1
 10
317.8352902189653
 20
385.910371710469
 11
317.1686235206337
 21
389.9103719004588
 72
     1
 10
317.1686235206337
 20
389.9103719004588
 11
316.501956822302
 21
385.910371710469
 72
     1
 10
316.501956822302
 20
385.910371710469
 11
317.8352902189653
 21
385.910371710469
 97
        0
 75
     0
 76
     1
 98
        0
  0
LWPOLYLINE
  5
3AC
330
3A7
100
AcDbEntity
  8
Default
  6
Continuous
 62
     7
 48
25.4
370
    20
100
AcDbPolyline
 90
        4
 70
     1
 43
0.0
 10
317.835290219
 20
385.9103717105
 10
317.1686235206
 20
389.9103719005
 10
316.5019568223
 20
385.9103717105
 10
317.835290219
 20
385.9103717105
  0
LINE
  5
3AD
330
3A7
100
AcDbEntity
  8
Default
  6
Continuous
 62
     7
 48
25.4
100
AcDbLine
 10
248.3867707985
 20
307.4103686222
 30
0.0
 11
319.1686236156
 21
307.4103686222
 31
0.0
  0
LINE
  5
3AE
330
3A7
100
AcDbEntity
  8
Default
  6
Continuous
 62
     7
 48
25.4
100
AcDbLine
 10
248.3867707985
 20
389.9103686222
 30
0.0
 11
319.1686236156
 21
389.9103686222
 31
0.0
  0
LINE
  5
3AF
330
3A7
100
AcDbEntity
  8
Default
  6
Continuous
 62
     7
 48
25.4
100
AcDbLine
 10
317.1686235206
 20
307.4103686222
 30
0.0
 11
317.1686235206
 21
389.9103719005
 31
0.0
  0
TEXT
  5
3B0
330
3A7
100
AcDbEntity
  8
Default
  6
Continuous
 62
     7
 48
25.4
100
AcDbText
 10
316.1686235206
 20
343.9647180874
 30
0.0
 40
4.0
  1
165
 50
90.0
  7
SEACAD_arial_ttf
 11
312.1686235206
 21
343.9647180874
 31
0.0
100
AcDbText
 73
     3
  0
ENDBLK
  5
3B2
330
3A7
100
AcDbEntity
  8
0
100
AcDbBlockEnd
  0
BLOCK
  5
3BD
330
3B3
100
AcDbEntity
  8
0
100
AcDbBlockBegin
  2
GDimGGroup20
 70
     0
 71
     0
 10
0.0
 20
0.0
 30
0.0
  3
GDimGGroup20
  1

  0
HATCH
  5
3B5
330
3B3
100
AcDbEntity
  8
Default
  6
Continuous
 62
     7
 48
25.4
100
AcDbHatch
 10
0.0
 20
0.0
 30
0.0
210
0.0
220
0.0
230
1.0
  2
SOLID
 70
     1
 71
     0
 91
        1
 92
        1
 93
        3
 72
     1
 10
295.3746768192213
 20
385.9103684322135
 11
294.7080101208896
 21
389.9103686222033
 72
     1
 10
294.7080101208896
 20
389.9103686222033
 11
294.041343422558
 21
385.9103684322135
 72
     1
 10
294.041343422558
 20
385.9103684322135
 11
295.3746768192213
 21
385.9103684322135
 97
        0
 75
     0
 76
     1
 98
        0
  0
LWPOLYLINE
  5
3B6
330
3B3
100
AcDbEntity
  8
Default
  6
Continuous
 62
     7
 48
25.4
370
    20
100
AcDbPolyline
 90
        4
 70
     1
 43
0.0
 10
295.3746768192
 20
385.9103684322
 10
294.7080101209
 20
389.9103686222
 10
294.0413434226
 20
385.9103684322
 10
295.3746768192
 20
385.9103684322
  0
HATCH
  5
3B7
330
3B3
100
AcDbEntity
  8
Default
  6
Continuous
 62
     7
 48
25.4
100
AcDbHatch
 10
0.0
 20
0.0
 30
0.0
210
0.0
220
0.0
230
1.0
  2
SOLID
 70
     1
 71
     0
 91
        1
 92
        1
 93
        3
 72
     1
 10
295.3746768192213
 20
375.4103685737745
 11
294.041343422558
 21
375.4103685737745
 72
     1
 10
294.041343422558
 20
375.4103685737745
 11
294.7080101208896
 21
371.4103683837847
 72
     1
 10
294.7080101208896
 20
371.4103683837847
 11
295.3746768192213
 21
375.4103685737745
 97
        0
 75
     0
 76
     1
 98
        0
  0
LWPOLYLINE
  5
3B8
330
3B3
100
AcDbEntity
  8
Default
  6
Continuous
 62
     7
 48
25.4
370
    20
100
AcDbPolyline
 90
        4
 70
     1
 43
0.0
 10
295.3746768192
 20
375.4103685738
 10
294.7080101209
 20
371.4103683838
 10
294.0413434226
 20
375.4103685738
 10
295.3746768192
 20
375.4103685738
  0
LINE
  5
3B9
330
3B3
100
AcDbEntity
  8
Default
  6
Continuous
 62
     7
 48
25.4
100
AcDbLine
 10
248.3867707985
 20
389.9103686222
 30
0.0
 11
296.7080102159
 21
389.9103686222
 31
0.0
  0
LINE
  5
3BA
330
3B3
100
AcDbEntity
  8
Default
  6
Continuous
 62
     7
 48
25.4
100
AcDbLine
 10
248.3867707985
 20
371.4103686222
 30
0.0
 11
296.7080102159
 21
371.4103686222
 31
0.0
  0
LINE
  5
3BB
330
3B3
100
AcDbEntity
  8
Default
  6
Continuous
 62
     7
 48
25.4
100
AcDbLine
 10
294.7080101209
 20
389.9103686222
 30
0.0
 11
294.7080101209
 21
371.4103683838
 31
0.0
  0
TEXT
  5
3BC
330
3B3
100
AcDbEntity
  8
Default
  6
Continuous
 62
     7
 48
25.4
100
AcDbText
 10
293.7080101209
 20
377.5299337204
 30
0.0
 40
4.0
  1
37
 50
90.0
  7
SEACAD_arial_ttf
 11
289.7080101209
 21
377.5299337204
 31
0.0
100
AcDbText
 73
     3
  0
ENDBLK
  5
3BE
330
3B3
100
AcDbEntity
  8
0
100
AcDbBlockEnd
  0
BLOCK
  5
3C9
330
3BF
100
AcDbEntity
  8
0
100
AcDbBlockBegin
  2
GDimGGroup21
 70
     0
 71
     0
 10
0.0
 20
0.0
 30
0.0
  3
GDimGGroup21
  1

  0
HATCH
  5
3C1
330
3BF
100
AcDbEntity
  8
Default
  6
Continuous
 62
     7
 48
25.4
100
AcDbHatch
 10
0.0
 20
0.0
 30
0.0
210
0.0
220
0.0
230
1.0
  2
SOLID
 70
     1
 71
     0
 91
        1
 92
        1
 93
        3
 72
     1
 10
295.3746768192213
 20
367.4103684322135
 11
294.7080101208896
 21
371.4103686222033
 72
     1
 10
294.7080101208896
 20
371.4103686222033
 11
294.041343422558
 21
367.4103684322135
 72
     1
 10
294.041343422558
 20
367.4103684322135
 11
295.3746768192213
 21
367.4103684322135
 97
        0
 75
     0
 76
     1
 98
        0
  0
LWPOLYLINE
  5
3C2
330
3BF
100
AcDbEntity
  8
Default
  6
Continuous
 62
     7
 48
25.4
370
    20
100
AcDbPolyline
 90
        4
 70
     1
 43
0.0
 10
295.3746768192
 20
367.4103684322
 10
294.7080101209
 20
371.4103686222
 10
294.0413434226
 20
367.4103684322
 10
295.3746768192
 20
367.4103684322
  0
HATCH
  5
3C3
330
3BF
100
AcDbEntity
  8
Default
  6
Continuous
 62
     7
 48
25.4
100
AcDbHatch
 10
0.0
 20
0.0
 30
0.0
210
0.0
220
0.0
230
1.0
  2
SOLID
 70
     1
 71
     0
 91
        1
 92
        1
 93
        3
 72
     1
 10
295.3746768192213
 20
353.9103680820362
 11
294.041343422558
 21
353.9103680820362
 72
     1
 10
294.041343422558
 20
353.9103680820362
 11
294.7080101208896
 21
349.9103678920464
 72
     1
 10
294.7080101208896
 20
349.9103678920464
 11
295.3746768192213
 21
353.9103680820362
 97
        0
 75
     0
 76
     1
 98
        0
  0
LWPOLYLINE
  5
3C4
330
3BF
100
AcDbEntity
  8
Default
  6
Continuous
 62
     7
 48
25.4
370
    20
100
AcDbPolyline
 90
        4
 70
     1
 43
0.0
 10
295.3746768192
 20
353.910368082
 10
294.7080101209
 20
349.910367892
 10
294.0413434226
 20
353.910368082
 10
295.3746768192
 20
353.910368082
  0
LINE
  5
3C5
330
3BF
100
AcDbEntity
  8
Default
  6
Continuous
 62
     7
 48
25.4
100
AcDbLine
 10
248.3867707985
 20
371.4103686222
 30
0.0
 11
296.7080102159
 21
371.4103686222
 31
0.0
  0
LINE
  5
3C6
330
3BF
100
AcDbEntity
  8
Default
  6
Continuous
 62
     7
 48
25.4
100
AcDbLine
 10
248.3867707985
 20
349.9103686222
 30
0.0
 11
296.7080102159
 21
349.9103686222
 31
0.0
  0
LINE
  5
3C7
330
3BF
100
AcDbEntity
  8
Default
  6
Continuous
 62
     7
 48
25.4
100
AcDbLine
 10
294.7080101209
 20
371.4103686222
 30
0.0
 11
294.7080101209
 21
349.910367892
 31
0.0
  0
TEXT
  5
3C8
330
3BF
100
AcDbEntity
  8
Default
  6
Continuous
 62
     7
 48
25.4
100
AcDbText
 10
293.7080101209
 20
357.5299334745
 30
0.0
 40
4.0
  1
43
 50
90.0
  7
SEACAD_arial_ttf
 11
289.7080101209
 21
357.5299334745
 31
0.0
100
AcDbText
 73
     3
  0
ENDBLK
  5
3CA
330
3BF
100
AcDbEntity
  8
0
100
AcDbBlockEnd
  0
BLOCK
  5
3D7
330
3CB
100
AcDbEntity
  8
0
100
AcDbBlockBegin
  2
GDimGGroup22
 70
     0
 71
     0
 10
0.0
 20
0.0
 30
0.0
  3
GDimGGroup22
  1

  0
HATCH
  5
3CD
330
3CB
100
AcDbEntity
  8
Default
  6
Continuous
 62
     7
 48
25.4
100
AcDbHatch
 10
0.0
 20
0.0
 30
0.0
210
0.0
220
0.0
230
1.0
  2
SOLID
 70
     1
 71
     0
 91
        1
 92
        1
 93
        3
 72
     1
 10
270.8614201193298
 20
297.6603688121931
 11
269.5280867226664
 21
297.6603688121931
 72
     1
 10
269.5280867226664
 20
297.6603688121931
 11
270.1947534209981
 21
293.6603686222033
 72
     1
 10
270.1947534209981
 20
293.6603686222033
 11
270.8614201193298
 21
297.6603688121931
 97
        0
 75
     0
 76
     1
 98
        0
  0
LWPOLYLINE
  5
3CE
330
3CB
100
AcDbEntity
  8
Default
  6
Continuous
 62
     7
 48
25.4
370
    20
100
AcDbPolyline
 90
        4
 70
     1
 43
0.0
 10
270.8614201193
 20
297.6603688122
 10
270.194753421
 20
293.6603686222
 10
269.5280867227
 20
297.6603688122
 10
270.8614201193
 20
297.6603688122
  0
HATCH
  5
3CF
330
3CB
100
AcDbEntity
  8
Default
  6
Continuous
 62
     7
 48
25.4
100
AcDbHatch
 10
0.0
 20
0.0
 30
0.0
210
0.0
220
0.0
230
1.0
  2
SOLID
 70
     1
 71
     0
 91
        1
 92
        1
 93
        3
 72
     1
 10
270.8614201193298
 20
330.6603695647017
 11
270.1947534209981
 21
334.6603697546915
 72
     1
 10
270.1947534209981
 20
334.6603697546915
 11
269.5280867226664
 21
330.6603695647017
 72
     1
 10
269.5280867226664
 20
330.6603695647017
 11
270.8614201193298
 21
330.6603695647017
 97
        0
 75
     0
 76
     1
 98
        0
  0
LWPOLYLINE
  5
3D0
330
3CB
100
AcDbEntity
  8
Default
  6
Continuous
 62
     7
 48
25.4
370
    20
100
AcDbPolyline
 90
        4
 70
     1
 43
0.0
 10
270.8614201193
 20
330.6603695647
 10
270.194753421
 20
334.6603697547
 10
269.5280867227
 20
330.6603695647
 10
270.8614201193
 20
330.6603695647
  0
LINE
  5
3D1
330
3CB
100
AcDbEntity
  8
Default
  6
Continuous
 62
     7
 48
25.4
100
AcDbLine
 10
240.6120648361
 20
293.6603686222
 30
0.0
 11
272.194753516
 21
293.6603686222
 31
0.0
  0
LINE
  5
3D2
330
3CB
100
AcDbEntity
  8
Default
  6
Continuous
 62
     7
 48
25.4
100
AcDbLine
 10
208.3867707985
 20
334.6603686222
 30
0.0
 11
272.194753516
 21
334.6603686222
 31
0.0
  0
LINE
  5
3D3
330
3CB
100
AcDbEntity
  8
Default
  6
Continuous
 62
     7
 48
25.4
100
AcDbLine
 10
270.194753421
 20
267.078116388
 30
0.0
 11
270.194753421
 21
334.6603697547
 31
0.0
  0
TEXT
  5
3D4
330
3CB
100
AcDbEntity
  8
Default
  6
Continuous
 62
     7
 48
25.4
100
AcDbText
 10
263.194753421
 20
283.1911605002
 30
0.0
 40
4.0
  1
82
 50
90.0
  7
SEACAD_arial_ttf
 11
259.194753421
 21
283.1911605002
 31
0.0
100
AcDbText
 73
     3
  0
TEXT
  5
3D5
330
3CB
100
AcDbEntity
  8
Default
  6
Continuous
 62
     7
 48
25.4
100
AcDbText
 10
263.194753421
 20
268.4781170219
 30
0.0
 40
4.0
  1
MAX
 50
90.0
  7
SEACAD_arial_ttf
 11
259.194753421
 21
268.4781170219
 31
0.0
100
AcDbText
 73
     3
  0
TEXT
  5
3D6
330
3CB
100
AcDbEntity
  8
Default
  6
Continuous
 62
     7
 48
25.4
100
AcDbText
 10
269.194753421
 20
268.4781170219
 30
0.0
 40
4.0
  1
MIN 76.7
 50
90.0
  7
SEACAD_arial_ttf
 11
265.194753421
 21
268.4781170219
 31
0.0
100
AcDbText
 73
     3
  0
ENDBLK
  5
3D8
330
3CB
100
AcDbEntity
  8
0
100
AcDbBlockEnd
  0
BLOCK
  5
3E5
330
3D9
100
AcDbEntity
  8
0
100
AcDbBlockBegin
  2
GDimGGroup23
 70
     0
 71
     0
 10
0.0
 20
0.0
 30
0.0
  3
GDimGGroup23
  1

  0
HATCH
  5
3DB
330
3D9
100
AcDbEntity
  8
Default
  6
Continuous
 62
     7
 48
25.4
100
AcDbHatch
 10
0.0
 20
0.0
 30
0.0
210
0.0
220
0.0
230
1.0
  2
SOLID
 70
     1
 71
     0
 91
        1
 92
        1
 93
        3
 72
     1
 10
295.374679650442
 20
338.6603688121931
 11
294.0413462537787
 21
338.6603688121931
 72
     1
 10
294.0413462537787
 20
338.6603688121931
 11
294.7080129521103
 21
334.6603686222033
 72
     1
 10
294.7080129521103
 20
334.6603686222033
 11
295.374679650442
 21
338.6603688121931
 97
        0
 75
     0
 76
     1
 98
        0
  0
LWPOLYLINE
  5
3DC
330
3D9
100
AcDbEntity
  8
Default
  6
Continuous
 62
     7
 48
25.4
370
    20
100
AcDbPolyline
 90
        4
 70
     1
 43
0.0
 10
295.3746796504
 20
338.6603688122
 10
294.7080129521
 20
334.6603686222
 10
294.0413462538
 20
338.6603688122
 10
295.3746796504
 20
338.6603688122
  0
HATCH
  5
3DD
330
3D9
100
AcDbEntity
  8
Default
  6
Continuous
 62
     7
 48
25.4
100
AcDbHatch
 10
0.0
 20
0.0
 30
0.0
210
0.0
220
0.0
230
1.0
  2
SOLID
 70
     1
 71
     0
 91
        1
 92
        1
 93
        3
 72
     1
 10
295.374679650442
 20
345.9103686035768
 11
294.7080129521103
 21
349.9103687935667
 72
     1
 10
294.7080129521103
 20
349.9103687935667
 11
294.0413462537787
 21
345.9103686035768
 72
     1
 10
294.0413462537787
 20
345.9103686035768
 11
295.374679650442
 21
345.9103686035768
 97
        0
 75
     0
 76
     1
 98
        0
  0
LWPOLYLINE
  5
3DE
330
3D9
100
AcDbEntity
  8
Default
  6
Continuous
 62
     7
 48
25.4
370
    20
100
AcDbPolyline
 90
        4
 70
     1
 43
0.0
 10
295.3746796504
 20
345.9103686036
 10
294.7080129521
 20
349.9103687936
 10
294.0413462538
 20
345.9103686036
 10
295.3746796504
 20
345.9103686036
  0
LINE
  5
3DF
330
3D9
100
AcDbEntity
  8
Default
  6
Continuous
 62
     7
 48
25.4
100
AcDbLine
 10
208.3867707985
 20
334.6603686222
 30
0.0
 11
296.7080130471
 21
334.6603686222
 31
0.0
  0
LINE
  5
3E0
330
3D9
100
AcDbEntity
  8
Default
  6
Continuous
 62
     7
 48
25.4
100
AcDbLine
 10
204.1897025894
 20
349.9103686222
 30
0.0
 11
296.7080130471
 21
349.9103686222
 31
0.0
  0
LINE
  5
3E1
330
3D9
100
AcDbEntity
  8
Default
  6
Continuous
 62
     7
 48
25.4
100
AcDbLine
 10
294.7080129521
 20
275.0240514287
 30
0.0
 11
294.7080129521
 21
349.9103687936
 31
0.0
  0
TEXT
  5
3E2
330
3D9
100
AcDbEntity
  8
Default
  6
Continuous
 62
     7
 48
25.4
100
AcDbText
 10
287.7080129521
 20
291.1370933811
 30
0.0
 40
4.0
  1
43.75
 50
90.0
  7
SEACAD_arial_ttf
 11
283.7080129521
 21
291.1370933811
 31
0.0
100
AcDbText
 73
     3
  0
TEXT
  5
3E3
330
3D9
100
AcDbEntity
  8
Default
  6
Continuous
 62
     7
 48
25.4
100
AcDbText
 10
287.7080129521
 20
276.4240499028
 30
0.0
 40
4.0
  1
MAX
 50
90.0
  7
SEACAD_arial_ttf
 11
283.7080129521
 21
276.4240499028
 31
0.0
100
AcDbText
 73
     3
  0
TEXT
  5
3E4
330
3D9
100
AcDbEntity
  8
Default
  6
Continuous
 62
     7
 48
25.4
100
AcDbText
 10
293.7080129521
 20
276.4240499028
 30
0.0
 40
4.0
  1
MIN 18.25
 50
90.0
  7
SEACAD_arial_ttf
 11
289.7080129521
 21
276.4240499028
 31
0.0
100
AcDbText
 73
     3
  0
ENDBLK
  5
3E6
330
3D9
100
AcDbEntity
  8
0
100
AcDbBlockEnd
  0
BLOCK
  5
3F1
330
3E7
100
AcDbEntity
  8
0
100
AcDbBlockBegin
  2
GDimGGroup24
 70
     0
 71
     0
 10
0.0
 20
0.0
 30
0.0
  3
GDimGGroup24
  1

  0
HATCH
  5
3E9
330
3E7
100
AcDbEntity
  8
Default
  6
Continuous
 62
     7
 48
25.4
100
AcDbHatch
 10
0.0
 20
0.0
 30
0.0
210
0.0
220
0.0
230
1.0
  2
SOLID
 70
     1
 71
     0
 91
        1
 92
        1
 93
        3
 72
     1
 10
145.8867706084759
 20
185.0471674690491
 11
149.8867707984657
 21
185.7138341673808
 72
     1
 10
149.8867707984657
 20
185.7138341673808
 11
145.8867706084759
 21
186.3805008657124
 72
     1
 10
145.8867706084759
 20
186.3805008657124
 11
145.8867706084759
 21
185.0471674690491
 97
        0
 75
     0
 76
     1
 98
        0
  0
LWPOLYLINE
  5
3EA
330
3E7
100
AcDbEntity
  8
Default
  6
Continuous
 62
     7
 48
25.4
370
    20
100
AcDbPolyline
 90
        4
 70
     1
 43
0.0
 10
145.8867706085
 20
185.047167469
 10
149.8867707985
 20
185.7138341674
 10
145.8867706085
 20
186.3805008657
 10
145.8867706085
 20
185.047167469
  0
HATCH
  5
3EB
330
3E7
100
AcDbEntity
  8
Default
  6
Continuous
 62
     7
 48
25.4
100
AcDbHatch
 10
0.0
 20
0.0
 30
0.0
210
0.0
220
0.0
230
1.0
  2
SOLID
 70
     1
 71
     0
 91
        1
 92
        1
 93
        3
 72
     1
 10
137.3867710778625
 20
185.0471674690491
 11
137.3867710778625
 21
186.3805008657124
 72
     1
 10
137.3867710778625
 20
186.3805008657124
 11
133.3867708878727
 21
185.7138341673808
 72
     1
 10
133.3867708878727
 20
185.7138341673808
 11
137.3867710778625
 21
185.0471674690491
 97
        0
 75
     0
 76
     1
 98
        0
  0
LWPOLYLINE
  5
3EC
330
3E7
100
AcDbEntity
  8
Default
  6
Continuous
 62
     7
 48
25.4
370
    20
100
AcDbPolyline
 90
        4
 70
     1
 43
0.0
 10
137.3867710779
 20
185.047167469
 10
133.3867708879
 20
185.7138341674
 10
137.3867710779
 20
186.3805008657
 10
137.3867710779
 20
185.047167469
  0
LINE
  5
3ED
330
3E7
100
AcDbEntity
  8
Default
  6
Continuous
 62
     7
 48
25.4
100
AcDbLine
 10
149.8867707985
 20
218.6603686222
 30
0.0
 11
149.8867707985
 21
183.7138340724
 31
0.0
  0
LINE
  5
3EE
330
3E7
100
AcDbEntity
  8
Default
  6
Continuous
 62
     7
 48
25.4
100
AcDbLine
 10
133.3867707985
 20
218.6603686222
 30
0.0
 11
133.3867707985
 21
183.7138340724
 31
0.0
  0
LINE
  5
3EF
330
3E7
100
AcDbEntity
  8
Default
  6
Continuous
 62
     7
 48
25.4
100
AcDbLine
 10
149.8867707985
 20
185.7138341674
 30
0.0
 11
133.3867708879
 21
185.7138341674
 31
0.0
  0
TEXT
  5
3F0
330
3E7
100
AcDbEntity
  8
Default
  6
Continuous
 62
     7
 48
25.4
100
AcDbText
 10
138.5063360606
 20
186.7138341674
 30
0.0
 40
4.0
  1
33
  7
SEACAD_arial_ttf
 11
138.5063360606
 21
190.7138341674
 31
0.0
100
AcDbText
 73
     3
  0
ENDBLK
  5
3F2
330
3E7
100
AcDbEntity
  8
0
100
AcDbBlockEnd
  0
BLOCK
  5
3FD
330
3F3
100
AcDbEntity
  8
0
100
AcDbBlockBegin
  2
GDimGGroup25
 70
     0
 71
     0
 10
0.0
 20
0.0
 30
0.0
  3
GDimGGroup25
  1

  0
HATCH
  5
3F5
330
3F3
100
AcDbEntity
  8
Default
  6
Continuous
 62
     7
 48
25.4
100
AcDbHatch
 10
0.0
 20
0.0
 30
0.0
210
0.0
220
0.0
230
1.0
  2
SOLID
 70
     1
 71
     0
 91
        1
 92
        1
 93
        3
 72
     1
 10
137.3867709884555
 20
172.5258707294709
 11
137.3867709884555
 21
173.8592041261341
 72
     1
 10
137.3867709884555
 20
173.8592041261341
 11
133.3867707984657
 21
173.1925374278025
 72
     1
 10
133.3867707984657
 20
173.1925374278025
 11
137.3867709884555
 21
172.5258707294709
 97
        0
 75
     0
 76
     1
 98
        0
  0
LWPOLYLINE
  5
3F6
330
3F3
100
AcDbEntity
  8
Default
  6
Continuous
 62
     7
 48
25.4
370
    20
100
AcDbPolyline
 90
        4
 70
     1
 43
0.0
 10
137.3867709885
 20
172.5258707295
 10
133.3867707985
 20
173.1925374278
 10
137.3867709885
 20
173.8592041261
 10
137.3867709885
 20
172.5258707295
  0
HATCH
  5
3F7
330
3F3
100
AcDbEntity
  8
Default
  6
Continuous
 62
     7
 48
25.4
100
AcDbHatch
 10
0.0
 20
0.0
 30
0.0
210
0.0
220
0.0
230
1.0
  2
SOLID
 70
     1
 71
     0
 91
        1
 92
        1
 93
        3
 72
     1
 10
209.3867688203366
 20
172.5258707294709
 11
213.3867690103264
 21
173.1925374278025
 72
     1
 10
213.3867690103264
 20
173.1925374278025
 11
209.3867688203366
 21
173.8592041261341
 72
     1
 10
209.3867688203366
 20
173.8592041261341
 11
209.3867688203366
 21
172.5258707294709
 97
        0
 75
     0
 76
     1
 98
        0
  0
LWPOLYLINE
  5
3F8
330
3F3
100
AcDbEntity
  8
Default
  6
Continuous
 62
     7
 48
25.4
370
    20
100
AcDbPolyline
 90
        4
 70
     1
 43
0.0
 10
209.3867688203
 20
172.5258707295
 10
213.3867690103
 20
173.1925374278
 10
209.3867688203
 20
173.8592041261
 10
209.3867688203
 20
172.5258707295
  0
LINE
  5
3F9
330
3F3
100
AcDbEntity
  8
Default
  6
Continuous
 62
     7
 48
25.4
100
AcDbLine
 10
133.3867707985
 20
218.6603686222
 30
0.0
 11
133.3867707985
 21
171.1925373328
 31
0.0
  0
LINE
  5
3FA
330
3F3
100
AcDbEntity
  8
Default
  6
Continuous
 62
     7
 48
25.4
100
AcDbLine
 10
213.3867707985
 20
198.4103686222
 30
0.0
 11
213.3867707985
 21
171.1925373328
 31
0.0
  0
LINE
  5
3FB
330
3F3
100
AcDbEntity
  8
Default
  6
Continuous
 62
     7
 48
25.4
100
AcDbLine
 10
133.3867707985
 20
173.1925374278
 30
0.0
 11
213.3867690103
 21
173.1925374278
 31
0.0
  0
TEXT
  5
3FC
330
3F3
100
AcDbEntity
  8
Default
  6
Continuous
 62
     7
 48
25.4
100
AcDbText
 10
168.6911177305
 20
174.1925374278
 30
0.0
 40
4.0
  1
160
  7
SEACAD_arial_ttf
 11
168.6911177305
 21
178.1925374278
 31
0.0
100
AcDbText
 73
     3
  0
ENDBLK
  5
3FE
330
3F3
100
AcDbEntity
  8
0
100
AcDbBlockEnd
  0
BLOCK
  5
409
330
3FF
100
AcDbEntity
  8
0
100
AcDbBlockBegin
  2
GDimGGroup26
 70
     0
 71
     0
 10
0.0
 20
0.0
 30
0.0
  3
GDimGGroup26
  1

  0
HATCH
  5
401
330
3FF
100
AcDbEntity
  8
Default
  6
Continuous
 62
     7
 48
25.4
100
AcDbHatch
 10
0.0
 20
0.0
 30
0.0
210
0.0
220
0.0
230
1.0
  2
SOLID
 70
     1
 71
     0
 91
        1
 92
        1
 93
        3
 72
     1
 10
125.3867709884556
 20
206.5980046818501
 11
125.3867709884556
 21
207.9313380785133
 72
     1
 10
125.3867709884556
 20
207.9313380785133
 11
121.3867707984658
 21
207.2646713801817
 72
     1
 10
121.3867707984658
 20
207.2646713801817
 11
125.3867709884556
 21
206.5980046818501
 97
        0
 75
     0
 76
     1
 98
        0
  0
LWPOLYLINE
  5
402
330
3FF
100
AcDbEntity
  8
Default
  6
Continuous
 62
     7
 48
25.4
370
    20
100
AcDbPolyline
 90
        4
 70
     1
 43
0.0
 10
125.3867709885
 20
206.5980046819
 10
121.3867707985
 20
207.2646713802
 10
125.3867709885
 20
207.9313380785
 10
125.3867709885
 20
206.5980046819
  0
HATCH
  5
403
330
3FF
100
AcDbEntity
  8
Default
  6
Continuous
 62
     7
 48
25.4
100
AcDbHatch
 10
0.0
 20
0.0
 30
0.0
210
0.0
220
0.0
230
1.0
  2
SOLID
 70
     1
 71
     0
 91
        1
 92
        1
 93
        3
 72
     1
 10
129.3867707127841
 20
206.5980046818501
 11
133.3867709027739
 21
207.2646713801817
 72
     1
 10
133.3867709027739
 20
207.2646713801817
 11
129.3867707127841
 21
207.9313380785133
 72
     1
 10
129.3867707127841
 20
207.9313380785133
 11
129.3867707127841
 21
206.5980046818501
 97
        0
 75
     0
 76
     1
 98
        0
  0
LWPOLYLINE
  5
404
330
3FF
100
AcDbEntity
  8
Default
  6
Continuous
 62
     7
 48
25.4
370
    20
100
AcDbPolyline
 90
        4
 70
     1
 43
0.0
 10
129.3867707128
 20
206.5980046819
 10
133.3867709028
 20
207.2646713802
 10
129.3867707128
 20
207.9313380785
 10
129.3867707128
 20
206.5980046819
  0
LINE
  5
405
330
3FF
100
AcDbEntity
  8
Default
  6
Continuous
 62
     7
 48
25.4
100
AcDbLine
 10
121.3867707985
 20
247.3103686222
 30
0.0
 11
121.3867707985
 21
205.2646712852
 31
0.0
  0
LINE
  5
406
330
3FF
100
AcDbEntity
  8
Default
  6
Continuous
 62
     7
 48
25.4
100
AcDbLine
 10
133.3867707985
 20
218.6603686222
 30
0.0
 11
133.3867707985
 21
205.2646712852
 31
0.0
  0
LINE
  5
407
330
3FF
100
AcDbEntity
  8
Default
  6
Continuous
 62
     7
 48
25.4
100
AcDbLine
 10
121.3867707985
 20
207.2646713802
 30
0.0
 11
133.3867709028
 21
207.2646713802
 31
0.0
  0
TEXT
  5
408
330
3FF
100
AcDbEntity
  8
Default
  6
Continuous
 62
     7
 48
25.4
100
AcDbText
 10
124.256336068
 20
208.2646713802
 30
0.0
 40
4.0
  1
24
  7
SEACAD_arial_ttf
 11
124.256336068
 21
212.2646713802
 31
0.0
100
AcDbText
 73
     3
  0
ENDBLK
  5
40A
330
3FF
100
AcDbEntity
  8
0
100
AcDbBlockEnd
  0
BLOCK
  5
413
330
40B
100
AcDbEntity
  8
0
100
AcDbBlockBegin
  2
GDimGGroup27
 70
     0
 71
     0
 10
0.0
 20
0.0
 30
0.0
  3
GDimGGroup27
  1

  0
LINE
  5
40D
330
40B
100
AcDbEntity
  8
Default
  6
Continuous
 62
     7
 48
25.4
100
AcDbLine
 10
434.9573763507
 20
291.9416635387
 30
0.0
 11
417.3837496682
 21
252.8611050375
 31
0.0
  0
HATCH
  5
40E
330
40B
100
AcDbEntity
  8
Default
  6
Continuous
 62
     7
 48
25.4
100
AcDbHatch
 10
0.0
 20
0.0
 30
0.0
210
0.0
220
0.0
230
1.0
  2
SOLID
 70
     1
 71
     0
 91
        1
 92
        1
 93
        3
 72
     1
 10
419.6322490950183
 20
256.235818018402
 11
418.4162067351159
 21
256.7826442481868
 72
     1
 10
418.4162067351159
 20
256.7826442481868
 11
417.3837492257124
 21
252.8611040535873
 72
     1
 10
417.3837492257124
 20
252.8611040535874
 11
419.6322490950183
 21
256.235818018402
 97
        0
 75
     0
 76
     1
 98
        0
  0
LWPOLYLINE
  5
40F
330
40B
100
AcDbEntity
  8
Default
  6
Continuous
 62
     7
 48
25.4
370
    20
100
AcDbPolyline
 90
        4
 70
     1
 43
0.0
 10
419.632249095
 20
256.2358180184
 10
417.3837492257
 20
252.8611040536
 10
418.4162067351
 20
256.7826442482
 10
419.632249095
 20
256.2358180184
  0
ARC
  5
410
330
40B
100
AcDbEntity
  8
Default
  6
Continuous
 62
     7
 48
25.4
100
AcDbCircle
 10
434.9573763507
 20
291.9416635387
 30
0.0
 40
42.85000000001224
100
AcDbArc
 50
243.3432852315
 51
248.4618973243
  0
TEXT
  5
411
330
40B
100
AcDbEntity
  8
Default
  6
Continuous
 62
     7
 48
25.4
100
AcDbText
 10
420.2416055869
 20
261.6547710879
 30
0.0
 40
4.0
  1
R
 50
65.7876485723
  7
SEACAD_arial_ttf
 11
416.5934786804
 21
263.2952496993
 31
0.0
100
AcDbText
 73
     3
  0
TEXT
  5
412
330
40B
100
AcDbEntity
  8
Default
  6
Continuous
 62
     7
 48
25.4
100
AcDbText
 10
422.8663713652
 20
267.4917741382
 30
0.0
 40
4.0
  1
85.7
 50
65.7876485723
  7
SEACAD_arial_ttf
 11
419.2182444587
 21
269.1322527496
 31
0.0
100
AcDbText
 73
     3
  0
ENDBLK
  5
414
330
40B
100
AcDbEntity
  8
0
100
AcDbBlockEnd
  0
BLOCK
  5
420
330
415
100
AcDbEntity
  8
0
100
AcDbBlockBegin
  2
GDimGGroup28
 70
     0
 71
     0
 10
0.0
 20
0.0
 30
0.0
  3
GDimGGroup28
  1

  0
HATCH
  5
417
330
415
100
AcDbEntity
  8
Default
  6
Continuous
 62
     7
 48
25.4
100
AcDbHatch
 10
0.0
 20
0.0
 30
0.0
210
0.0
220
0.0
230
1.0
  2
SOLID
 70
     1
 71
     0
 91
        1
 92
        1
 93
        3
 72
     1
 10
151.3867706084759
 20
263.9048867712265
 11
155.3867707984657
 21
264.5715534695582
 72
     1
 10
155.3867707984657
 20
264.5715534695582
 11
151.3867706084759
 21
265.2382201678898
 72
     1
 10
151.3867706084759
 20
265.2382201678898
 11
151.3867706084759
 21
263.9048867712265
 97
        0
 75
     0
 76
     1
 98
        0
  0
LWPOLYLINE
  5
418
330
415
100
AcDbEntity
  8
Default
  6
Continuous
 62
     7
 48
25.4
370
    20
100
AcDbPolyline
 90
        4
 70
     1
 43
0.0
 10
151.3867706085
 20
263.9048867712
 10
155.3867707985
 20
264.5715534696
 10
151.3867706085
 20
265.2382201679
 10
151.3867706085
 20
263.9048867712
  0
HATCH
  5
419
330
415
100
AcDbEntity
  8
Default
  6
Continuous
 62
     7
 48
25.4
100
AcDbHatch
 10
0.0
 20
0.0
 30
0.0
210
0.0
220
0.0
230
1.0
  2
SOLID
 70
     1
 71
     0
 91
        1
 92
        1
 93
        3
 72
     1
 10
137.3867709884555
 20
263.9048867712265
 11
137.3867709884555
 21
265.2382201678898
 72
     1
 10
137.3867709884555
 20
265.2382201678898
 11
133.3867707984657
 21
264.5715534695582
 72
     1
 10
133.3867707984657
 20
264.5715534695582
 11
137.3867709884555
 21
263.9048867712265
 97
        0
 75
     0
 76
     1
 98
        0
  0
LWPOLYLINE
  5
41A
330
415
100
AcDbEntity
  8
Default
  6
Continuous
 62
     7
 48
25.4
370
    20
100
AcDbPolyline
 90
        4
 70
     1
 43
0.0
 10
137.3867709885
 20
263.9048867712
 10
133.3867707985
 20
264.5715534696
 10
137.3867709885
 20
265.2382201679
 10
137.3867709885
 20
263.9048867712
  0
LINE
  5
41B
330
415
100
AcDbEntity
  8
Default
  6
Continuous
 62
     7
 48
25.4
100
AcDbLine
 10
133.3867707985
 20
293.6603686222
 30
0.0
 11
133.3867707985
 21
262.5715533746
 31
0.0
  0
LINE
  5
41C
330
415
100
AcDbEntity
  8
Default
  6
Continuous
 62
     7
 48
25.4
100
AcDbLine
 10
155.3867707985
 20
264.5715534696
 30
0.0
 11
106.2875675993
 21
264.5715534696
 31
0.0
  0
TEXT
  5
41D
330
415
100
AcDbEntity
  8
Default
  6
Continuous
 62
     7
 48
25.4
100
AcDbText
 10
122.4006122371
 20
271.5715534696
 30
0.0
 40
4.0
  1
44
  7
SEACAD_arial_ttf
 11
122.4006122371
 21
275.5715534696
 31
0.0
100
AcDbText
 73
     3
  0
TEXT
  5
41E
330
415
100
AcDbEntity
  8
Default
  6
Continuous
 62
     7
 48
25.4
100
AcDbText
 10
107.6875687589
 20
271.5715534696
 30
0.0
 40
4.0
  1
MAX
  7
SEACAD_arial_ttf
 11
107.6875687589
 21
275.5715534696
 31
0.0
100
AcDbText
 73
     3
  0
TEXT
  5
41F
330
415
100
AcDbEntity
  8
Default
  6
Continuous
 62
     7
 48
25.4
100
AcDbText
 10
107.6875687589
 20
265.5715534696
 30
0.0
 40
4.0
  1
MIN 21
  7
SEACAD_arial_ttf
 11
107.6875687589
 21
269.5715534696
 31
0.0
100
AcDbText
 73
     3
  0
ENDBLK
  5
421
330
415
100
AcDbEntity
  8
0
100
AcDbBlockEnd
  0
BLOCK
  5
42C
330
422
100
AcDbEntity
  8
0
100
AcDbBlockBegin
  2
GDimGGroup29
 70
     0
 71
     0
 10
0.0
 20
0.0
 30
0.0
  3
GDimGGroup29
  1

  0
HATCH
  5
424
330
422
100
AcDbEntity
  8
Default
  6
Continuous
 62
     7
 48
25.4
100
AcDbHatch
 10
0.0
 20
0.0
 30
0.0
210
0.0
220
0.0
230
1.0
  2
SOLID
 70
     1
 71
     0
 91
        1
 92
        1
 93
        3
 72
     1
 10
106.4522699731848
 20
282.6603688121931
 11
107.1189366715165
 21
278.6603686222033
 72
     1
 10
107.1189366715165
 20
278.6603686222033
 11
107.7856033698481
 21
282.6603688121931
 72
     1
 10
107.7856033698481
 20
282.6603688121931
 11
106.4522699731848
 21
282.6603688121931
 97
        0
 75
     0
 76
     1
 98
        0
  0
LWPOLYLINE
  5
425
330
422
100
AcDbEntity
  8
Default
  6
Continuous
 62
     7
 48
25.4
370
    20
100
AcDbPolyline
 90
        4
 70
     1
 43
0.0
 10
106.4522699732
 20
282.6603688122
 10
107.1189366715
 20
278.6603686222
 10
107.7856033698
 20
282.6603688122
 10
106.4522699732
 20
282.6603688122
  0
HATCH
  5
426
330
422
100
AcDbEntity
  8
Default
  6
Continuous
 62
     7
 48
25.4
100
AcDbHatch
 10
0.0
 20
0.0
 30
0.0
210
0.0
220
0.0
230
1.0
  2
SOLID
 70
     1
 71
     0
 91
        1
 92
        1
 93
        3
 72
     1
 10
106.4522699731848
 20
304.6603677616612
 11
107.7856033698481
 21
304.6603677616612
 72
     1
 10
107.7856033698481
 20
304.6603677616612
 11
107.1189366715165
 21
308.660367951651
 72
     1
 10
107.1189366715165
 20
308.660367951651
 11
106.4522699731848
 21
304.6603677616612
 97
        0
 75
     0
 76
     1
 98
        0
  0
LWPOLYLINE
  5
427
330
422
100
AcDbEntity
  8
Default
  6
Continuous
 62
     7
 48
25.4
370
    20
100
AcDbPolyline
 90
        4
 70
     1
 43
0.0
 10
106.4522699732
 20
304.6603677617
 10
107.1189366715
 20
308.6603679517
 10
107.7856033698
 20
304.6603677617
 10
106.4522699732
 20
304.6603677617
  0
LINE
  5
428
330
422
100
AcDbEntity
  8
Default
  6
Continuous
 62
     7
 48
25.4
100
AcDbLine
 10
155.38677056
 20
278.6603686222
 30
0.0
 11
105.1189365765
 21
278.6603686222
 31
0.0
  0
LINE
  5
429
330
422
100
AcDbEntity
  8
Default
  6
Continuous
 62
     7
 48
25.4
100
AcDbLine
 10
155.3867707985
 20
308.6603686222
 30
0.0
 11
105.1189365765
 21
308.6603686222
 31
0.0
  0
LINE
  5
42A
330
422
100
AcDbEntity
  8
Default
  6
Continuous
 62
     7
 48
25.4
100
AcDbLine
 10
107.1189366715
 20
278.6603686222
 30
0.0
 11
107.1189366715
 21
308.6603679517
 31
0.0
  0
TEXT
  5
42B
330
422
100
AcDbEntity
  8
Default
  6
Continuous
 62
     7
 48
25.4
100
AcDbText
 10
106.1189366715
 20
290.5299335043
 30
0.0
 40
4.0
  1
60
 50
90.0
  7
SEACAD_arial_ttf
 11
102.1189366715
 21
290.5299335043
 31
0.0
100
AcDbText
 73
     3
  0
ENDBLK
  5
42D
330
422
100
AcDbEntity
  8
0
100
AcDbBlockEnd
  0
BLOCK
  5
436
330
42E
100
AcDbEntity
  8
0
100
AcDbBlockBegin
  2
GDimGGroup30
 70
     0
 71
     0
 10
0.0
 20
0.0
 30
0.0
  3
GDimGGroup30
  1

  0
HATCH
  5
430
330
42E
100
AcDbEntity
  8
Default
  6
Continuous
 62
     7
 48
25.4
100
AcDbHatch
 10
0.0
 20
0.0
 30
0.0
210
0.0
220
0.0
230
1.0
  2
SOLID
 70
     1
 71
     0
 91
        1
 92
        1
 93
        3
 72
     1
 10
172.8867706084759
 20
313.8361917267133
 11
176.8867707984657
 21
314.5028584250449
 72
     1
 10
176.8867707984657
 20
314.5028584250449
 11
172.8867706084759
 21
315.1695251233766
 72
     1
 10
172.8867706084759
 20
315.1695251233766
 11
172.8867706084759
 21
313.8361917267133
 97
        0
 75
     0
 76
     1
 98
        0
  0
LWPOLYLINE
  5
431
330
42E
100
AcDbEntity
  8
Default
  6
Continuous
 62
     7
 48
25.4
370
    20
100
AcDbPolyline
 90
        4
 70
     1
 43
0.0
 10
172.8867706085
 20
313.8361917267
 10
176.8867707985
 20
314.502858425
 10
172.8867706085
 20
315.1695251234
 10
172.8867706085
 20
313.8361917267
  0
HATCH
  5
432
330
42E
100
AcDbEntity
  8
Default
  6
Continuous
 62
     7
 48
25.4
100
AcDbHatch
 10
0.0
 20
0.0
 30
0.0
210
0.0
220
0.0
230
1.0
  2
SOLID
 70
     1
 71
     0
 91
        1
 92
        1
 93
        3
 72
     1
 10
159.3867709884555
 20
313.8361917267133
 11
159.3867709884555
 21
315.1695251233766
 72
     1
 10
159.3867709884555
 20
315.1695251233766
 11
155.3867707984657
 21
314.5028584250449
 72
     1
 10
155.3867707984657
 20
314.5028584250449
 11
159.3867709884555
 21
313.8361917267133
 97
        0
 75
     0
 76
     1
 98
        0
  0
LWPOLYLINE
  5
433
330
42E
100
AcDbEntity
  8
Default
  6
Continuous
 62
     7
 48
25.4
370
    20
100
AcDbPolyline
 90
        4
 70
     1
 43
0.0
 10
159.3867709885
 20
313.8361917267
 10
155.3867707985
 20
314.502858425
 10
159.3867709885
 20
315.1695251234
 10
159.3867709885
 20
313.8361917267
  0
LINE
  5
434
330
42E
100
AcDbEntity
  8
Default
  6
Continuous
 62
     7
 48
25.4
100
AcDbLine
 10
176.8867707985
 20
314.502858425
 30
0.0
 11
123.428039177
 21
314.502858425
 31
0.0
  0
TEXT
  5
435
330
42E
100
AcDbEntity
  8
Default
  6
Continuous
 62
     7
 48
25.4
100
AcDbText
 10
124.8280367425
 20
315.502858425
 30
0.0
 40
4.0
  1
43
  7
SEACAD_arial_ttf
 11
124.8280367425
 21
319.502858425
 31
0.0
100
AcDbText
 73
     3
  0
ENDBLK
  5
437
330
42E
100
AcDbEntity
  8
0
100
AcDbBlockEnd
  0
ENDSEC
  0
SECTION
  2
ENTITIES
  0
INSERT
  5
2C
330
1F
100
AcDbEntity
  8
Default
100
AcDbBlockReference
  2
SEANNOT_GROUP
 10
0.0
 20
0.0
 30
0.0
  0
INSERT
  5
37
330
1F
100
AcDbEntity
  8
Default
100
AcDbBlockReference
  2
SEANNOT_GROUP1
 10
0.0
 20
0.0
 30
0.0
  0
INSERT
  5
40
330
1F
100
AcDbEntity
  8
Default
100
AcDbBlockReference
  2
SEANNOT_GROUP2
 10
0.0
 20
0.0
 30
0.0
  0
INSERT
  5
49
330
1F
100
AcDbEntity
  8
Default
100
AcDbBlockReference
  2
SEANNOT_GROUP3
 10
0.0
 20
0.0
 30
0.0
  0
INSERT
  5
54
330
1F
100
AcDbEntity
  8
Default
100
AcDbBlockReference
  2
SEANNOT_GROUP4
 10
0.0
 20
0.0
 30
0.0
  0
INSERT
  5
5D
330
1F
100
AcDbEntity
  8
Default
100
AcDbBlockReference
  2
SE
 10
0.0
 20
0.0
 30
0.0
  0
INSERT
  5
131
330
1F
100
AcDbEntity
  8
Default
100
AcDbBlockReference
  2
SE1
 10
0.0
 20
0.0
 30
0.0
  0
INSERT
  5
21D
330
1F
100
AcDbEntity
  8
Default
100
AcDbBlockReference
  2
SE2
 10
0.0
 20
0.0
 30
0.0
  0
INSERT
  5
2C0
330
1F
100
AcDbEntity
  8
Default
100
AcDbBlockReference
  2
GDimGGroup
 10
0.0
 20
0.0
 30
0.0
  0
INSERT
  5
2CD
330
1F
100
AcDbEntity
  8
Default
100
AcDbBlockReference
  2
GDimGGroup1
 10
0.0
 20
0.0
 30
0.0
  0
INSERT
  5
2D9
330
1F
100
AcDbEntity
  8
Default
100
AcDbBlockReference
  2
GDimGGroup2
 10
0.0
 20
0.0
 30
0.0
  0
INSERT
  5
2E5
330
1F
100
AcDbEntity
  8
Default
100
AcDbBlockReference
  2
GDimGGroup3
 10
0.0
 20
0.0
 30
0.0
  0
INSERT
  5
2F1
330
1F
100
AcDbEntity
  8
Default
100
AcDbBlockReference
  2
GDimGGroup4
 10
0.0
 20
0.0
 30
0.0
  0
INSERT
  5
2FD
330
1F
100
AcDbEntity
  8
Default
100
AcDbBlockReference
  2
GDimGGroup5
 10
0.0
 20
0.0
 30
0.0
  0
INSERT
  5
309
330
1F
100
AcDbEntity
  8
Default
100
AcDbBlockReference
  2
GDimGGroup6
 10
0.0
 20
0.0
 30
0.0
  0
INSERT
  5
315
330
1F
100
AcDbEntity
  8
Default
100
AcDbBlockReference
  2
GDimGGroup7
 10
0.0
 20
0.0
 30
0.0
  0
INSERT
  5
321
330
1F
100
AcDbEntity
  8
Default
100
AcDbBlockReference
  2
GDimGGroup8
 10
0.0
 20
0.0
 30
0.0
  0
INSERT
  5
32D
330
1F
100
AcDbEntity
  8
Default
100
AcDbBlockReference
  2
GDimGGroup9
 10
0.0
 20
0.0
 30
0.0
  0
INSERT
  5
339
330
1F
100
AcDbEntity
  8
Default
100
AcDbBlockReference
  2
GDimGGroup10
 10
0.0
 20
0.0
 30
0.0
  0
INSERT
  5
346
330
1F
100
AcDbEntity
  8
Default
100
AcDbBlockReference
  2
GDimGGroup11
 10
0.0
 20
0.0
 30
0.0
  0
INSERT
  5
353
330
1F
100
AcDbEntity
  8
Default
100
AcDbBlockReference
  2
GDimGGroup12
 10
0.0
 20
0.0
 30
0.0
  0
INSERT
  5
360
330
1F
100
AcDbEntity
  8
Default
100
AcDbBlockReference
  2
GDimGGroup13
 10
0.0
 20
0.0
 30
0.0
  0
INSERT
  5
36D
330
1F
100
AcDbEntity
  8
Default
100
AcDbBlockReference
  2
GDimGGroup14
 10
0.0
 20
0.0
 30
0.0
  0
INSERT
  5
378
330
1F
100
AcDbEntity
  8
Default
100
AcDbBlockReference
  2
GDimGGroup15
 10
0.0
 20
0.0
 30
0.0
  0
INSERT
  5
383
330
1F
100
AcDbEntity
  8
Default
100
AcDbBlockReference
  2
GDimGGroup16
 10
0.0
 20
0.0
 30
0.0
  0
INSERT
  5
38E
330
1F
100
AcDbEntity
  8
Default
100
AcDbBlockReference
  2
GDimGGroup17
 10
0.0
 20
0.0
 30
0.0
  0
INSERT
  5
39C
330
1F
100
AcDbEntity
  8
Default
100
AcDbBlockReference
  2
GDimGGroup18
 10
0.0
 20
0.0
 30
0.0
  0
INSERT
  5
3A8
330
1F
100
AcDbEntity
  8
Default
100
AcDbBlockReference
  2
GDimGGroup19
 10
0.0
 20
0.0
 30
0.0
  0
INSERT
  5
3B4
330
1F
100
AcDbEntity
  8
Default
100
AcDbBlockReference
  2
GDimGGroup20
 10
0.0
 20
0.0
 30
0.0
  0
INSERT
  5
3C0
330
1F
100
AcDbEntity
  8
Default
100
AcDbBlockReference
  2
GDimGGroup21
 10
0.0
 20
0.0
 30
0.0
  0
INSERT
  5
3CC
330
1F
100
AcDbEntity
  8
Default
100
AcDbBlockReference
  2
GDimGGroup22
 10
0.0
 20
0.0
 30
0.0
  0
INSERT
  5
3DA
330
1F
100
AcDbEntity
  8
Default
100
AcDbBlockReference
  2
GDimGGroup23
 10
0.0
 20
0.0
 30
0.0
  0
INSERT
  5
3E8
330
1F
100
AcDbEntity
  8
Default
100
AcDbBlockReference
  2
GDimGGroup24
 10
0.0
 20
0.0
 30
0.0
  0
INSERT
  5
3F4
330
1F
100
AcDbEntity
  8
Default
100
AcDbBlockReference
  2
GDimGGroup25
 10
0.0
 20
0.0
 30
0.0
  0
INSERT
  5
400
330
1F
100
AcDbEntity
  8
Default
100
AcDbBlockReference
  2
GDimGGroup26
 10
0.0
 20
0.0
 30
0.0
  0
INSERT
  5
40C
330
1F
100
AcDbEntity
  8
Default
100
AcDbBlockReference
  2
GDimGGroup27
 10
0.0
 20
0.0
 30
0.0
  0
INSERT
  5
416
330
1F
100
AcDbEntity
  8
Default
100
AcDbBlockReference
  2
GDimGGroup28
 10
0.0
 20
0.0
 30
0.0
  0
INSERT
  5
423
330
1F
100
AcDbEntity
  8
Default
100
AcDbBlockReference
  2
GDimGGroup29
 10
0.0
 20
0.0
 30
0.0
  0
INSERT
  5
42F
330
1F
100
AcDbEntity
  8
Default
100
AcDbBlockReference
  2
GDimGGroup30
 10
0.0
 20
0.0
 30
0.0
  0
LINE
  5
439
330
1F
100
AcDbEntity
  8
BORDER
  6
Continuous
 62
     7
 48
25.4
100
AcDbLine
 10
6.2292620399
 20
410.0
 30
0.0
 11
586.2292620399
 21
410.0
 31
0.0
  0
LINE
  5
43A
330
1F
100
AcDbEntity
  8
BORDER
  6
Continuous
 62
     7
 48
25.4
100
AcDbLine
 10
6.2292620399
 20
410.0
 30
0.0
 11
6.2292620399
 21
10.0
 31
0.0
  0
LINE
  5
43B
330
1F
100
AcDbEntity
  8
BORDER
  6
Continuous
 62
     7
 48
25.4
100
AcDbLine
 10
6.2292620399
 20
10.0
 30
0.0
 11
586.2292620399
 21
10.0
 31
0.0
  0
LINE
  5
43C
330
1F
100
AcDbEntity
  8
BORDER
  6
Continuous
 62
     7
 48
25.4
100
AcDbLine
 10
586.2292620399
 20
10.0
 30
0.0
 11
586.2292620399
 21
410.0
 31
0.0
  0
LINE
  5
43D
330
1F
100
AcDbEntity
  8
Default
  6
Continuous
 62
     7
 48
25.4
100
AcDbLine
 10
3.7292620399
 20
412.5
 30
0.0
 11
588.7292620399
 21
412.5
 31
0.0
  0
LINE
  5
43E
330
1F
100
AcDbEntity
  8
Default
  6
Continuous
 62
     7
 48
25.4
100
AcDbLine
 10
588.7292620399
 20
412.5
 30
0.0
 11
588.7292620399
 21
7.5
 31
0.0
  0
LINE
  5
43F
330
1F
100
AcDbEntity
  8
Default
  6
Continuous
 62
     7
 48
25.4
100
AcDbLine
 10
588.7292620399
 20
7.5
 30
0.0
 11
3.7292620399
 21
7.5
 31
0.0
  0
LINE
  5
440
330
1F
100
AcDbEntity
  8
Default
  6
Continuous
 62
     7
 48
25.4
100
AcDbLine
 10
3.7292620399
 20
7.5
 30
0.0
 11
3.7292620399
 21
412.5
 31
0.0
  0
TEXT
  5
441
330
1F
100
AcDbEntity
  8
Default
  6
Continuous
 62
     7
 48
25.4
100
AcDbText
 10
473.5242219525
 20
28.1561611714
 30
0.0
 40
5.0
  1
TITLE :
  7
SEACAD_arial_ttf
 11
473.5242219525
 21
33.1561611714
 31
0.0
100
AcDbText
 73
     3
  0
TEXT
  5
442
330
1F
100
AcDbEntity
  8
Default
  6
Continuous
 62
     7
 48
25.4
100
AcDbText
 10
473.4498030642
 20
40.2710242694
 30
0.0
 40
5.0
  1
KITAGAWA EUROPE LIMITED
  7
SEACAD_arial_ttf
 11
473.4498030642
 21
45.2710242694
 31
0.0
100
AcDbText
 73
     3
  0
TEXT
  5
443
330
1F
100
AcDbEntity
  8
Default
  6
Continuous
 62
     7
 48
25.4
100
AcDbText
 10
474.0233693351
 20
14.6180387033
 30
0.0
 40
5.0
  1
www.kitagawaeurope.com
  7
SEACAD_arial_ttf
 11
474.0233693351
 21
19.6180387033
 31
0.0
100
AcDbText
 73
     3
  0
TEXT
  5
444
330
1F
100
AcDbEntity
  8
Default
  6
Continuous
 62
     7
 48
25.4
100
AcDbText
 10
497.8463064412
 20
27.8559210467
 30
0.0
 40
5.0
  1
B15A8 POWER CHUCK
  7
SEACAD_arial_ttf
 11
497.8463064412
 21
32.8559210467
 31
0.0
100
AcDbText
 73
     3
  0
LINE
  5
445
330
1F
100
AcDbEntity
  8
Default
  6
Continuous
 62
     7
 48
25.4
100
AcDbLine
 10
471.5030858285
 20
50.0
 30
0.0
 11
586.2292620399
 21
50.0
 31
0.0
  0
LINE
  5
446
330
1F
100
AcDbEntity
  8
Default
  6
Continuous
 62
     7
 48
25.4
100
AcDbLine
 10
471.5030858285
 20
36.7
 30
0.0
 11
586.2292620399
 21
36.7
 31
0.0
  0
LINE
  5
447
330
1F
100
AcDbEntity
  8
Default
  6
Continuous
 62
     7
 48
25.4
100
AcDbLine
 10
586.2292620399
 20
23.4
 30
0.0
 11
471.5030858285
 21
23.4
 31
0.0
  0
LINE
  5
448
330
1F
100
AcDbEntity
  8
Default
  6
Continuous
 62
     7
 48
25.4
100
AcDbLine
 10
471.5030858285
 20
50.0
 30
0.0
 11
471.5030858285
 21
10.0
 31
0.0
  0
ENDSEC
  0
SECTION
  2
OBJECTS
  0
DICTIONARY
  5
C
330
0
100
AcDbDictionary
281
     1
  3
ACAD_GROUP
350
D
  3
ACAD_LAYOUT
350
1A
  3
ACAD_MLINESTYLE
350
17
  3
ACAD_PLOTSETTINGS
350
19
  3
ACAD_PLOTSTYLENAME
350
E
  0
DICTIONARY
  5
D
102
{ACAD_REACTORS
330
C
102
}
330
C
100
AcDbDictionary
281
     1
  0
DICTIONARY
  5
1A
102
{ACAD_REACTORS
330
C
102
}
330
C
100
AcDbDictionary
281
     1
  3
Layout1
350
1E
  3
Model
350
22
  0
DICTIONARY
  5
17
102
{ACAD_REACTORS
330
C
102
}
330
C
100
AcDbDictionary
281
     1
  3
Standard
350
18
  0
DICTIONARY
  5
19
102
{ACAD_REACTORS
330
C
102
}
330
C
100
AcDbDictionary
281
     1
  0
ACDBDICTIONARYWDFLT
  5
E
102
{ACAD_REACTORS
330
C
102
}
330
C
100
AcDbDictionary
281
     1
  3
Normal
350
F
100
AcDbDictionaryWithDefault
340
F
  0
LAYOUT
  5
1E
102
{ACAD_REACTORS
330
1A
102
}
330
1A
100
AcDbPlotSettings
  1

  2

  4

  6

 40
0.0
 41
0.0
 42
0.0
 43
0.0
 44
0.0
 45
0.0
 46
0.0
 47
0.0
 48
0.0
 49
0.0
140
0.0
141
0.0
142
1.0
143
1.0
 70
   688
 72
     0
 73
     0
 74
     5
  7

 75
    16
147
1.0
148
0.0
149
0.0
100
AcDbLayout
  1
Layout1
 70
     1
 71
     1
 10
0.0
 20
0.0
 11
594.0
 21
420.0
 12
0.0
 22
0.0
 32
0.0
 14
0.0
 24
0.0
 34
0.0
 15
594.0
 25
420.0
 35
0.0
146
0.0
 13
0.0
 23
0.0
 33
0.0
 16
1.0
 26
0.0
 36
0.0
 17
0.0
 27
1.0
 37
0.0
 76
     0
330
1B
  0
LAYOUT
  5
22
102
{ACAD_REACTORS
330
1A
102
}
330
1A
100
AcDbPlotSettings
  1

  2

  4

  6

 40
0.0
 41
0.0
 42
0.0
 43
0.0
 44
0.0
 45
0.0
 46
0.0
 47
0.0
 48
0.0
 49
0.0
140
0.0
141
0.0
142
1.0
143
1.0
 70
  1712
 72
     0
 73
     0
 74
     0
  7

 75
     0
147
1.0
148
0.0
149
0.0
100
AcDbLayout
  1
Model
 70
     1
 71
     0
 10
0.0
 20
0.0
 11
594.0
 21
420.0
 12
0.0
 22
0.0
 32
0.0
 14
0.0
 24
0.0
 34
0.0
 15
594.0
 25
420.0
 35
0.0
146
0.0
 13
0.0
 23
0.0
 33
0.0
 16
1.0
 26
0.0
 36
0.0
 17
0.0
 27
1.0
 37
0.0
 76
     0
330
1F
  0
MLINESTYLE
  5
18
102
{ACAD_REACTORS
330
17
102
}
330
17
100
AcDbMlineStyle
  2
Standard
 70
     0
  3

 62
   256
 51
90.0
 52
90.0
 71
     2
 49
0.5
 62
   256
  6
BYLAYER
 49
-0.5
 62
   256
  6
BYLAYER
  0
ACDBPLACEHOLDER
  5
F
102
{ACAD_REACTORS
330
E
102
}
330
E
  0
ENDSEC
  0
EOF
