  0
SECTION
  2
HEADER
  9
$ACADVER
  1
AC1015
  9
$ACADMAINTVER
 70
     6
  9
$DWGCODEPAGE
  3
ANSI_1252
  9
$INSBASE
 10
0.0
 20
0.0
 30
0.0
  9
$EXTMIN
 10
0.0
 20
0.0
 30
0.0
  9
$EXTMAX
 10
594.0
 20
420.0
 30
0.0
  9
$LIMMIN
 10
0.0
 20
0.0
  9
$LIMMAX
 10
594.0
 20
420.0
  9
$ORTHOMODE
 70
     0
  9
$REGENMODE
 70
     1
  9
$FILLMODE
 70
     1
  9
$QTEXTMODE
 70
     0
  9
$MIRRTEXT
 70
     1
  9
$LTSCALE
 40
1.0
  9
$ATTMODE
 70
     1
  9
$TEXTSIZE
 40
0.2
  9
$TRACEWID
 40
0.05
  9
$TEXTSTYLE
  7
Standard
  9
$CLAYER
  8
0
  9
$CELTYPE
  6
ByLayer
  9
$CECOLOR
 62
   256
  9
$CELTSCALE
 40
25.4
  9
$DISPSILH
 70
     0
  9
$DIMSCALE
 40
1.0
  9
$DIMASZ
 40
0.18
  9
$DIMEXO
 40
0.0625
  9
$DIMDLI
 40
0.38
  9
$DIMRND
 40
0.0
  9
$DIMDLE
 40
0.0
  9
$DIMEXE
 40
0.18
  9
$DIMTP
 40
0.0
  9
$DIMTM
 40
0.0
  9
$DIMTXT
 40
0.18
  9
$DIMCEN
 40
0.09
  9
$DIMTSZ
 40
0.0
  9
$DIMTOL
 70
     0
  9
$DIMLIM
 70
     0
  9
$DIMTIH
 70
     1
  9
$DIMTOH
 70
     1
  9
$DIMSE1
 70
     0
  9
$DIMSE2
 70
     0
  9
$DIMTAD
 70
     0
  9
$DIMZIN
 70
     0
  9
$DIMBLK
  1

  9
$DIMASO
 70
     1
  9
$DIMSHO
 70
     1
  9
$DIMPOST
  1

  9
$DIMAPOST
  1

  9
$DIMALT
 70
     0
  9
$DIMALTD
 70
     2
  9
$DIMALTF
 40
25.4
  9
$DIMLFAC
 40
1.0
  9
$DIMTOFL
 70
     0
  9
$DIMTVP
 40
0.0
  9
$DIMTIX
 70
     0
  9
$DIMSOXD
 70
     0
  9
$DIMSAH
 70
     0
  9
$DIMBLK1
  1

  9
$DIMBLK2
  1

  9
$DIMSTYLE
  2
Standard
  9
$DIMCLRD
 70
     0
  9
$DIMCLRE
 70
     0
  9
$DIMCLRT
 70
     0
  9
$DIMTFAC
 40
1.0
  9
$DIMGAP
 40
0.09
  9
$DIMJUST
 70
     0
  9
$DIMSD1
 70
     0
  9
$DIMSD2
 70
     0
  9
$DIMTOLJ
 70
     1
  9
$DIMTZIN
 70
     0
  9
$DIMALTZ
 70
     0
  9
$DIMALTTZ
 70
     0
  9
$DIMUPT
 70
     0
  9
$DIMDEC
 70
     4
  9
$DIMTDEC
 70
     4
  9
$DIMALTU
 70
     2
  9
$DIMALTTD
 70
     2
  9
$DIMTXSTY
  7
Standard
  9
$DIMAUNIT
 70
     0
  9
$DIMADEC
 70
     0
  9
$DIMALTRND
 40
0.0
  9
$DIMAZIN
 70
     0
  9
$DIMDSEP
 70
    46
  9
$DIMATFIT
 70
     3
  9
$DIMFRAC
 70
     0
  9
$DIMLDRBLK
  1

  9
$DIMLUNIT
 70
     2
  9
$DIMLWD
 70
    -2
  9
$DIMLWE
 70
    -2
  9
$DIMTMOVE
 70
     0
  9
$LUNITS
 70
     2
  9
$LUPREC
 70
     4
  9
$SKETCHINC
 40
0.1
  9
$FILLETRAD
 40
0.5
  9
$AUNITS
 70
     0
  9
$AUPREC
 70
     0
  9
$MENU
  1
.
  9
$ELEVATION
 40
0.0
  9
$PELEVATION
 40
0.0
  9
$THICKNESS
 40
0.0
  9
$LIMCHECK
 70
     0
  9
$CHAMFERA
 40
0.5
  9
$CHAMFERB
 40
0.5
  9
$CHAMFERC
 40
1.0
  9
$CHAMFERD
 40
0.0
  9
$SKPOLY
 70
     0
  9
$TDCREATE
 40
2454876.37179838
  9
$TDUCREATE
 40
2454876.37179838
  9
$TDUPDATE
 40
2454876.371798391
  9
$TDUUPDATE
 40
2454876.371798391
  9
$TDINDWG
 40
0.0000000116
  9
$TDUSRTIMER
 40
0.0000000116
  9
$USRTIMER
 70
     1
  9
$ANGBASE
 50
0.0
  9
$ANGDIR
 70
     0
  9
$PDMODE
 70
     0
  9
$PDSIZE
 40
0.0
  9
$PLINEWID
 40
0.0
  9
$SPLFRAME
 70
     0
  9
$SPLINETYPE
 70
     6
  9
$SPLINESEGS
 70
     8
  9
$HANDSEED
  5
409
  9
$SURFTAB1
 70
     6
  9
$SURFTAB2
 70
     6
  9
$SURFTYPE
 70
     6
  9
$SURFU
 70
     6
  9
$SURFV
 70
     6
  9
$UCSBASE
  2

  9
$UCSNAME
  2

  9
$UCSORG
 10
0.0
 20
0.0
 30
0.0
  9
$UCSXDIR
 10
1.0
 20
0.0
 30
0.0
  9
$UCSYDIR
 10
0.0
 20
1.0
 30
0.0
  9
$UCSORTHOREF
  2

  9
$UCSORTHOVIEW
 70
     0
  9
$UCSORGTOP
 10
0.0
 20
0.0
 30
0.0
  9
$UCSORGBOTTOM
 10
0.0
 20
0.0
 30
0.0
  9
$UCSORGLEFT
 10
0.0
 20
0.0
 30
0.0
  9
$UCSORGRIGHT
 10
0.0
 20
0.0
 30
0.0
  9
$UCSORGFRONT
 10
0.0
 20
0.0
 30
0.0
  9
$UCSORGBACK
 10
0.0
 20
0.0
 30
0.0
  9
$PUCSBASE
  2

  9
$PUCSNAME
  2

  9
$PUCSORG
 10
0.0
 20
0.0
 30
0.0
  9
$PUCSXDIR
 10
1.0
 20
0.0
 30
0.0
  9
$PUCSYDIR
 10
0.0
 20
1.0
 30
0.0
  9
$PUCSORTHOREF
  2

  9
$PUCSORTHOVIEW
 70
     0
  9
$PUCSORGTOP
 10
0.0
 20
0.0
 30
0.0
  9
$PUCSORGBOTTOM
 10
0.0
 20
0.0
 30
0.0
  9
$PUCSORGLEFT
 10
0.0
 20
0.0
 30
0.0
  9
$PUCSORGRIGHT
 10
0.0
 20
0.0
 30
0.0
  9
$PUCSORGFRONT
 10
0.0
 20
0.0
 30
0.0
  9
$PUCSORGBACK
 10
0.0
 20
0.0
 30
0.0
  9
$USERI1
 70
     0
  9
$USERI2
 70
     0
  9
$USERI3
 70
     0
  9
$USERI4
 70
     0
  9
$USERI5
 70
     0
  9
$USERR1
 40
0.0
  9
$USERR2
 40
0.0
  9
$USERR3
 40
0.0
  9
$USERR4
 40
0.0
  9
$USERR5
 40
0.0
  9
$WORLDVIEW
 70
     1
  9
$SHADEDGE
 70
     3
  9
$SHADEDIF
 70
    70
  9
$TILEMODE
 70
     1
  9
$MAXACTVP
 70
    64
  9
$PINSBASE
 10
0.0
 20
0.0
 30
0.0
  9
$PLIMCHECK
 70
     0
  9
$PEXTMIN
 10
0.0
 20
0.0
 30
0.0
  9
$PEXTMAX
 10
594.0
 20
420.0
 30
0.0
  9
$PLIMMIN
 10
0.0
 20
0.0
  9
$PLIMMAX
 10
594.0
 20
420.0
  9
$UNITMODE
 70
     0
  9
$VISRETAIN
 70
     1
  9
$PLINEGEN
 70
     0
  9
$PSLTSCALE
 70
     1
  9
$TREEDEPTH
 70
  3020
  9
$CMLSTYLE
  2
Standard
  9
$CMLJUST
 70
     0
  9
$CMLSCALE
 40
1.0
  9
$PROXYGRAPHICS
 70
     1
  9
$MEASUREMENT
 70
     1
  9
$CELWEIGHT
370
    -1
  9
$ENDCAPS
280
     0
  9
$JOINSTYLE
280
     0
  9
$LWDISPLAY
290
     0
  9
$INSUNITS
 70
     1
  9
$HYPERLINKBASE
  1

  9
$STYLESHEET
  1

  9
$XEDIT
290
     1
  9
$CEPSNTYPE
380
     0
  9
$PSTYLEMODE
290
     1
  9
$FINGERPRINTGUID
  2
{77596201-A28F-435A-8655-C9A9E4D4C730}
  9
$VERSIONGUID
  2
{FAEB1C32-E019-11D5-929B-00C0DF256EC4}
  9
$EXTNAMES
290
     1
  9
$PSVPSCALE
 40
0.0
  9
$OLESTARTUP
290
     0
  0
ENDSEC
  0
SECTION
  2
CLASSES
  0
CLASS
  1
ACDBDICTIONARYWDFLT
  2
AcDbDictionaryWithDefault
  3
ObjectDBX Classes
 90
        0
280
     0
281
     0
  0
CLASS
  1
ACDBPLACEHOLDER
  2
AcDbPlaceHolder
  3
ObjectDBX Classes
 90
        0
280
     0
281
     0
  0
CLASS
  1
LAYOUT
  2
AcDbLayout
  3
ObjectDBX Classes
 90
        0
280
     0
281
     0
  0
ENDSEC
  0
SECTION
  2
TABLES
  0
TABLE
  2
VPORT
  5
8
330
0
100
AcDbSymbolTable
 70
     1
  0
VPORT
  5
29
330
8
100
AcDbSymbolTableRecord
100
AcDbViewportTableRecord
  2
*Active
 70
     0
 10
0.0
 20
0.0
 11
1.0
 21
1.0
 12
10.4299065421
 22
4.5
 13
0.0
 23
0.0
 14
0.5
 24
0.5
 15
0.5
 25
0.5
 16
0.0
 26
0.0
 36
1.0
 17
0.0
 27
0.0
 37
0.0
 40
9.0
 41
1.9729729729
 42
50.0
 43
0.0
 44
0.0
 50
0.0
 51
0.0
 71
     0
 72
   100
 73
     1
 74
     3
 75
     0
 76
     0
 77
     0
 78
     0
281
     0
 65
     1
110
0.0
120
0.0
130
0.0
111
1.0
121
0.0
131
0.0
112
0.0
122
1.0
132
0.0
 79
     0
146
0.0
  0
ENDTAB
  0
TABLE
  2
LTYPE
  5
5
330
0
100
AcDbSymbolTable
 70
     3
  0
LTYPE
  5
14
330
5
100
AcDbSymbolTableRecord
100
AcDbLinetypeTableRecord
  2
ByBlock
 70
     0
  3

 72
    65
 73
     0
 40
0.0
  0
LTYPE
  5
15
330
5
100
AcDbSymbolTableRecord
100
AcDbLinetypeTableRecord
  2
ByLayer
 70
     0
  3

 72
    65
 73
     0
 40
0.0
  0
LTYPE
  5
16
330
5
100
AcDbSymbolTableRecord
100
AcDbLinetypeTableRecord
  2
Continuous
 70
     0
  3
Solid line
 72
    65
 73
     0
 40
0.0
  0
LTYPE
  5
69
330
5
100
AcDbSymbolTableRecord
100
AcDbLinetypeTableRecord
  2
CENTER2
 70
     0
  3
___ _ ___ _ ___ _ ___ _ ___ _ ___ _ ___ _ ___ _
 72
    65
 73
     4
 40
1.125
 49
0.75
 74
     4
 75
     0
340
0
 46
0.0
 50
0.0
 44
0.0
 45
0.0
 49
-0.125
 74
     4
 75
     0
340
0
 46
0.0
 50
0.0
 44
0.0
 45
0.0
 49
0.125
 74
     4
 75
     0
340
0
 46
0.0
 50
0.0
 44
0.0
 45
0.0
 49
-0.125
 74
     4
 75
     0
340
0
 46
0.0
 50
0.0
 44
0.0
 45
0.0
  0
LTYPE
  5
1BE
330
5
100
AcDbSymbolTableRecord
100
AcDbLinetypeTableRecord
  2
HIDDEN2
 70
     0
  3
_ _ _ _ _ _ _ _ _ _ _ _ _ _ _ _ _ _ _ _ _ _ _ _
 72
    65
 73
     2
 40
0.1875
 49
0.125
 74
     4
 75
     0
340
0
 46
0.0
 50
0.0
 44
0.0
 45
0.0
 49
-0.0625
 74
     4
 75
     0
340
0
 46
0.0
 50
0.0
 44
0.0
 45
0.0
  0
ENDTAB
  0
TABLE
  2
LAYER
  5
2
330
0
100
AcDbSymbolTable
 70
     6
  0
LAYER
  5
10
330
2
100
AcDbSymbolTableRecord
100
AcDbLayerTableRecord
  2
0
 70
     0
 62
     7
  6
Continuous
370
    -3
390
F
  0
LAYER
  5
2A
330
2
100
AcDbSymbolTableRecord
100
AcDbLayerTableRecord
  2
Default
 70
     0
 62
     7
  6
Continuous
370
    -3
390
F
  0
LAYER
  5
68
330
2
100
AcDbSymbolTableRecord
100
AcDbLayerTableRecord
  2
DV1_Default
 70
     0
 62
     7
  6
Continuous
370
    -3
390
F
  0
LAYER
  5
117
330
2
100
AcDbSymbolTableRecord
100
AcDbLayerTableRecord
  2
DV2_Default
 70
     0
 62
     7
  6
Continuous
370
    -3
390
F
  0
LAYER
  5
329
330
2
100
AcDbSymbolTableRecord
100
AcDbLayerTableRecord
  2
DV3_Default
 70
     0
 62
     7
  6
Continuous
370
    -3
390
F
  0
LAYER
  5
3F8
330
2
100
AcDbSymbolTableRecord
100
AcDbLayerTableRecord
  2
BORDER
 70
     0
 62
     7
  6
Continuous
370
    -3
390
F
  0
ENDTAB
  0
TABLE
  2
STYLE
  5
3
330
0
100
AcDbSymbolTable
 70
     3
  0
STYLE
  5
11
330
3
100
AcDbSymbolTableRecord
100
AcDbTextStyleTableRecord
  2
Standard
 70
     0
 40
0.0
 41
1.0
 50
0.0
 71
     0
 42
0.2
  3
txt
  4

  0
STYLE
  5
31
330
3
100
AcDbSymbolTableRecord
100
AcDbTextStyleTableRecord
  2
SEACAD_semeca1_ttf
 70
     0
 40
0.2
 41
1.0
 50
0.0
 71
     0
 42
0.2
  3
semeca1.ttf
  4

  0
STYLE
  5
33
330
3
100
AcDbSymbolTableRecord
100
AcDbTextStyleTableRecord
  2
SEACAD_arial_ttf
 70
     0
 40
0.2
 41
1.0
 50
0.0
 71
     0
 42
0.2
  3
arial.ttf
  4

  0
ENDTAB
  0
TABLE
  2
VIEW
  5
6
330
0
100
AcDbSymbolTable
 70
     0
  0
ENDTAB
  0
TABLE
  2
UCS
  5
7
330
0
100
AcDbSymbolTable
 70
     0
  0
ENDTAB
  0
TABLE
  2
APPID
  5
9
330
0
100
AcDbSymbolTable
 70
     1
  0
APPID
  5
12
330
9
100
AcDbSymbolTableRecord
100
AcDbRegAppTableRecord
  2
ACAD
 70
     0
  0
ENDTAB
  0
TABLE
  2
DIMSTYLE
  5
A
330
0
100
AcDbSymbolTable
 70
     1
100
AcDbDimStyleTable
  0
DIMSTYLE
105
27
330
A
100
AcDbSymbolTableRecord
100
AcDbDimStyleTableRecord
  2
Standard
 70
     0
340
11
  0
ENDTAB
  0
TABLE
  2
BLOCK_RECORD
  5
1
330
0
100
AcDbSymbolTable
 70
    40
  0
BLOCK_RECORD
  5
1F
330
1
100
AcDbSymbolTableRecord
100
AcDbBlockTableRecord
  2
*Model_Space
340
22
  0
BLOCK_RECORD
  5
1B
330
1
100
AcDbSymbolTableRecord
100
AcDbBlockTableRecord
  2
*Paper_Space
340
1E
  0
BLOCK_RECORD
  5
2B
330
1
100
AcDbSymbolTableRecord
100
AcDbBlockTableRecord
  2
SEANNOT_GROUP
340
0
102
{BLKREFS
331
2C
102
}
  0
BLOCK_RECORD
  5
37
330
1
100
AcDbSymbolTableRecord
100
AcDbBlockTableRecord
  2
SEANNOT_GROUP1
340
0
102
{BLKREFS
331
38
102
}
  0
BLOCK_RECORD
  5
41
330
1
100
AcDbSymbolTableRecord
100
AcDbBlockTableRecord
  2
SEANNOT_GROUP2
340
0
102
{BLKREFS
331
42
102
}
  0
BLOCK_RECORD
  5
4A
330
1
100
AcDbSymbolTableRecord
100
AcDbBlockTableRecord
  2
SEANNOT_GROUP3
340
0
102
{BLKREFS
331
4B
102
}
  0
BLOCK_RECORD
  5
54
330
1
100
AcDbSymbolTableRecord
100
AcDbBlockTableRecord
  2
SEANNOT_GROUP4
340
0
102
{BLKREFS
331
55
102
}
  0
BLOCK_RECORD
  5
5D
330
1
100
AcDbSymbolTableRecord
100
AcDbBlockTableRecord
  2
SEANNOT_GROUP5
340
0
102
{BLKREFS
331
5E
102
}
  0
BLOCK_RECORD
  5
66
330
1
100
AcDbSymbolTableRecord
100
AcDbBlockTableRecord
  2
SE
340
0
102
{BLKREFS
331
67
102
}
  0
BLOCK_RECORD
  5
109
330
1
100
AcDbSymbolTableRecord
100
AcDbBlockTableRecord
  2
GDimGGroup
340
0
102
{BLKREFS
331
10A
102
}
  0
BLOCK_RECORD
  5
115
330
1
100
AcDbSymbolTableRecord
100
AcDbBlockTableRecord
  2
SE1
340
0
102
{BLKREFS
331
116
102
}
  0
BLOCK_RECORD
  5
1F4
330
1
100
AcDbSymbolTableRecord
100
AcDbBlockTableRecord
  2
GDimGGroup1
340
0
102
{BLKREFS
331
1F5
102
}
  0
BLOCK_RECORD
  5
200
330
1
100
AcDbSymbolTableRecord
100
AcDbBlockTableRecord
  2
GDimGGroup2
340
0
102
{BLKREFS
331
201
102
}
  0
BLOCK_RECORD
  5
20C
330
1
100
AcDbSymbolTableRecord
100
AcDbBlockTableRecord
  2
GDimGGroup3
340
0
102
{BLKREFS
331
20D
102
}
  0
BLOCK_RECORD
  5
218
330
1
100
AcDbSymbolTableRecord
100
AcDbBlockTableRecord
  2
GDimGGroup4
340
0
102
{BLKREFS
331
219
102
}
  0
BLOCK_RECORD
  5
224
330
1
100
AcDbSymbolTableRecord
100
AcDbBlockTableRecord
  2
GDimGGroup5
340
0
102
{BLKREFS
331
225
102
}
  0
BLOCK_RECORD
  5
230
330
1
100
AcDbSymbolTableRecord
100
AcDbBlockTableRecord
  2
GDimGGroup6
340
0
102
{BLKREFS
331
231
102
}
  0
BLOCK_RECORD
  5
23B
330
1
100
AcDbSymbolTableRecord
100
AcDbBlockTableRecord
  2
GDimGGroup7
340
0
102
{BLKREFS
331
23C
102
}
  0
BLOCK_RECORD
  5
247
330
1
100
AcDbSymbolTableRecord
100
AcDbBlockTableRecord
  2
GDimGGroup8
340
0
102
{BLKREFS
331
248
102
}
  0
BLOCK_RECORD
  5
253
330
1
100
AcDbSymbolTableRecord
100
AcDbBlockTableRecord
  2
GDimGGroup9
340
0
102
{BLKREFS
331
254
102
}
  0
BLOCK_RECORD
  5
260
330
1
100
AcDbSymbolTableRecord
100
AcDbBlockTableRecord
  2
GDimGGroup10
340
0
102
{BLKREFS
331
261
102
}
  0
BLOCK_RECORD
  5
26B
330
1
100
AcDbSymbolTableRecord
100
AcDbBlockTableRecord
  2
GDimGGroup11
340
0
102
{BLKREFS
331
26C
102
}
  0
BLOCK_RECORD
  5
278
330
1
100
AcDbSymbolTableRecord
100
AcDbBlockTableRecord
  2
GDimGGroup12
340
0
102
{BLKREFS
331
279
102
}
  0
BLOCK_RECORD
  5
283
330
1
100
AcDbSymbolTableRecord
100
AcDbBlockTableRecord
  2
GDimGGroup13
340
0
102
{BLKREFS
331
284
102
}
  0
BLOCK_RECORD
  5
290
330
1
100
AcDbSymbolTableRecord
100
AcDbBlockTableRecord
  2
GDimGGroup14
340
0
102
{BLKREFS
331
291
102
}
  0
BLOCK_RECORD
  5
29B
330
1
100
AcDbSymbolTableRecord
100
AcDbBlockTableRecord
  2
GDimGGroup15
340
0
102
{BLKREFS
331
29C
102
}
  0
BLOCK_RECORD
  5
2A9
330
1
100
AcDbSymbolTableRecord
100
AcDbBlockTableRecord
  2
GDimGGroup16
340
0
102
{BLKREFS
331
2AA
102
}
  0
BLOCK_RECORD
  5
2B6
330
1
100
AcDbSymbolTableRecord
100
AcDbBlockTableRecord
  2
GDimGGroup17
340
0
102
{BLKREFS
331
2B7
102
}
  0
BLOCK_RECORD
  5
2C2
330
1
100
AcDbSymbolTableRecord
100
AcDbBlockTableRecord
  2
GDimGGroup18
340
0
102
{BLKREFS
331
2C3
102
}
  0
BLOCK_RECORD
  5
2CE
330
1
100
AcDbSymbolTableRecord
100
AcDbBlockTableRecord
  2
GDimGGroup19
340
0
102
{BLKREFS
331
2CF
102
}
  0
BLOCK_RECORD
  5
2DA
330
1
100
AcDbSymbolTableRecord
100
AcDbBlockTableRecord
  2
GDimGGroup20
340
0
102
{BLKREFS
331
2DB
102
}
  0
BLOCK_RECORD
  5
2E8
330
1
100
AcDbSymbolTableRecord
100
AcDbBlockTableRecord
  2
GDimGGroup21
340
0
102
{BLKREFS
331
2E9
102
}
  0
BLOCK_RECORD
  5
2F5
330
1
100
AcDbSymbolTableRecord
100
AcDbBlockTableRecord
  2
GDimGGroup22
340
0
102
{BLKREFS
331
2F6
102
}
  0
BLOCK_RECORD
  5
2FF
330
1
100
AcDbSymbolTableRecord
100
AcDbBlockTableRecord
  2
GDimGGroup23
340
0
102
{BLKREFS
331
300
102
}
  0
BLOCK_RECORD
  5
30B
330
1
100
AcDbSymbolTableRecord
100
AcDbBlockTableRecord
  2
GDimGGroup24
340
0
102
{BLKREFS
331
30C
102
}
  0
BLOCK_RECORD
  5
319
330
1
100
AcDbSymbolTableRecord
100
AcDbBlockTableRecord
  2
GDimGGroup25
340
0
102
{BLKREFS
331
31A
102
}
  0
BLOCK_RECORD
  5
327
330
1
100
AcDbSymbolTableRecord
100
AcDbBlockTableRecord
  2
SE2
340
0
102
{BLKREFS
331
328
102
}
  0
BLOCK_RECORD
  5
3C7
330
1
100
AcDbSymbolTableRecord
100
AcDbBlockTableRecord
  2
GDimGGroup26
340
0
102
{BLKREFS
331
3C8
102
}
  0
BLOCK_RECORD
  5
3D3
330
1
100
AcDbSymbolTableRecord
100
AcDbBlockTableRecord
  2
GDimGGroup27
340
0
102
{BLKREFS
331
3D4
102
}
  0
BLOCK_RECORD
  5
3E0
330
1
100
AcDbSymbolTableRecord
100
AcDbBlockTableRecord
  2
GDimGGroup28
340
0
102
{BLKREFS
331
3E1
102
}
  0
BLOCK_RECORD
  5
3EC
330
1
100
AcDbSymbolTableRecord
100
AcDbBlockTableRecord
  2
GDimGGroup29
340
0
102
{BLKREFS
331
3ED
102
}
  0
ENDTAB
  0
ENDSEC
  0
SECTION
  2
BLOCKS
  0
BLOCK
  5
20
330
1F
100
AcDbEntity
  8
0
100
AcDbBlockBegin
  2
*Model_Space
 70
     0
 71
     0
 10
0.0
 20
0.0
 30
0.0
  3
*Model_Space
  1

  0
ENDBLK
  5
21
330
1F
100
AcDbEntity
  8
0
100
AcDbBlockEnd
  0
BLOCK
  5
1C
330
1B
100
AcDbEntity
 67
     1
  8
0
100
AcDbBlockBegin
  2
*Paper_Space
 70
     0
 71
     0
 10
0.0
 20
0.0
 30
0.0
  3
*Paper_Space
  1

  0
ENDBLK
  5
1D
330
1B
100
AcDbEntity
 67
     1
  8
0
100
AcDbBlockEnd
  0
BLOCK
  5
35
330
2B
100
AcDbEntity
  8
0
100
AcDbBlockBegin
  2
SEANNOT_GROUP
 70
     0
 71
     0
 10
0.0
 20
0.0
 30
0.0
  3
SEANNOT_GROUP
  1

  0
LWPOLYLINE
  5
2D
330
2B
100
AcDbEntity
  8
Default
  6
Continuous
 62
     7
 48
25.4
100
AcDbPolyline
 90
        2
 70
     0
 43
0.0
 10
238.7823110493
 20
261.4016342306
 10
238.7823110493
 20
240.3894278789
  0
HATCH
  5
2E
330
2B
100
AcDbEntity
  8
Default
  6
Continuous
 62
     7
 48
25.4
100
AcDbHatch
 10
0.0
 20
0.0
 30
0.0
210
0.0
220
0.0
230
1.0
  2
SOLID
 70
     1
 71
     0
 91
        1
 92
        1
 93
        3
 72
     1
 10
238.1156443509399
 20
244.3894280688473
 11
238.7823110492715
 21
240.3894278788575
 72
     1
 10
238.7823110492715
 20
240.3894278788575
 11
239.4489777476031
 21
244.3894280688473
 72
     1
 10
239.4489777476031
 20
244.3894280688473
 11
238.1156443509399
 21
244.3894280688473
 97
        0
 75
     0
 76
     1
 98
        0
  0
LWPOLYLINE
  5
2F
330
2B
100
AcDbEntity
  8
Default
  6
Continuous
 62
     7
 48
25.4
370
    30
100
AcDbPolyline
 90
        4
 70
     1
 43
0.00035
 10
238.1156443509
 20
244.3894280688
 10
238.7823110493
 20
240.3894278789
 10
239.4489777476
 20
244.3894280688
 10
238.1156443509
 20
244.3894280688
  0
LINE
  5
30
330
2B
100
AcDbEntity
  8
Default
  6
Continuous
 62
     7
 48
25.4
100
AcDbLine
 10
226.9860498726
 20
240.3894278789
 30
0.0
 11
240.7823110493
 21
240.3894278789
 31
0.0
  0
TEXT
  5
32
330
2B
100
AcDbEntity
  8
Default
  6
Continuous
 62
     7
 48
25.4
100
AcDbText
 10
240.1823110493
 20
259.4016342306
 30
0.0
 40
4.0
  1
O
  7
SEACAD_semeca1_ttf
 11
240.1823110493
 21
263.4016342306
 31
0.0
100
AcDbText
 73
     3
  0
TEXT
  5
34
330
2B
100
AcDbEntity
  8
Default
  6
Continuous
 62
     7
 48
25.4
100
AcDbText
 10
244.743714558
 20
259.4016342306
 30
0.0
 40
4.0
  1
104.8
  7
SEACAD_arial_ttf
 11
244.743714558
 21
263.4016342306
 31
0.0
100
AcDbText
 73
     3
  0
ENDBLK
  5
36
330
2B
100
AcDbEntity
  8
0
100
AcDbBlockEnd
  0
BLOCK
  5
3F
330
37
100
AcDbEntity
  8
0
100
AcDbBlockBegin
  2
SEANNOT_GROUP1
 70
     0
 71
     0
 10
0.0
 20
0.0
 30
0.0
  3
SEANNOT_GROUP1
  1

  0
LWPOLYLINE
  5
39
330
37
100
AcDbEntity
  8
Default
  6
Continuous
 62
     7
 48
25.4
100
AcDbPolyline
 90
        2
 70
     0
 43
0.0
 10
120.1596499211
 20
342.0502950542
 10
120.1596499211
 20
351.847539297
  0
HATCH
  5
3A
330
37
100
AcDbEntity
  8
Default
  6
Continuous
 62
     7
 48
25.4
100
AcDbHatch
 10
0.0
 20
0.0
 30
0.0
210
0.0
220
0.0
230
1.0
  2
SOLID
 70
     1
 71
     0
 91
        1
 92
        1
 93
        3
 72
     1
 10
120.8263166194786
 20
347.8475391070589
 11
120.159649921147
 21
351.8475392970487
 72
     1
 10
120.159649921147
 20
351.8475392970487
 11
119.4929832228153
 21
347.8475391070589
 72
     1
 10
119.4929832228153
 20
347.8475391070589
 11
120.8263166194786
 21
347.8475391070589
 97
        0
 75
     0
 76
     1
 98
        0
  0
LWPOLYLINE
  5
3B
330
37
100
AcDbEntity
  8
Default
  6
Continuous
 62
     7
 48
25.4
370
    30
100
AcDbPolyline
 90
        4
 70
     1
 43
0.00035
 10
120.8263166195
 20
347.8475391071
 10
120.1596499211
 20
351.847539297
 10
119.4929832228
 20
347.8475391071
 10
120.8263166195
 20
347.8475391071
  0
LINE
  5
3C
330
37
100
AcDbEntity
  8
Default
  6
Continuous
 62
     7
 48
25.4
100
AcDbLine
 10
123.5856397388
 20
351.847539297
 30
0.0
 11
118.1596499211
 21
351.847539297
 31
0.0
  0
TEXT
  5
3D
330
37
100
AcDbEntity
  8
Default
  6
Continuous
 62
     7
 48
25.4
100
AcDbText
 10
104.8069420645
 20
340.0502950542
 30
0.0
 40
4.0
  1
O
  7
SEACAD_semeca1_ttf
 11
104.8069420645
 21
344.0502950542
 31
0.0
100
AcDbText
 73
     3
  0
TEXT
  5
3E
330
37
100
AcDbEntity
  8
Default
  6
Continuous
 62
     7
 48
25.4
100
AcDbText
 10
109.3683455733
 20
340.0502950542
 30
0.0
 40
4.0
  1
116
  7
SEACAD_arial_ttf
 11
109.3683455733
 21
344.0502950542
 31
0.0
100
AcDbText
 73
     3
  0
ENDBLK
  5
40
330
37
100
AcDbEntity
  8
0
100
AcDbBlockEnd
  0
BLOCK
  5
48
330
41
100
AcDbEntity
  8
0
100
AcDbBlockBegin
  2
SEANNOT_GROUP2
 70
     0
 71
     0
 10
0.0
 20
0.0
 30
0.0
  3
SEANNOT_GROUP2
  1

  0
LWPOLYLINE
  5
43
330
41
100
AcDbEntity
  8
Default
  6
Continuous
 62
     7
 48
25.4
100
AcDbPolyline
 90
        2
 70
     0
 43
0.0
 10
152.0856397388
 20
386.6773665569
 10
143.9537989175
 20
354.7671697305
  0
HATCH
  5
44
330
41
100
AcDbEntity
  8
Default
  6
Continuous
 62
     7
 48
25.4
100
AcDbHatch
 10
0.0
 20
0.0
 30
0.0
210
0.0
220
0.0
230
1.0
  2
SOLID
 70
     1
 71
     0
 91
        1
 92
        1
 93
        3
 72
     1
 10
144.2955506877274
 20
358.8079186380587
 11
143.9537989174672
 21
354.7671697304789
 72
     1
 10
143.9537989174672
 20
354.7671697304789
 11
145.5875907782797
 21
358.4786613662133
 72
     1
 10
145.5875907782797
 20
358.4786613662133
 11
144.2955506877274
 21
358.8079186380587
 97
        0
 75
     0
 76
     1
 98
        0
  0
LWPOLYLINE
  5
45
330
41
100
AcDbEntity
  8
Default
  6
Continuous
 62
     7
 48
25.4
370
    30
100
AcDbPolyline
 90
        4
 70
     1
 43
0.00035
 10
144.2955506877
 20
358.8079186381
 10
143.9537989175
 20
354.7671697305
 10
145.5875907783
 20
358.4786613662
 10
144.2955506877
 20
358.8079186381
  0
LINE
  5
46
330
41
100
AcDbEntity
  8
Default
  6
Continuous
 62
     7
 48
25.4
100
AcDbLine
 10
152.0856397388
 20
386.6773665569
 30
0.0
 11
164.7812919127
 21
386.6773665569
 31
0.0
  0
TEXT
  5
47
330
41
100
AcDbEntity
  8
Default
  6
Continuous
 62
     7
 48
25.4
100
AcDbText
 10
152.0856397388
 20
387.6773665569
 30
0.0
 40
4.0
  1
3-M6
  7
SEACAD_arial_ttf
 11
152.0856397388
 21
391.6773665569
 31
0.0
100
AcDbText
 73
     3
  0
ENDBLK
  5
49
330
41
100
AcDbEntity
  8
0
100
AcDbBlockEnd
  0
BLOCK
  5
52
330
4A
100
AcDbEntity
  8
0
100
AcDbBlockBegin
  2
SEANNOT_GROUP3
 70
     0
 71
     0
 10
0.0
 20
0.0
 30
0.0
  3
SEANNOT_GROUP3
  1

  0
LWPOLYLINE
  5
4C
330
4A
100
AcDbEntity
  8
Default
  6
Continuous
 62
     7
 48
25.4
100
AcDbPolyline
 90
        2
 70
     0
 43
0.0
 10
250.9236644839
 20
388.9699249715
 10
220.0185705674
 20
368.3970030403
  0
HATCH
  5
4D
330
4A
100
AcDbEntity
  8
Default
  6
Continuous
 62
     7
 48
25.4
100
AcDbHatch
 10
0.0
 20
0.0
 30
0.0
210
0.0
220
0.0
230
1.0
  2
SOLID
 70
     1
 71
     0
 91
        1
 92
        1
 93
        3
 72
     1
 10
222.9788652594288
 20
371.168483031688
 11
220.0185705673729
 21
368.3970030402812
 72
     1
 10
220.0185705673729
 20
368.3970030402812
 11
223.7177077057199
 21
370.0585777266208
 72
     1
 10
223.7177077057199
 20
370.0585777266208
 11
222.9788652594288
 21
371.168483031688
 97
        0
 75
     0
 76
     1
 98
        0
  0
LWPOLYLINE
  5
4E
330
4A
100
AcDbEntity
  8
Default
  6
Continuous
 62
     7
 48
25.4
370
    30
100
AcDbPolyline
 90
        4
 70
     1
 43
0.00035
 10
222.9788652594
 20
371.1684830317
 10
220.0185705674
 20
368.3970030403
 10
223.7177077057
 20
370.0585777266
 10
222.9788652594
 20
371.1684830317
  0
LINE
  5
4F
330
4A
100
AcDbEntity
  8
Default
  6
Continuous
 62
     7
 48
25.4
100
AcDbLine
 10
250.9236644839
 20
388.9699249715
 30
0.0
 11
322.7642441941
 21
388.9699249715
 31
0.0
  0
TEXT
  5
50
330
4A
100
AcDbEntity
  8
Default
  6
Continuous
 62
     7
 48
25.4
100
AcDbText
 10
250.9236644839
 20
389.9699249715
 30
0.0
 40
4.0
  1
SERRATION PITCH 1.5X60
  7
SEACAD_arial_ttf
 11
250.9236644839
 21
393.9699249715
 31
0.0
100
AcDbText
 73
     3
  0
TEXT
  5
51
330
4A
100
AcDbEntity
  8
Default
  6
Continuous
 62
     7
 48
25.4
100
AcDbText
 10
321.0975775274
 20
389.9699249715
 30
0.0
 40
4.0
  1
°
  7
SEACAD_arial_ttf
 11
321.0975775274
 21
393.9699249715
 31
0.0
100
AcDbText
 73
     3
  0
ENDBLK
  5
53
330
4A
100
AcDbEntity
  8
0
100
AcDbBlockEnd
  0
BLOCK
  5
5B
330
54
100
AcDbEntity
  8
0
100
AcDbBlockBegin
  2
SEANNOT_GROUP4
 70
     0
 71
     0
 10
0.0
 20
0.0
 30
0.0
  3
SEANNOT_GROUP4
  1

  0
LWPOLYLINE
  5
56
330
54
100
AcDbEntity
  8
Default
  6
Continuous
 62
     7
 48
25.4
100
AcDbPolyline
 90
        2
 70
     0
 43
0.0
 10
94.4932547748
 20
212.5245335017
 10
115.4929266394
 20
235.3894278789
  0
HATCH
  5
57
330
54
100
AcDbEntity
  8
Default
  6
Continuous
 62
     7
 48
25.4
100
AcDbHatch
 10
0.0
 20
0.0
 30
0.0
210
0.0
220
0.0
230
1.0
  2
SOLID
 70
     1
 71
     0
 91
        1
 92
        1
 93
        3
 72
     1
 10
113.2782217326656
 20
231.9924397742783
 11
115.4929266394037
 21
235.3894278788575
 72
     1
 10
115.4929266394037
 20
235.3894278788575
 11
112.2962096396527
 21
232.8943434253598
 72
     1
 10
112.2962096396527
 20
232.8943434253598
 11
113.2782217326656
 21
231.9924397742783
 97
        0
 75
     0
 76
     1
 98
        0
  0
LWPOLYLINE
  5
58
330
54
100
AcDbEntity
  8
Default
  6
Continuous
 62
     7
 48
25.4
370
    30
100
AcDbPolyline
 90
        4
 70
     1
 43
0.00035
 10
113.2782217327
 20
231.9924397743
 10
115.4929266394
 20
235.3894278789
 10
112.2962096397
 20
232.8943434254
 10
113.2782217327
 20
231.9924397743
  0
LINE
  5
59
330
54
100
AcDbEntity
  8
Default
  6
Continuous
 62
     7
 48
25.4
100
AcDbLine
 10
94.4932547748
 20
212.5245335017
 30
0.0
 11
78.6671678183
 21
212.5245335017
 31
0.0
  0
TEXT
  5
5A
330
54
100
AcDbEntity
  8
Default
  6
Continuous
 62
     7
 48
25.4
100
AcDbText
 10
78.6671678183
 20
213.5245335017
 30
0.0
 40
4.0
  1
6-M10
  7
SEACAD_arial_ttf
 11
78.6671678183
 21
217.5245335017
 31
0.0
100
AcDbText
 73
     3
  0
ENDBLK
  5
5C
330
54
100
AcDbEntity
  8
0
100
AcDbBlockEnd
  0
BLOCK
  5
64
330
5D
100
AcDbEntity
  8
0
100
AcDbBlockBegin
  2
SEANNOT_GROUP5
 70
     0
 71
     0
 10
0.0
 20
0.0
 30
0.0
  3
SEANNOT_GROUP5
  1

  0
LWPOLYLINE
  5
5F
330
5D
100
AcDbEntity
  8
Default
  6
Continuous
 62
     7
 48
25.4
100
AcDbPolyline
 90
        2
 70
     0
 43
0.0
 10
167.8471299397
 20
349.2663039887
 10
156.0445052821
 20
319.8869847499
  0
HATCH
  5
60
330
5D
100
AcDbEntity
  8
Default
  6
Continuous
 62
     7
 48
25.4
100
AcDbHatch
 10
0.0
 20
0.0
 30
0.0
210
0.0
220
0.0
230
1.0
  2
SOLID
 70
     1
 71
     0
 91
        1
 92
        1
 93
        3
 72
     1
 10
156.9169953872107
 20
323.8471876516301
 11
156.0445052821479
 21
319.8869847498648
 72
     1
 10
156.0445052821479
 20
319.8869847498648
 11
158.1542238902123
 21
323.3501528661089
 72
     1
 10
158.1542238902123
 20
323.3501528661088
 11
156.9169953872107
 21
323.8471876516301
 97
        0
 75
     0
 76
     1
 98
        0
  0
LWPOLYLINE
  5
61
330
5D
100
AcDbEntity
  8
Default
  6
Continuous
 62
     7
 48
25.4
370
    30
100
AcDbPolyline
 90
        4
 70
     1
 43
0.00035
 10
156.9169953872
 20
323.8471876516
 10
156.0445052821
 20
319.8869847499
 10
158.1542238902
 20
323.3501528661
 10
156.9169953872
 20
323.8471876516
  0
LINE
  5
62
330
5D
100
AcDbEntity
  8
Default
  6
Continuous
 62
     7
 48
25.4
100
AcDbLine
 10
167.8471299397
 20
349.2663039887
 30
0.0
 11
203.5862603745
 21
349.2663039887
 31
0.0
  0
TEXT
  5
63
330
5D
100
AcDbEntity
  8
Default
  6
Continuous
 62
     7
 48
25.4
100
AcDbText
 10
167.8471299397
 20
350.2663039887
 30
0.0
 40
4.0
  1
MAX M55X2.0
  7
SEACAD_arial_ttf
 11
167.8471299397
 21
354.2663039887
 31
0.0
100
AcDbText
 73
     3
  0
ENDBLK
  5
65
330
5D
100
AcDbEntity
  8
0
100
AcDbBlockEnd
  0
BLOCK
  5
107
330
66
100
AcDbEntity
  8
0
100
AcDbBlockBegin
  2
SE
 70
     0
 71
     0
 10
0.0
 20
0.0
 30
0.0
  3
SE
  1

  0
LINE
  5
6A
330
66
100
AcDbEntity
  8
DV1_Default
  6
CENTER2
 62
     7
 48
25.4
100
AcDbLine
 10
353.4300666678
 20
291.8534859899
 30
0.0
 11
533.4300666678
 21
291.8534859899
 31
0.0
  0
LINE
  5
6B
330
66
100
AcDbEntity
  8
DV1_Default
  6
Continuous
 62
     7
 48
25.4
100
AcDbLine
 10
443.4300666678
 20
377.3075662319
 30
0.0
 11
456.4300666678
 21
377.3075662319
 31
0.0
  0
LINE
  5
6C
330
66
100
AcDbEntity
  8
DV1_Default
  6
Continuous
 62
     7
 48
25.4
100
AcDbLine
 10
445.9300666678
 20
311.3075662319
 30
0.0
 11
443.4300666678
 21
311.3075662319
 31
0.0
  0
LINE
  5
6D
330
66
100
AcDbEntity
  8
DV1_Default
  6
Continuous
 62
     7
 48
25.4
100
AcDbLine
 10
445.9300666678
 20
311.3075662319
 30
0.0
 11
456.4300666678
 21
317.3697440584
 31
0.0
  0
LINE
  5
6E
330
66
100
AcDbEntity
  8
DV1_Default
  6
Continuous
 62
     7
 48
25.4
100
AcDbLine
 10
456.4300666678
 20
377.3075662319
 30
0.0
 11
456.4300666678
 21
317.3697440584
 31
0.0
  0
LINE
  5
6F
330
66
100
AcDbEntity
  8
DV1_Default
  6
Continuous
 62
     7
 48
25.4
100
AcDbLine
 10
456.4300666678
 20
376.3198498006
 30
0.0
 11
458.4300666678
 21
376.3198498006
 31
0.0
  0
LINE
  5
70
330
66
100
AcDbEntity
  8
DV1_Default
  6
Continuous
 62
     7
 48
25.4
100
AcDbLine
 10
458.4300666678
 20
376.3198498006
 30
0.0
 11
458.4300666678
 21
320.8026977073
 31
0.0
  0
LINE
  5
71
330
66
100
AcDbEntity
  8
DV1_Default
  6
Continuous
 62
     7
 48
25.4
100
AcDbLine
 10
458.4300666678
 20
376.3198498006
 30
0.0
 11
464.2218214113
 21
374.7679537943
 31
0.0
  0
LINE
  5
72
330
66
100
AcDbEntity
  8
DV1_Default
  6
Continuous
 62
     7
 48
25.4
100
AcDbLine
 10
464.2218214113
 20
374.7679537943
 30
0.0
 11
464.2218214113
 21
373.7096598235
 31
0.0
  0
CIRCLE
  5
73
330
66
100
AcDbEntity
  8
DV1_Default
  6
Continuous
 62
     7
 48
25.4
100
AcDbCircle
 10
443.4300666678
 20
291.8075026618
 30
0.0
 40
10.0
  0
ARC
  5
74
330
66
100
AcDbEntity
  8
DV1_Default
  6
Continuous
 62
     7
 48
25.4
100
AcDbCircle
 10
443.4300666678
 20
291.8075026618
 30
0.0
 40
35.0
100
AcDbArc
 50
355.3769335252
 51
64.6230664748
  0
LINE
  5
75
330
66
100
AcDbEntity
  8
DV1_Default
  6
Continuous
 62
     7
 48
25.4
100
AcDbLine
 10
456.4300666678
 20
320.8026977073
 30
0.0
 11
463.0330935839
 21
320.8026977073
 31
0.0
  0
LINE
  5
76
330
66
100
AcDbEntity
  8
DV1_Default
  6
Continuous
 62
     7
 48
25.4
100
AcDbLine
 10
456.4300666678
 20
318.8026977073
 30
0.0
 11
465.7069480576
 21
318.8026977073
 31
0.0
  0
LINE
  5
77
330
66
100
AcDbEntity
  8
DV1_Default
  6
Continuous
 62
     7
 48
25.4
100
AcDbLine
 10
456.43008006
 20
324.0525334324
 30
0.0
 11
458.43008006
 21
324.0525334324
 31
0.0
  0
LINE
  5
78
330
66
100
AcDbEntity
  8
DV1_Default
  6
CENTER2
 62
     7
 48
25.4
100
AcDbLine
 10
474.472056974
 20
322.849492968
 30
0.0
 11
486.4928660184
 21
334.8703020124
 31
0.0
  0
LINE
  5
79
330
66
100
AcDbEntity
  8
DV1_Default
  6
CENTER2
 62
     7
 48
25.4
100
AcDbLine
 10
485.8346031234
 20
303.1697639605
 30
0.0
 11
502.2544047488
 21
307.5694365459
 31
0.0
  0
CIRCLE
  5
7A
330
66
100
AcDbEntity
  8
DV1_Default
  6
Continuous
 62
     7
 48
25.4
100
AcDbCircle
 10
480.4885835842
 20
328.8537754023
 30
0.0
 40
8.5
  0
CIRCLE
  5
7B
330
66
100
AcDbEntity
  8
DV1_Default
  6
Continuous
 62
     7
 48
25.4
100
AcDbCircle
 10
480.4885835842
 20
328.8537754023
 30
0.0
 40
6.0
  0
CIRCLE
  5
7C
330
66
100
AcDbEntity
  8
DV1_Default
  6
Continuous
 62
     7
 48
25.4
100
AcDbCircle
 10
494.0680108201
 20
305.2818713678
 30
0.0
 40
6.0
  0
CIRCLE
  5
7D
330
66
100
AcDbEntity
  8
DV1_Default
  6
Continuous
 62
     7
 48
25.4
100
AcDbCircle
 10
494.0680108201
 20
305.2818713678
 30
0.0
 40
8.5
  0
CIRCLE
  5
7E
330
66
100
AcDbEntity
  8
DV1_Default
  6
Continuous
 62
     7
 48
25.4
100
AcDbCircle
 10
468.5630794695
 20
306.2758013699
 30
0.0
 40
5.0
  0
CIRCLE
  5
7F
330
66
100
AcDbEntity
  8
DV1_Default
  6
Continuous
 62
     7
 48
25.4
100
AcDbCircle
 10
468.5630794695
 20
306.2758013699
 30
0.0
 40
5.5
  0
ARC
  5
80
330
66
100
AcDbEntity
  8
DV1_Default
  6
CENTER2
 62
     7
 48
25.4
100
AcDbCircle
 10
443.4300666678
 20
291.8075026618
 30
0.0
 40
29.0
100
AcDbArc
 50
259.1895029126
 51
280.9550886367
  0
ARC
  5
81
330
66
100
AcDbEntity
  8
DV1_Default
  6
CENTER2
 62
     7
 48
25.4
100
AcDbCircle
 10
443.4300666678
 20
291.8075026618
 30
0.0
 40
29.0
100
AcDbArc
 50
19.0449113633
 51
40.8104970874
  0
LINE
  5
82
330
66
100
AcDbEntity
  8
DV1_Default
  6
Continuous
 62
     7
 48
25.4
100
AcDbLine
 10
443.4300666678
 20
377.3075662319
 30
0.0
 11
430.4300666678
 21
377.3075662319
 31
0.0
  0
LINE
  5
83
330
66
100
AcDbEntity
  8
DV1_Default
  6
Continuous
 62
     7
 48
25.4
100
AcDbLine
 10
440.9300666678
 20
311.3075662319
 30
0.0
 11
443.4300666678
 21
311.3075662319
 31
0.0
  0
LINE
  5
84
330
66
100
AcDbEntity
  8
DV1_Default
  6
Continuous
 62
     7
 48
25.4
100
AcDbLine
 10
440.9300666678
 20
311.3075662319
 30
0.0
 11
430.4300666678
 21
317.3697440584
 31
0.0
  0
LINE
  5
85
330
66
100
AcDbEntity
  8
DV1_Default
  6
Continuous
 62
     7
 48
25.4
100
AcDbLine
 10
430.4300666678
 20
377.3075662319
 30
0.0
 11
430.4300666678
 21
317.3697440584
 31
0.0
  0
LINE
  5
86
330
66
100
AcDbEntity
  8
DV1_Default
  6
Continuous
 62
     7
 48
25.4
100
AcDbLine
 10
430.4300666678
 20
376.3198498006
 30
0.0
 11
428.4300666678
 21
376.3198498006
 31
0.0
  0
LINE
  5
87
330
66
100
AcDbEntity
  8
DV1_Default
  6
Continuous
 62
     7
 48
25.4
100
AcDbLine
 10
428.4300666678
 20
376.3198498006
 30
0.0
 11
428.4300666678
 21
320.8026977073
 31
0.0
  0
LINE
  5
88
330
66
100
AcDbEntity
  8
DV1_Default
  6
Continuous
 62
     7
 48
25.4
100
AcDbLine
 10
428.4300666678
 20
376.3198498006
 30
0.0
 11
422.6383119243
 21
374.7679537943
 31
0.0
  0
LINE
  5
89
330
66
100
AcDbEntity
  8
DV1_Default
  6
Continuous
 62
     7
 48
25.4
100
AcDbLine
 10
422.6383119243
 20
374.7679537943
 30
0.0
 11
422.6383119243
 21
373.7096598235
 31
0.0
  0
LINE
  5
8A
330
66
100
AcDbEntity
  8
DV1_Default
  6
Continuous
 62
     7
 48
25.4
100
AcDbLine
 10
430.4300666678
 20
320.8026977073
 30
0.0
 11
423.8270397517
 21
320.8026977073
 31
0.0
  0
LINE
  5
8B
330
66
100
AcDbEntity
  8
DV1_Default
  6
Continuous
 62
     7
 48
25.4
100
AcDbLine
 10
430.4300666678
 20
318.8026977073
 30
0.0
 11
421.153185278
 21
318.8026977073
 31
0.0
  0
LINE
  5
8C
330
66
100
AcDbEntity
  8
DV1_Default
  6
Continuous
 62
     7
 48
25.4
100
AcDbLine
 10
430.4300532756
 20
324.0525334324
 30
0.0
 11
428.4300532756
 21
324.0525334324
 31
0.0
  0
CIRCLE
  5
8D
330
66
100
AcDbEntity
  8
DV1_Default
  6
Continuous
 62
     7
 48
25.4
100
AcDbCircle
 10
406.3715497514
 20
328.8537754023
 30
0.0
 40
8.5
  0
CIRCLE
  5
8E
330
66
100
AcDbEntity
  8
DV1_Default
  6
Continuous
 62
     7
 48
25.4
100
AcDbCircle
 10
406.3715497514
 20
328.8537754023
 30
0.0
 40
6.0
  0
CIRCLE
  5
8F
330
66
100
AcDbEntity
  8
DV1_Default
  6
Continuous
 62
     7
 48
25.4
100
AcDbCircle
 10
392.7921225155
 20
305.2818713678
 30
0.0
 40
6.0
  0
CIRCLE
  5
90
330
66
100
AcDbEntity
  8
DV1_Default
  6
Continuous
 62
     7
 48
25.4
100
AcDbCircle
 10
392.7921225155
 20
305.2818713678
 30
0.0
 40
8.5
  0
CIRCLE
  5
91
330
66
100
AcDbEntity
  8
DV1_Default
  6
Continuous
 62
     7
 48
25.4
100
AcDbCircle
 10
418.2970538661
 20
306.2758013699
 30
0.0
 40
5.0
  0
CIRCLE
  5
92
330
66
100
AcDbEntity
  8
DV1_Default
  6
Continuous
 62
     7
 48
25.4
100
AcDbCircle
 10
418.2970538661
 20
306.2758013699
 30
0.0
 40
5.5
  0
ARC
  5
93
330
66
100
AcDbEntity
  8
DV1_Default
  6
CENTER2
 62
     7
 48
25.4
100
AcDbCircle
 10
443.4300666678
 20
291.8075026618
 30
0.0
 40
52.40000000000001
100
AcDbArc
 50
275.794926415
 51
294.4036924025
  0
ARC
  5
94
330
66
100
AcDbEntity
  8
DV1_Default
  6
CENTER2
 62
     7
 48
25.4
100
AcDbCircle
 10
443.4300666678
 20
291.8075026618
 30
0.0
 40
52.40000000000001
100
AcDbArc
 50
125.7050838653
 51
144.3138498527
  0
ARC
  5
95
330
66
100
AcDbEntity
  8
DV1_Default
  6
CENTER2
 62
     7
 48
25.4
100
AcDbCircle
 10
443.4300666678
 20
291.8075026618
 30
0.0
 40
52.40000000000001
100
AcDbArc
 50
5.5963075975
 51
24.205073585
  0
ARC
  5
96
330
66
100
AcDbEntity
  8
DV1_Default
  6
CENTER2
 62
     7
 48
25.4
100
AcDbCircle
 10
443.4300666678
 20
291.8075026618
 30
0.0
 40
29.0
100
AcDbArc
 50
139.1895029126
 51
160.9550886367
  0
LINE
  5
97
330
66
100
AcDbEntity
  8
DV1_Default
  6
Continuous
 62
     7
 48
25.4
100
AcDbLine
 10
516.6082514241
 20
249.5578080738
 30
0.0
 11
516.6188893066
 21
249.5516662895
 31
0.0
  0
LINE
  5
98
330
66
100
AcDbEntity
  8
DV1_Default
  6
Continuous
 62
     7
 48
25.4
100
AcDbLine
 10
524.1188893066
 20
262.5420473462
 30
0.0
 11
476.039625248
 21
290.3006233929
 31
0.0
  0
LINE
  5
99
330
66
100
AcDbEntity
  8
DV1_Default
  6
Continuous
 62
     7
 48
25.4
100
AcDbLine
 10
524.1188893066
 20
262.5420473462
 30
0.0
 11
525.6707853129
 21
268.3338020897
 31
0.0
  0
LINE
  5
9A
330
66
100
AcDbEntity
  8
DV1_Default
  6
Continuous
 62
     7
 48
25.4
100
AcDbLine
 10
525.6707853129
 20
268.3338020897
 30
0.0
 11
524.7542758495
 21
268.8629490751
 31
0.0
  0
LINE
  5
9B
330
66
100
AcDbEntity
  8
DV1_Default
  6
Continuous
 62
     7
 48
25.4
100
AcDbLine
 10
516.6082514241
 20
249.5578080738
 30
0.0
 11
516.6188893066
 21
249.5516662895
 31
0.0
  0
LINE
  5
9C
330
66
100
AcDbEntity
  8
DV1_Default
  6
Continuous
 62
     7
 48
25.4
100
AcDbLine
 10
509.1188893066
 20
236.5612852327
 30
0.0
 11
504.8790305694
 21
232.3214264955
 31
0.0
  0
LINE
  5
9D
330
66
100
AcDbEntity
  8
DV1_Default
  6
Continuous
 62
     7
 48
25.4
100
AcDbLine
 10
504.8790305694
 20
232.3214264955
 30
0.0
 11
503.962521106
 21
232.8505734809
 31
0.0
  0
LINE
  5
9E
330
66
100
AcDbEntity
  8
DV1_Default
  6
Continuous
 62
     7
 48
25.4
100
AcDbLine
 10
509.1188893066
 20
236.5612852327
 30
0.0
 11
524.1188893066
 21
262.5420473462
 31
0.0
  0
LINE
  5
9F
330
66
100
AcDbEntity
  8
DV1_Default
  6
Continuous
 62
     7
 48
25.4
100
AcDbLine
 10
474.3540655441
 20
280.8814768962
 30
0.0
 11
519.6188893066
 21
254.7478187121
 31
0.0
  0
LINE
  5
A0
330
66
100
AcDbEntity
  8
DV1_Default
  6
Continuous
 62
     7
 48
25.4
100
AcDbLine
 10
468.3540655441
 20
270.4891720508
 30
0.0
 11
463.8540655441
 21
262.6949434168
 31
0.0
  0
LINE
  5
A1
330
66
100
AcDbEntity
  8
DV1_Default
  6
Continuous
 62
     7
 48
25.4
100
AcDbLine
 10
474.3540655441
 20
280.8814768962
 30
0.0
 11
478.8540655441
 21
288.6757055303
 31
0.0
  0
ARC
  5
A2
330
66
100
AcDbEntity
  8
DV1_Default
  6
Continuous
 62
     7
 48
25.4
100
AcDbCircle
 10
474.7280622256
 20
273.7373465812
 30
0.0
 40
6.000000000000005
100
AcDbArc
 50
60.0
 51
240.0
  0
ARC
  5
A3
330
66
100
AcDbEntity
  8
DV1_Default
  6
Continuous
 62
     7
 48
25.4
100
AcDbCircle
 10
476.0325477811
 20
272.9842014946
 30
0.0
 40
6.000000000000005
100
AcDbArc
 50
60.0
 51
240.0
  0
LINE
  5
A4
330
66
100
AcDbEntity
  8
DV1_Default
  6
Continuous
 62
     7
 48
25.4
100
AcDbLine
 10
461.039625248
 20
264.3198612793
 30
0.0
 11
509.1188893066
 21
236.5612852327
 31
0.0
  0
LINE
  5
A5
330
66
100
AcDbEntity
  8
DV1_Default
  6
Continuous
 62
     7
 48
25.4
100
AcDbLine
 10
468.3540655441
 20
270.4891720508
 30
0.0
 11
513.6188893066
 21
244.3555138667
 31
0.0
  0
LINE
  5
A6
330
66
100
AcDbEntity
  8
DV1_Default
  6
Continuous
 62
     7
 48
25.4
100
AcDbLine
 10
474.3540655441
 20
280.8814768962
 30
0.0
 11
478.8540655441
 21
288.6757055303
 31
0.0
  0
LINE
  5
A7
330
66
100
AcDbEntity
  8
DV1_Default
  6
Continuous
 62
     7
 48
25.4
100
AcDbLine
 10
474.3540655441
 20
280.8814768962
 30
0.0
 11
519.6188893066
 21
254.7478187121
 31
0.0
  0
LINE
  5
A8
330
66
100
AcDbEntity
  8
DV1_Default
  6
Continuous
 62
     7
 48
25.4
100
AcDbLine
 10
377.7359954267
 20
236.5776595859
 30
0.0
 11
425.8152594853
 21
264.3362356325
 31
0.0
  0
LINE
  5
A9
330
66
100
AcDbEntity
  8
DV1_Default
  6
Continuous
 62
     7
 48
25.4
100
AcDbLine
 10
377.7359954267
 20
236.5776595859
 30
0.0
 11
381.9758541639
 21
232.3378008487
 31
0.0
  0
LINE
  5
AA
330
66
100
AcDbEntity
  8
DV1_Default
  6
Continuous
 62
     7
 48
25.4
100
AcDbLine
 10
381.9758541639
 20
232.3378008487
 30
0.0
 11
382.8923636273
 21
232.8669478341
 31
0.0
  0
LINE
  5
AB
330
66
100
AcDbEntity
  8
DV1_Default
  6
Continuous
 62
     7
 48
25.4
100
AcDbLine
 10
362.7359954267
 20
262.5584216994
 30
0.0
 11
361.1840994204
 21
268.3501764429
 31
0.0
  0
LINE
  5
AC
330
66
100
AcDbEntity
  8
DV1_Default
  6
Continuous
 62
     7
 48
25.4
100
AcDbLine
 10
361.1840994204
 20
268.3501764429
 30
0.0
 11
362.1006088838
 21
268.8793234283
 31
0.0
  0
LINE
  5
AD
330
66
100
AcDbEntity
  8
DV1_Default
  6
Continuous
 62
     7
 48
25.4
100
AcDbLine
 10
362.7359954267
 20
262.5584216994
 30
0.0
 11
377.7359954267
 21
236.5776595859
 31
0.0
  0
LINE
  5
AE
330
66
100
AcDbEntity
  8
DV1_Default
  6
Continuous
 62
     7
 48
25.4
100
AcDbLine
 10
418.5008191892
 20
270.5055464041
 30
0.0
 11
373.2359954267
 21
244.37188822
 31
0.0
  0
LINE
  5
AF
330
66
100
AcDbEntity
  8
DV1_Default
  6
Continuous
 62
     7
 48
25.4
100
AcDbLine
 10
412.5008191892
 20
280.8978512495
 30
0.0
 11
408.0008191892
 21
288.6920798835
 31
0.0
  0
LINE
  5
B0
330
66
100
AcDbEntity
  8
DV1_Default
  6
Continuous
 62
     7
 48
25.4
100
AcDbLine
 10
418.5008191892
 20
270.5055464041
 30
0.0
 11
423.0008191892
 21
262.71131777
 31
0.0
  0
ARC
  5
B1
330
66
100
AcDbEntity
  8
DV1_Default
  6
Continuous
 62
     7
 48
25.4
100
AcDbCircle
 10
412.1268225076
 20
273.7537209344
 30
0.0
 40
6.000000000000005
100
AcDbArc
 50
300.0
 51
120.0
  0
ARC
  5
B2
330
66
100
AcDbEntity
  8
DV1_Default
  6
Continuous
 62
     7
 48
25.4
100
AcDbCircle
 10
410.8223369522
 20
273.0005758478
 30
0.0
 40
6.000000000000005
100
AcDbArc
 50
300.0
 51
120.0
  0
LINE
  5
B3
330
66
100
AcDbEntity
  8
DV1_Default
  6
Continuous
 62
     7
 48
25.4
100
AcDbLine
 10
410.8152594852
 20
290.3169977461
 30
0.0
 11
362.7359954267
 21
262.5584216994
 31
0.0
  0
LINE
  5
B4
330
66
100
AcDbEntity
  8
DV1_Default
  6
Continuous
 62
     7
 48
25.4
100
AcDbLine
 10
412.5008191892
 20
280.8978512495
 30
0.0
 11
367.2359954267
 21
254.7641930654
 31
0.0
  0
LINE
  5
B5
330
66
100
AcDbEntity
  8
DV1_Default
  6
Continuous
 62
     7
 48
25.4
100
AcDbLine
 10
418.5008191892
 20
270.5055464041
 30
0.0
 11
423.0008191892
 21
262.71131777
 31
0.0
  0
LINE
  5
B6
330
66
100
AcDbEntity
  8
DV1_Default
  6
Continuous
 62
     7
 48
25.4
100
AcDbLine
 10
418.5008191892
 20
270.5055464041
 30
0.0
 11
373.2359954267
 21
244.37188822
 31
0.0
  0
ARC
  5
B7
330
66
100
AcDbEntity
  8
DV1_Default
  6
Continuous
 62
     7
 48
25.4
100
AcDbCircle
 10
443.4300666678
 20
291.8075026618
 30
0.0
 40
84.5
100
AcDbArc
 50
220.2136076235
 51
319.7748140153
  0
ARC
  5
B8
330
66
100
AcDbEntity
  8
DV1_Default
  6
Continuous
 62
     7
 48
25.4
100
AcDbCircle
 10
443.4300666678
 20
291.8075026618
 30
0.0
 40
35.0
100
AcDbArc
 50
115.3769335252
 51
184.6230664748
  0
ARC
  5
B9
330
66
100
AcDbEntity
  8
DV1_Default
  6
Continuous
 62
     7
 48
25.4
100
AcDbCircle
 10
443.4300666678
 20
291.8075026618
 30
0.0
 40
35.0
100
AcDbArc
 50
235.3769335252
 51
304.6230664748
  0
ARC
  5
BA
330
66
100
AcDbEntity
  8
DV1_Default
  6
Continuous
 62
     7
 48
25.4
100
AcDbCircle
 10
443.4300666678
 20
291.8075026618
 30
0.0
 40
84.5
100
AcDbArc
 50
340.2248877346
 51
79.7749631404
  0
LINE
  5
BB
330
66
100
AcDbEntity
  8
DV1_Default
  6
Continuous
 62
     7
 48
25.4
100
AcDbLine
 10
464.0710572132
 20
273.5437697567
 30
0.0
 11
477.9502257155
 21
297.5831947695
 31
0.0
  0
LINE
  5
BC
330
66
100
AcDbEntity
  8
DV1_Default
  6
Continuous
 62
     7
 48
25.4
100
AcDbLine
 10
464.0710572132
 20
273.5437697567
 30
0.0
 11
455.688250102
 21
259.02432193
 31
0.0
  0
LINE
  5
BD
330
66
100
AcDbEntity
  8
DV1_Default
  6
Continuous
 62
     7
 48
25.4
100
AcDbLine
 10
465.7915527711
 20
272.5504411832
 30
0.0
 11
458.7374440529
 21
260.3323664812
 31
0.0
  0
LINE
  5
BE
330
66
100
AcDbEntity
  8
DV1_Default
  6
Continuous
 62
     7
 48
25.4
100
AcDbLine
 10
465.7915527711
 20
272.5504411832
 30
0.0
 11
478.3161945431
 21
294.6285099059
 31
0.0
  0
LINE
  5
BF
330
66
100
AcDbEntity
  8
DV1_Default
  6
Continuous
 62
     7
 48
25.4
100
AcDbLine
 10
418.5060677915
 20
270.4891720508
 30
0.0
 11
423.0060677915
 21
262.6949434168
 31
0.0
  0
LINE
  5
C0
330
66
100
AcDbEntity
  8
DV1_Default
  6
Continuous
 62
     7
 48
25.4
100
AcDbLine
 10
412.5060677915
 20
280.8814768962
 30
0.0
 11
408.0060677915
 21
288.6757055303
 31
0.0
  0
LINE
  5
C1
330
66
100
AcDbEntity
  8
DV1_Default
  6
Continuous
 62
     7
 48
25.4
100
AcDbLine
 10
412.5060677915
 20
280.8814768962
 30
0.0
 11
408.0060677915
 21
288.6757055303
 31
0.0
  0
LINE
  5
C2
330
66
100
AcDbEntity
  8
DV1_Default
  6
Continuous
 62
     7
 48
25.4
100
AcDbLine
 10
422.7890761224
 20
273.5437697567
 30
0.0
 11
408.9099076201
 21
297.5831947695
 31
0.0
  0
LINE
  5
C3
330
66
100
AcDbEntity
  8
DV1_Default
  6
Continuous
 62
     7
 48
25.4
100
AcDbLine
 10
422.7890761224
 20
273.5437697567
 30
0.0
 11
431.1718832336
 21
259.02432193
 31
0.0
  0
LINE
  5
C4
330
66
100
AcDbEntity
  8
DV1_Default
  6
Continuous
 62
     7
 48
25.4
100
AcDbLine
 10
421.0685805645
 20
272.5504411832
 30
0.0
 11
428.1226892827
 21
260.3323664812
 31
0.0
  0
LINE
  5
C5
330
66
100
AcDbEntity
  8
DV1_Default
  6
Continuous
 62
     7
 48
25.4
100
AcDbLine
 10
421.0685805645
 20
272.5504411832
 30
0.0
 11
408.5439387925
 21
294.6285099059
 31
0.0
  0
CIRCLE
  5
C6
330
66
100
AcDbEntity
  8
DV1_Default
  6
Continuous
 62
     7
 48
25.4
100
AcDbCircle
 10
429.8763118172
 20
241.1907492154
 30
0.0
 40
8.5
  0
CIRCLE
  5
C7
330
66
100
AcDbEntity
  8
DV1_Default
  6
Continuous
 62
     7
 48
25.4
100
AcDbCircle
 10
429.8763118172
 20
241.1907492154
 30
0.0
 40
6.0
  0
CIRCLE
  5
C8
330
66
100
AcDbEntity
  8
DV1_Default
  6
Continuous
 62
     7
 48
25.4
100
AcDbCircle
 10
457.0798931446
 20
241.2165722775
 30
0.0
 40
6.0
  0
CIRCLE
  5
C9
330
66
100
AcDbEntity
  8
DV1_Default
  6
Continuous
 62
     7
 48
25.4
100
AcDbCircle
 10
457.0798931446
 20
241.2165722775
 30
0.0
 40
8.5
  0
CIRCLE
  5
CA
330
66
100
AcDbEntity
  8
DV1_Default
  6
Continuous
 62
     7
 48
25.4
100
AcDbCircle
 10
443.4666588379
 20
262.8075257478
 30
0.0
 40
5.0
  0
CIRCLE
  5
CB
330
66
100
AcDbEntity
  8
DV1_Default
  6
Continuous
 62
     7
 48
25.4
100
AcDbCircle
 10
443.4666588379
 20
262.8075257478
 30
0.0
 40
5.5
  0
ARC
  5
CC
330
66
100
AcDbEntity
  8
DV1_Default
  6
CENTER2
 62
     7
 48
25.4
100
AcDbCircle
 10
443.4300666678
 20
291.8075026618
 30
0.0
 40
29.0
100
AcDbArc
 50
259.1895029126
 51
280.9550886367
  0
ARC
  5
CD
330
66
100
AcDbEntity
  8
DV1_Default
  6
CENTER2
 62
     7
 48
25.4
100
AcDbCircle
 10
443.4300666678
 20
291.8075026618
 30
0.0
 40
52.40000000000001
100
AcDbArc
 50
313.365600827
 51
313.3658478226
  0
LINE
  5
CE
330
66
100
AcDbEntity
  8
DV1_Default
  6
CENTER2
 62
     7
 48
25.4
100
AcDbLine
 10
443.4300666678
 20
291.8075026618
 30
0.0
 11
527.1898402899
 21
244.3555138667
 31
0.0
  0
LINE
  5
CF
330
66
100
AcDbEntity
  8
DV1_Default
  6
CENTER2
 62
     7
 48
25.4
100
AcDbLine
 10
443.4300666678
 20
291.8075026618
 30
0.0
 11
361.4245630336
 21
244.37188822
 31
0.0
  0
ARC
  5
D0
330
66
100
AcDbEntity
  8
DV1_Default
  6
Continuous
 62
     7
 48
25.4
100
AcDbCircle
 10
443.4300666678
 20
291.8075026618
 30
0.0
 40
84.5
100
AcDbArc
 50
100.2250368596
 51
199.763533493
  0
LINE
  5
D1
330
66
100
AcDbEntity
  8
DV1_Default
  6
Continuous
 62
     7
 48
25.4
100
AcDbLine
 10
443.4300666678
 20
264.3075026618
 30
0.0
 11
442.1310285621
 21
263.5575026618
 31
0.0
  0
LINE
  5
D2
330
66
100
AcDbEntity
  8
DV1_Default
  6
Continuous
 62
     7
 48
25.4
100
AcDbLine
 10
442.1310285621
 20
263.5575026618
 30
0.0
 11
442.1310285621
 21
262.0575026618
 31
0.0
  0
LINE
  5
D3
330
66
100
AcDbEntity
  8
DV1_Default
  6
Continuous
 62
     7
 48
25.4
100
AcDbLine
 10
442.1310285621
 20
262.0575026618
 30
0.0
 11
443.4300666678
 21
261.3075026618
 31
0.0
  0
LINE
  5
D4
330
66
100
AcDbEntity
  8
DV1_Default
  6
Continuous
 62
     7
 48
25.4
100
AcDbLine
 10
443.4300666678
 20
261.3075026618
 30
0.0
 11
444.7291047735
 21
262.0575026618
 31
0.0
  0
LINE
  5
D5
330
66
100
AcDbEntity
  8
DV1_Default
  6
Continuous
 62
     7
 48
25.4
100
AcDbLine
 10
444.7291047735
 20
262.0575026618
 30
0.0
 11
444.7291047735
 21
263.5575026618
 31
0.0
  0
LINE
  5
D6
330
66
100
AcDbEntity
  8
DV1_Default
  6
Continuous
 62
     7
 48
25.4
100
AcDbLine
 10
444.7291047735
 20
263.5575026618
 30
0.0
 11
443.4300666678
 21
264.3075026618
 31
0.0
  0
LINE
  5
D7
330
66
100
AcDbEntity
  8
DV1_Default
  6
Continuous
 62
     7
 48
25.4
100
AcDbLine
 10
419.5347226031
 20
305.6034859899
 30
0.0
 11
418.2356844974
 21
304.8534859899
 31
0.0
  0
LINE
  5
D8
330
66
100
AcDbEntity
  8
DV1_Default
  6
Continuous
 62
     7
 48
25.4
100
AcDbLine
 10
418.2356844974
 20
304.8534859899
 30
0.0
 11
416.9366463918
 21
305.6034859899
 31
0.0
  0
LINE
  5
D9
330
66
100
AcDbEntity
  8
DV1_Default
  6
Continuous
 62
     7
 48
25.4
100
AcDbLine
 10
416.9366463918
 20
305.6034859899
 30
0.0
 11
416.9366463918
 21
307.1034859899
 31
0.0
  0
LINE
  5
DA
330
66
100
AcDbEntity
  8
DV1_Default
  6
Continuous
 62
     7
 48
25.4
100
AcDbLine
 10
416.9366463918
 20
307.1034859899
 30
0.0
 11
418.2356844974
 21
307.8534859899
 31
0.0
  0
LINE
  5
DB
330
66
100
AcDbEntity
  8
DV1_Default
  6
Continuous
 62
     7
 48
25.4
100
AcDbLine
 10
418.2356844974
 20
307.8534859899
 30
0.0
 11
419.5347226031
 21
307.1034859899
 31
0.0
  0
LINE
  5
DC
330
66
100
AcDbEntity
  8
DV1_Default
  6
Continuous
 62
     7
 48
25.4
100
AcDbLine
 10
419.5347226031
 20
307.1034859899
 30
0.0
 11
419.5347226031
 21
305.6034859899
 31
0.0
  0
LINE
  5
DD
330
66
100
AcDbEntity
  8
DV1_Default
  6
Continuous
 62
     7
 48
25.4
100
AcDbLine
 10
467.3249068984
 20
307.0863002467
 30
0.0
 11
468.6190496372
 21
307.844716077
 31
0.0
  0
LINE
  5
DE
330
66
100
AcDbEntity
  8
DV1_Default
  6
Continuous
 62
     7
 48
25.4
100
AcDbLine
 10
468.6190496372
 20
307.844716077
 30
0.0
 11
469.9229283823
 21
307.1031635043
 31
0.0
  0
LINE
  5
DF
330
66
100
AcDbEntity
  8
DV1_Default
  6
CENTER2
 62
     7
 48
25.4
100
AcDbLine
 10
401.0255302122
 20
303.1697639605
 30
0.0
 11
384.6057285868
 21
307.5694365459
 31
0.0
  0
LINE
  5
E0
330
66
100
AcDbEntity
  8
DV1_Default
  6
CENTER2
 62
     7
 48
25.4
100
AcDbLine
 10
412.3880763616
 20
322.849492968
 30
0.0
 11
400.3672673172
 21
334.8703020124
 31
0.0
  0
LINE
  5
E1
330
66
100
AcDbEntity
  8
DV1_Default
  6
CENTER2
 62
     7
 48
25.4
100
AcDbLine
 10
423.0783842529
 20
303.5575519825
 30
0.0
 11
413.5523156493
 21
309.0574302551
 31
0.0
  0
ARC
  5
E2
330
66
100
AcDbEntity
  8
DV1_Default
  6
CENTER2
 62
     7
 48
25.4
100
AcDbCircle
 10
443.4300666678
 20
291.8075026618
 30
0.0
 40
52.40000000000001
100
AcDbArc
 50
155.794926415
 51
174.4036924025
  0
ARC
  5
E3
330
66
100
AcDbEntity
  8
DV1_Default
  6
CENTER2
 62
     7
 48
25.4
100
AcDbCircle
 10
443.4300666678
 20
291.8075026618
 30
0.0
 40
52.40000000000001
100
AcDbArc
 50
35.6861501473
 51
54.2949161347
  0
ARC
  5
E4
330
66
100
AcDbEntity
  8
DV1_Default
  6
CENTER2
 62
     7
 48
25.4
100
AcDbCircle
 10
443.4300666678
 20
291.8075026618
 30
0.0
 40
52.40000000000001
100
AcDbArc
 50
245.7050838653
 51
264.3138498527
  0
LINE
  5
E5
330
66
100
AcDbEntity
  8
DV1_Default
  6
CENTER2
 62
     7
 48
25.4
100
AcDbLine
 10
443.4300666678
 20
291.8075026618
 30
0.0
 11
443.3840833397
 21
291.8534859899
 31
0.0
  0
LINE
  5
E6
330
66
100
AcDbEntity
  8
DV1_Default
  6
CENTER2
 62
     7
 48
25.4
100
AcDbLine
 10
443.4300666678
 20
291.8075026618
 30
0.0
 11
443.3504212072
 21
291.8534859899
 31
0.0
  0
LINE
  5
E7
330
66
100
AcDbEntity
  8
DV1_Default
  6
CENTER2
 62
     7
 48
25.4
100
AcDbLine
 10
443.4300666678
 20
291.8075026618
 30
0.0
 11
443.258454551
 21
291.8534859899
 31
0.0
  0
LINE
  5
E8
330
66
100
AcDbEntity
  8
DV1_Default
  6
CENTER2
 62
     7
 48
25.4
100
AcDbLine
 10
443.4300666678
 20
291.8075026618
 30
0.0
 11
443.4760499959
 21
291.8534859899
 31
0.0
  0
LINE
  5
E9
330
66
100
AcDbEntity
  8
DV1_Default
  6
CENTER2
 62
     7
 48
25.4
100
AcDbLine
 10
443.4300666678
 20
291.8075026618
 30
0.0
 11
443.5097121284
 21
291.8534859899
 31
0.0
  0
LINE
  5
EA
330
66
100
AcDbEntity
  8
DV1_Default
  6
CENTER2
 62
     7
 48
25.4
100
AcDbLine
 10
443.4300666678
 20
291.8075026618
 30
0.0
 11
443.6016787846
 21
291.8534859899
 31
0.0
  0
CIRCLE
  5
EB
330
66
100
AcDbEntity
  8
DV1_Default
  6
Continuous
 62
     7
 48
25.4
100
AcDbCircle
 10
443.4300666678
 20
365.3075662319
 30
0.0
 40
8.499999999999998
  0
CIRCLE
  5
EC
330
66
100
AcDbEntity
  8
DV1_Default
  6
Continuous
 62
     7
 48
25.4
100
AcDbCircle
 10
443.4300666678
 20
345.3075662319
 30
0.0
 40
8.5
  0
CIRCLE
  5
ED
330
66
100
AcDbEntity
  8
DV1_Default
  6
Continuous
 62
     7
 48
25.4
100
AcDbCircle
 10
443.4300666678
 20
345.3075662319
 30
0.0
 40
8.0
  0
CIRCLE
  5
EE
330
66
100
AcDbEntity
  8
DV1_Default
  6
Continuous
 62
     7
 48
25.4
100
AcDbCircle
 10
443.4300666678
 20
365.3075662319
 30
0.0
 40
7.999999999999998
  0
LINE
  5
EF
330
66
100
AcDbEntity
  8
DV1_Default
  6
Continuous
 62
     7
 48
25.4
100
AcDbLine
 10
443.4300666678
 20
350.3075662319
 30
0.0
 11
439.0999396489
 21
347.8075662319
 31
0.0
  0
LINE
  5
F0
330
66
100
AcDbEntity
  8
DV1_Default
  6
Continuous
 62
     7
 48
25.4
100
AcDbLine
 10
439.0999396489
 20
347.8075662319
 30
0.0
 11
439.0999396489
 21
342.8075662319
 31
0.0
  0
LINE
  5
F1
330
66
100
AcDbEntity
  8
DV1_Default
  6
Continuous
 62
     7
 48
25.4
100
AcDbLine
 10
439.0999396489
 20
342.8075662319
 30
0.0
 11
443.4300666678
 21
340.3075662319
 31
0.0
  0
LINE
  5
F2
330
66
100
AcDbEntity
  8
DV1_Default
  6
Continuous
 62
     7
 48
25.4
100
AcDbLine
 10
443.4300666678
 20
340.3075662319
 30
0.0
 11
447.7601936867
 21
342.8075662319
 31
0.0
  0
LINE
  5
F3
330
66
100
AcDbEntity
  8
DV1_Default
  6
Continuous
 62
     7
 48
25.4
100
AcDbLine
 10
447.7601936867
 20
342.8075662319
 30
0.0
 11
447.7601936867
 21
347.8075662319
 31
0.0
  0
LINE
  5
F4
330
66
100
AcDbEntity
  8
DV1_Default
  6
Continuous
 62
     7
 48
25.4
100
AcDbLine
 10
447.7601936867
 20
347.8075662319
 30
0.0
 11
443.4300666678
 21
350.3075662319
 31
0.0
  0
LINE
  5
F5
330
66
100
AcDbEntity
  8
DV1_Default
  6
CENTER2
 62
     7
 48
25.4
100
AcDbLine
 10
432.2550666678
 20
345.3075662319
 30
0.0
 11
455.3613026378
 21
345.3075662319
 31
0.0
  0
LINE
  5
F6
330
66
100
AcDbEntity
  8
DV1_Default
  6
CENTER2
 62
     7
 48
25.4
100
AcDbLine
 10
432.2550666678
 20
365.3075662319
 30
0.0
 11
455.1050666678
 21
365.3075662319
 31
0.0
  0
LINE
  5
F7
330
66
100
AcDbEntity
  8
DV1_Default
  6
Continuous
 62
     7
 48
25.4
100
AcDbLine
 10
443.4300666678
 20
370.3075662319
 30
0.0
 11
439.0999396489
 21
367.8075662319
 31
0.0
  0
LINE
  5
F8
330
66
100
AcDbEntity
  8
DV1_Default
  6
Continuous
 62
     7
 48
25.4
100
AcDbLine
 10
439.0999396489
 20
367.8075662319
 30
0.0
 11
439.0999396489
 21
362.8075662319
 31
0.0
  0
LINE
  5
F9
330
66
100
AcDbEntity
  8
DV1_Default
  6
Continuous
 62
     7
 48
25.4
100
AcDbLine
 10
439.0999396489
 20
362.8075662319
 30
0.0
 11
443.4300666678
 21
360.3075662319
 31
0.0
  0
LINE
  5
FA
330
66
100
AcDbEntity
  8
DV1_Default
  6
Continuous
 62
     7
 48
25.4
100
AcDbLine
 10
443.4300666678
 20
360.3075662319
 30
0.0
 11
447.7601936867
 21
362.8075662319
 31
0.0
  0
LINE
  5
FB
330
66
100
AcDbEntity
  8
DV1_Default
  6
Continuous
 62
     7
 48
25.4
100
AcDbLine
 10
447.7601936867
 20
362.8075662319
 30
0.0
 11
447.7601936867
 21
367.8075662319
 31
0.0
  0
LINE
  5
FC
330
66
100
AcDbEntity
  8
DV1_Default
  6
Continuous
 62
     7
 48
25.4
100
AcDbLine
 10
447.7601936867
 20
367.8075662319
 30
0.0
 11
443.4300666678
 21
370.3075662319
 31
0.0
  0
LINE
  5
FD
330
66
100
AcDbEntity
  8
DV1_Default
  6
CENTER2
 62
     7
 48
25.4
100
AcDbLine
 10
443.4300666678
 20
385.8704095343
 30
0.0
 11
443.4300666678
 21
196.9658974756
 31
0.0
  0
ARC
  5
FE
330
66
100
AcDbEntity
  8
DV1_Default
  6
Continuous
 62
     7
 48
25.4
100
AcDbCircle
 10
443.4300666678
 20
291.8075026618
 30
0.0
 40
22.5
100
AcDbArc
 50
105.9726041948
 51
74.0273958052
  0
LINE
  5
FF
330
66
100
AcDbEntity
  8
DV1_Default
  6
Continuous
 62
     7
 48
25.4
100
AcDbLine
 10
454.7923279665
 20
249.4029662062
 30
0.0
 11
459.1920005519
 21
232.9831645808
 31
0.0
  0
LINE
  5
100
330
66
100
AcDbEntity
  8
DV1_Default
  6
Continuous
 62
     7
 48
25.4
100
AcDbLine
 10
432.0679096317
 20
249.4033553194
 30
0.0
 11
427.6679881474
 21
232.9826247909
 31
0.0
  0
LINE
  5
101
330
66
100
AcDbEntity
  8
DV1_Default
  6
Continuous
 62
     7
 48
25.4
100
AcDbLine
 10
469.9229283823
 20
307.1031635043
 30
0.0
 11
469.9229283823
 21
305.6031635043
 31
0.0
  0
LINE
  5
102
330
66
100
AcDbEntity
  8
DV1_Default
  6
Continuous
 62
     7
 48
25.4
100
AcDbLine
 10
469.9229283823
 20
305.6031635043
 30
0.0
 11
468.6239444035
 21
304.8530697615
 31
0.0
  0
LINE
  5
103
330
66
100
AcDbEntity
  8
DV1_Default
  6
Continuous
 62
     7
 48
25.4
100
AcDbLine
 10
468.6239444035
 20
304.8530697615
 30
0.0
 11
467.3249062979
 21
305.6030697615
 31
0.0
  0
LINE
  5
104
330
66
100
AcDbEntity
  8
DV1_Default
  6
Continuous
 62
     7
 48
25.4
100
AcDbLine
 10
467.3249062979
 20
305.6030697615
 30
0.0
 11
467.3249062979
 21
307.0863002467
 31
0.0
  0
LINE
  5
105
330
66
100
AcDbEntity
  8
DV1_Default
  6
CENTER2
 62
     7
 48
25.4
100
AcDbLine
 10
463.7817490827
 20
303.5575519825
 30
0.0
 11
473.3078176863
 21
309.0574302551
 31
0.0
  0
LINE
  5
106
330
66
100
AcDbEntity
  8
DV1_Default
  6
Continuous
 62
     7
 48
25.4
100
AcDbLine
 10
443.4300666678
 20
291.8075026618
 30
0.0
 11
443.5097121284
 21
291.8534859899
 31
0.0
  0
ENDBLK
  5
108
330
66
100
AcDbEntity
  8
0
100
AcDbBlockEnd
  0
BLOCK
  5
113
330
109
100
AcDbEntity
  8
0
100
AcDbBlockBegin
  2
GDimGGroup
 70
     0
 71
     0
 10
0.0
 20
0.0
 30
0.0
  3
GDimGGroup
  1

  0
HATCH
  5
10B
330
109
100
AcDbEntity
  8
Default
  6
Continuous
 62
     7
 48
25.4
100
AcDbHatch
 10
0.0
 20
0.0
 30
0.0
210
0.0
220
0.0
230
1.0
  2
SOLID
 70
     1
 71
     0
 91
        1
 92
        1
 93
        3
 72
     1
 10
452.4300664778059
 20
399.6163106444859
 11
452.4300664778059
 21
398.2829772478225
 72
     1
 10
452.4300664778059
 20
398.2829772478225
 11
456.4300666677957
 21
398.9496439461542
 72
     1
 10
456.4300666677957
 20
398.9496439461542
 11
452.4300664778059
 21
399.6163106444859
 97
        0
 75
     0
 76
     1
 98
        0
  0
LWPOLYLINE
  5
10C
330
109
100
AcDbEntity
  8
Default
  6
Continuous
 62
     7
 48
25.4
370
    30
100
AcDbPolyline
 90
        4
 70
     1
 43
0.00035
 10
452.4300664778
 20
399.6163106445
 10
456.4300666678
 20
398.9496439462
 10
452.4300664778
 20
398.2829772478
 10
452.4300664778
 20
399.6163106445
  0
HATCH
  5
10D
330
109
100
AcDbEntity
  8
Default
  6
Continuous
 62
     7
 48
25.4
100
AcDbHatch
 10
0.0
 20
0.0
 30
0.0
210
0.0
220
0.0
230
1.0
  2
SOLID
 70
     1
 71
     0
 91
        1
 92
        1
 93
        3
 72
     1
 10
434.4300663213437
 20
399.6163106444859
 11
430.4300661313539
 21
398.9496439461542
 72
     1
 10
430.4300661313539
 20
398.9496439461542
 11
434.4300663213437
 21
398.2829772478225
 72
     1
 10
434.4300663213437
 20
398.2829772478225
 11
434.4300663213437
 21
399.6163106444859
 97
        0
 75
     0
 76
     1
 98
        0
  0
LWPOLYLINE
  5
10E
330
109
100
AcDbEntity
  8
Default
  6
Continuous
 62
     7
 48
25.4
370
    30
100
AcDbPolyline
 90
        4
 70
     1
 43
0.00035
 10
434.4300663213
 20
399.6163106445
 10
430.4300661314
 20
398.9496439462
 10
434.4300663213
 20
398.2829772478
 10
434.4300663213
 20
399.6163106445
  0
LINE
  5
10F
330
109
100
AcDbEntity
  8
Default
  6
Continuous
 62
     7
 48
25.4
100
AcDbLine
 10
456.4300666678
 20
377.3075662319
 30
0.0
 11
456.4300666678
 21
400.9496440411
 31
0.0
  0
LINE
  5
110
330
109
100
AcDbEntity
  8
Default
  6
Continuous
 62
     7
 48
25.4
100
AcDbLine
 10
430.4300666678
 20
377.3075662319
 30
0.0
 11
430.4300666678
 21
400.9496440411
 31
0.0
  0
LINE
  5
111
330
109
100
AcDbEntity
  8
Default
  6
Continuous
 62
     7
 48
25.4
100
AcDbLine
 10
456.4300666678
 20
398.9496439462
 30
0.0
 11
430.4300661314
 21
398.9496439462
 31
0.0
  0
TEXT
  5
112
330
109
100
AcDbEntity
  8
Default
  6
Continuous
 62
     7
 48
25.4
100
AcDbText
 10
440.299631617
 20
399.9496439462
 30
0.0
 40
4.0
  1
26
  7
SEACAD_arial_ttf
 11
440.299631617
 21
403.9496439462
 31
0.0
100
AcDbText
 73
     3
  0
ENDBLK
  5
114
330
109
100
AcDbEntity
  8
0
100
AcDbBlockEnd
  0
BLOCK
  5
1F2
330
115
100
AcDbEntity
  8
0
100
AcDbBlockBegin
  2
SE1
 70
     0
 71
     0
 10
0.0
 20
0.0
 30
0.0
  3
SE1
  1

  0
LINE
  5
118
330
115
100
AcDbEntity
  8
DV2_Default
  6
Continuous
 62
     7
 48
25.4
100
AcDbLine
 10
138.0856397388
 20
208.2894278789
 30
0.0
 11
217.0856397388
 21
208.2894278789
 31
0.0
  0
LINE
  5
119
330
115
100
AcDbEntity
  8
DV2_Default
  6
Continuous
 62
     7
 48
25.4
100
AcDbLine
 10
218.0856397388
 20
209.2894278789
 30
0.0
 11
218.0856397388
 21
325.847539297
 31
0.0
  0
LINE
  5
11A
330
115
100
AcDbEntity
  8
DV2_Default
  6
Continuous
 62
     7
 48
25.4
100
AcDbLine
 10
217.0856397388
 20
377.2894278789
 30
0.0
 11
138.0856397388
 21
377.2894278789
 31
0.0
  0
LINE
  5
11B
330
115
100
AcDbEntity
  8
DV2_Default
  6
Continuous
 62
     7
 48
25.4
100
AcDbLine
 10
153.0856397388
 20
302.7894278789
 30
0.0
 11
168.0856397388
 21
302.7894278789
 31
0.0
  0
LINE
  5
11C
330
115
100
AcDbEntity
  8
DV2_Default
  6
Continuous
 62
     7
 48
25.4
100
AcDbLine
 10
168.0856397388
 20
320.2894278789
 30
0.0
 11
172.0856397388
 21
320.2894278789
 31
0.0
  0
LINE
  5
11D
330
115
100
AcDbEntity
  8
DV2_Default
  6
Continuous
 62
     7
 48
25.4
100
AcDbLine
 10
172.0856397388
 20
320.2894278789
 30
0.0
 11
172.0856397388
 21
292.7894278789
 31
0.0
  0
LINE
  5
11E
330
115
100
AcDbEntity
  8
DV2_Default
  6
Continuous
 62
     7
 48
25.4
100
AcDbLine
 10
153.0856397388
 20
292.7894278789
 30
0.0
 11
153.0856397388
 21
321.7894278789
 31
0.0
  0
LINE
  5
11F
330
115
100
AcDbEntity
  8
DV2_Default
  6
Continuous
 62
     7
 48
25.4
100
AcDbLine
 10
160.0856397388
 20
322.7894278789
 30
0.0
 11
160.0856397388
 21
325.7894278789
 31
0.0
  0
LINE
  5
120
330
115
100
AcDbEntity
  8
DV2_Default
  6
Continuous
 62
     7
 48
25.4
100
AcDbLine
 10
160.0856397388
 20
325.7894278789
 30
0.0
 11
165.0856397388
 21
325.7894278789
 31
0.0
  0
LINE
  5
121
330
115
100
AcDbEntity
  8
DV2_Default
  6
Continuous
 62
     7
 48
25.4
100
AcDbLine
 10
165.0856397388
 20
321.2894278789
 30
0.0
 11
165.0856397388
 21
325.7894278789
 31
0.0
  0
LINE
  5
122
330
115
100
AcDbEntity
  8
DV2_Default
  6
Continuous
 62
     7
 48
25.4
100
AcDbLine
 10
168.0856397388
 20
292.7894278789
 30
0.0
 11
168.0856397388
 21
320.2894278789
 31
0.0
  0
LINE
  5
123
330
115
100
AcDbEntity
  8
DV2_Default
  6
Continuous
 62
     7
 48
25.4
100
AcDbLine
 10
170.0991504623
 20
320.2894278789
 30
0.0
 11
170.0991504623
 21
321.2894278789
 31
0.0
  0
LINE
  5
124
330
115
100
AcDbEntity
  8
DV2_Default
  6
Continuous
 62
     7
 48
25.4
100
AcDbLine
 10
176.0856397388
 20
292.7894278789
 30
0.0
 11
176.0856397388
 21
320.753529494
 31
0.0
  0
LINE
  5
125
330
115
100
AcDbEntity
  8
DV2_Default
  6
Continuous
 62
     7
 48
25.4
100
AcDbLine
 10
160.0856397388
 20
322.7894278789
 30
0.0
 11
154.0856397388
 21
322.7894278789
 31
0.0
  0
LINE
  5
126
330
115
100
AcDbEntity
  8
DV2_Default
  6
Continuous
 62
     7
 48
25.4
100
AcDbLine
 10
165.0856397388
 20
321.2894278789
 30
0.0
 11
174.0856397388
 21
321.2894278789
 31
0.0
  0
LINE
  5
127
330
115
100
AcDbEntity
  8
DV2_Default
  6
Continuous
 62
     7
 48
25.4
100
AcDbLine
 10
172.0856397388
 20
321.2894278789
 30
0.0
 11
174.0856397388
 21
321.2894278789
 31
0.0
  0
LINE
  5
128
330
115
100
AcDbEntity
  8
DV2_Default
  6
Continuous
 62
     7
 48
25.4
100
AcDbLine
 10
172.0856397388
 20
321.2894278789
 30
0.0
 11
174.0856397388
 21
321.2894278789
 31
0.0
  0
LINE
  5
129
330
115
100
AcDbEntity
  8
DV2_Default
  6
Continuous
 62
     7
 48
25.4
100
AcDbLine
 10
174.0856397388
 20
321.2894278789
 30
0.0
 11
176.0856397388
 21
320.753529494
 31
0.0
  0
LINE
  5
12A
330
115
100
AcDbEntity
  8
DV2_Default
  6
Continuous
 62
     7
 48
25.4
100
AcDbLine
 10
153.0856397388
 20
321.7894278789
 30
0.0
 11
154.0856397388
 21
322.7894278789
 31
0.0
  0
LINE
  5
12B
330
115
100
AcDbEntity
  8
DV2_Default
  6
Continuous
 62
     7
 48
25.4
100
AcDbLine
 10
172.0856397388
 20
315.2894278789
 30
0.0
 11
175.7856397388
 21
315.2894278789
 31
0.0
  0
LINE
  5
12C
330
115
100
AcDbEntity
  8
DV2_Default
  6
Continuous
 62
     7
 48
25.4
100
AcDbLine
 10
213.0856397388
 20
325.847539297
 30
0.0
 11
213.0856397388
 21
316.7894278789
 31
0.0
  0
LINE
  5
12D
330
115
100
AcDbEntity
  8
DV2_Default
  6
Continuous
 62
     7
 48
25.4
100
AcDbLine
 10
175.7856397388
 20
320.8339142517
 30
0.0
 11
175.7856397388
 21
292.7894278789
 31
0.0
  0
LINE
  5
12E
330
115
100
AcDbEntity
  8
DV2_Default
  6
Continuous
 62
     7
 48
25.4
100
AcDbLine
 10
176.0856397388
 20
316.7894278789
 30
0.0
 11
213.0856397388
 21
316.7894278789
 31
0.0
  0
LINE
  5
12F
330
115
100
AcDbEntity
  8
DV2_Default
  6
Continuous
 62
     7
 48
25.4
100
AcDbLine
 10
179.0856397388
 20
316.7894278789
 30
0.0
 11
179.0856397388
 21
292.7894278789
 31
0.0
  0
LINE
  5
130
330
115
100
AcDbEntity
  8
DV2_Default
  6
Continuous
 62
     7
 48
25.4
100
AcDbLine
 10
218.0856397388
 20
315.2894278789
 30
0.0
 11
180.0856397388
 21
315.2894278789
 31
0.0
  0
LINE
  5
131
330
115
100
AcDbEntity
  8
DV2_Default
  6
Continuous
 62
     7
 48
25.4
100
AcDbLine
 10
154.0856397388
 20
322.7894278789
 30
0.0
 11
154.0856397388
 21
338.2894278789
 31
0.0
  0
LINE
  5
132
330
115
100
AcDbEntity
  8
DV2_Default
  6
Continuous
 62
     7
 48
25.4
100
AcDbLine
 10
154.0856397388
 20
338.2894278789
 30
0.0
 11
159.0675855787
 21
338.2894278789
 31
0.0
  0
LINE
  5
133
330
115
100
AcDbEntity
  8
DV2_Default
  6
Continuous
 62
     7
 48
25.4
100
AcDbLine
 10
142.0856397388
 20
341.7894278789
 30
0.0
 11
158.9680021048
 21
341.7894278789
 31
0.0
  0
LINE
  5
134
330
115
100
AcDbEntity
  8
DV2_Default
  6
Continuous
 62
     7
 48
25.4
100
AcDbLine
 10
153.0856397388
 20
282.7894278789
 30
0.0
 11
168.0856397388
 21
282.7894278789
 31
0.0
  0
LINE
  5
135
330
115
100
AcDbEntity
  8
DV2_Default
  6
Continuous
 62
     7
 48
25.4
100
AcDbLine
 10
168.0856397388
 20
265.2894278789
 30
0.0
 11
172.0856397388
 21
265.2894278789
 31
0.0
  0
LINE
  5
136
330
115
100
AcDbEntity
  8
DV2_Default
  6
Continuous
 62
     7
 48
25.4
100
AcDbLine
 10
172.0856397388
 20
265.2894278789
 30
0.0
 11
172.0856397388
 21
292.7894278789
 31
0.0
  0
LINE
  5
137
330
115
100
AcDbEntity
  8
DV2_Default
  6
Continuous
 62
     7
 48
25.4
100
AcDbLine
 10
153.0856397388
 20
292.7894278789
 30
0.0
 11
153.0856397388
 21
263.7894278789
 31
0.0
  0
LINE
  5
138
330
115
100
AcDbEntity
  8
DV2_Default
  6
Continuous
 62
     7
 48
25.4
100
AcDbLine
 10
160.0856397388
 20
262.7894278789
 30
0.0
 11
160.0856397388
 21
259.7894278789
 31
0.0
  0
LINE
  5
139
330
115
100
AcDbEntity
  8
DV2_Default
  6
Continuous
 62
     7
 48
25.4
100
AcDbLine
 10
160.0856397388
 20
259.7894278789
 30
0.0
 11
165.0856397388
 21
259.7894278789
 31
0.0
  0
LINE
  5
13A
330
115
100
AcDbEntity
  8
DV2_Default
  6
Continuous
 62
     7
 48
25.4
100
AcDbLine
 10
165.0856397388
 20
264.2894278789
 30
0.0
 11
165.0856397388
 21
259.7894278789
 31
0.0
  0
LINE
  5
13B
330
115
100
AcDbEntity
  8
DV2_Default
  6
Continuous
 62
     7
 48
25.4
100
AcDbLine
 10
168.0856397388
 20
292.7894278789
 30
0.0
 11
168.0856397388
 21
265.2894278789
 31
0.0
  0
LINE
  5
13C
330
115
100
AcDbEntity
  8
DV2_Default
  6
Continuous
 62
     7
 48
25.4
100
AcDbLine
 10
170.0991504623
 20
265.2894278789
 30
0.0
 11
170.0991504623
 21
264.2894278789
 31
0.0
  0
LINE
  5
13D
330
115
100
AcDbEntity
  8
DV2_Default
  6
Continuous
 62
     7
 48
25.4
100
AcDbLine
 10
176.0856397388
 20
292.7894278789
 30
0.0
 11
176.0856397388
 21
264.8253262637
 31
0.0
  0
LINE
  5
13E
330
115
100
AcDbEntity
  8
DV2_Default
  6
Continuous
 62
     7
 48
25.4
100
AcDbLine
 10
160.0856397388
 20
262.7894278789
 30
0.0
 11
154.0856397388
 21
262.7894278789
 31
0.0
  0
LINE
  5
13F
330
115
100
AcDbEntity
  8
DV2_Default
  6
Continuous
 62
     7
 48
25.4
100
AcDbLine
 10
165.0856397388
 20
264.2894278789
 30
0.0
 11
174.0856397388
 21
264.2894278789
 31
0.0
  0
LINE
  5
140
330
115
100
AcDbEntity
  8
DV2_Default
  6
Continuous
 62
     7
 48
25.4
100
AcDbLine
 10
172.0856397388
 20
264.2894278789
 30
0.0
 11
174.0856397388
 21
264.2894278789
 31
0.0
  0
LINE
  5
141
330
115
100
AcDbEntity
  8
DV2_Default
  6
Continuous
 62
     7
 48
25.4
100
AcDbLine
 10
172.0856397388
 20
264.2894278789
 30
0.0
 11
174.0856397388
 21
264.2894278789
 31
0.0
  0
LINE
  5
142
330
115
100
AcDbEntity
  8
DV2_Default
  6
Continuous
 62
     7
 48
25.4
100
AcDbLine
 10
174.0856397388
 20
264.2894278789
 30
0.0
 11
176.0856397388
 21
264.8253262637
 31
0.0
  0
LINE
  5
143
330
115
100
AcDbEntity
  8
DV2_Default
  6
Continuous
 62
     7
 48
25.4
100
AcDbLine
 10
153.0856397388
 20
263.7894278789
 30
0.0
 11
154.0856397388
 21
262.7894278789
 31
0.0
  0
LINE
  5
144
330
115
100
AcDbEntity
  8
DV2_Default
  6
Continuous
 62
     7
 48
25.4
100
AcDbLine
 10
172.0856397388
 20
270.2894278789
 30
0.0
 11
175.7856397388
 21
270.2894278789
 31
0.0
  0
LINE
  5
145
330
115
100
AcDbEntity
  8
DV2_Default
  6
Continuous
 62
     7
 48
25.4
100
AcDbLine
 10
218.0856397388
 20
257.7894278789
 30
0.0
 11
213.0856397388
 21
257.7894278789
 31
0.0
  0
LINE
  5
146
330
115
100
AcDbEntity
  8
DV2_Default
  6
Continuous
 62
     7
 48
25.4
100
AcDbLine
 10
213.0856397388
 20
257.7894278789
 30
0.0
 11
213.0856397388
 21
261.7833146512
 31
0.0
  0
LINE
  5
147
330
115
100
AcDbEntity
  8
DV2_Default
  6
Continuous
 62
     7
 48
25.4
100
AcDbLine
 10
175.7856397388
 20
264.744941506
 30
0.0
 11
175.7856397388
 21
292.7894278789
 31
0.0
  0
LINE
  5
148
330
115
100
AcDbEntity
  8
DV2_Default
  6
Continuous
 62
     7
 48
25.4
100
AcDbLine
 10
176.0856397388
 20
268.7894278789
 30
0.0
 11
213.0856397388
 21
268.7894278789
 31
0.0
  0
LINE
  5
149
330
115
100
AcDbEntity
  8
DV2_Default
  6
Continuous
 62
     7
 48
25.4
100
AcDbLine
 10
179.0856397388
 20
268.7894278789
 30
0.0
 11
179.0856397388
 21
292.7894278789
 31
0.0
  0
LINE
  5
14A
330
115
100
AcDbEntity
  8
DV2_Default
  6
Continuous
 62
     7
 48
25.4
100
AcDbLine
 10
218.0856397388
 20
270.2894278789
 30
0.0
 11
180.0856397388
 21
270.2894278789
 31
0.0
  0
LINE
  5
14B
330
115
100
AcDbEntity
  8
DV2_Default
  6
Continuous
 62
     7
 48
25.4
100
AcDbLine
 10
154.0856397388
 20
262.7894278789
 30
0.0
 11
154.0856397388
 21
247.2894278789
 31
0.0
  0
LINE
  5
14C
330
115
100
AcDbEntity
  8
DV2_Default
  6
Continuous
 62
     7
 48
25.4
100
AcDbLine
 10
165.0856397388
 20
259.7894278789
 30
0.0
 11
165.0856397388
 21
255.9989794341
 31
0.0
  0
LINE
  5
14D
330
115
100
AcDbEntity
  8
DV2_Default
  6
Continuous
 62
     7
 48
25.4
100
AcDbLine
 10
165.0856397388
 20
247.2894278789
 30
0.0
 11
154.0856397388
 21
247.2894278789
 31
0.0
  0
LINE
  5
14E
330
115
100
AcDbEntity
  8
DV2_Default
  6
Continuous
 62
     7
 48
25.4
100
AcDbLine
 10
180.0856397388
 20
315.2894278789
 30
0.0
 11
180.0856397388
 21
270.2894278789
 31
0.0
  0
LINE
  5
14F
330
115
100
AcDbEntity
  8
DV2_Default
  6
Continuous
 62
     7
 48
25.4
100
AcDbLine
 10
180.0856397388
 20
315.2894278789
 30
0.0
 11
179.0856397388
 21
315.866778148
 31
0.0
  0
LINE
  5
150
330
115
100
AcDbEntity
  8
DV2_Default
  6
Continuous
 62
     7
 48
25.4
100
AcDbLine
 10
180.0856397388
 20
270.2894278789
 30
0.0
 11
179.1248949383
 21
269.3286830783
 31
0.0
  0
LINE
  5
151
330
115
100
AcDbEntity
  8
DV2_Default
  6
Continuous
 62
     7
 48
25.4
100
AcDbLine
 10
218.0856397388
 20
248.8894278789
 30
0.0
 11
206.0856397388
 21
248.8894278789
 31
0.0
  0
LINE
  5
152
330
115
100
AcDbEntity
  8
DV2_Default
  6
Continuous
 62
     7
 48
25.4
100
AcDbLine
 10
206.0856397388
 20
248.8894278789
 30
0.0
 11
206.0856397388
 21
240.3894278789
 31
0.0
  0
LINE
  5
153
330
115
100
AcDbEntity
  8
DV2_Default
  6
Continuous
 62
     7
 48
25.4
100
AcDbLine
 10
206.0856397388
 20
248.3894278789
 30
0.0
 11
215.0856397388
 21
248.3894278789
 31
0.0
  0
LINE
  5
154
330
115
100
AcDbEntity
  8
DV2_Default
  6
Continuous
 62
     7
 48
25.4
100
AcDbLine
 10
216.0856397388
 20
247.3894278789
 30
0.0
 11
216.0856397388
 21
240.3894278789
 31
0.0
  0
LINE
  5
155
330
115
100
AcDbEntity
  8
DV2_Default
  6
Continuous
 62
     7
 48
25.4
100
AcDbLine
 10
216.0856397388
 20
247.3894278789
 30
0.0
 11
215.0856397388
 21
248.3894278789
 31
0.0
  0
LINE
  5
156
330
115
100
AcDbEntity
  8
DV2_Default
  6
Continuous
 62
     7
 48
25.4
100
AcDbLine
 10
215.0856397388
 20
248.3894278789
 30
0.0
 11
215.0856397388
 21
240.3894278789
 31
0.0
  0
LINE
  5
157
330
115
100
AcDbEntity
  8
DV2_Default
  6
Continuous
 62
     7
 48
25.4
100
AcDbLine
 10
142.0856397388
 20
235.3894278789
 30
0.0
 11
142.0856397388
 21
222.7894278789
 31
0.0
  0
LINE
  5
158
330
115
100
AcDbEntity
  8
DV2_Default
  6
Continuous
 62
     7
 48
25.4
100
AcDbLine
 10
137.0856397388
 20
222.7894278789
 30
0.0
 11
137.0856397388
 21
209.2894278789
 31
0.0
  0
LINE
  5
159
330
115
100
AcDbEntity
  8
DV2_Default
  6
Continuous
 62
     7
 48
25.4
100
AcDbLine
 10
152.2803171634
 20
245.3894278789
 30
0.0
 11
152.2803171634
 21
240.3894278789
 31
0.0
  0
LINE
  5
15A
330
115
100
AcDbEntity
  8
DV2_Default
  6
Continuous
 62
     7
 48
25.4
100
AcDbLine
 10
206.0856397388
 20
246.3894278789
 30
0.0
 11
195.9422383828
 21
246.3894278789
 31
0.0
  0
LINE
  5
15B
330
115
100
AcDbEntity
  8
DV2_Default
  6
Continuous
 62
     7
 48
25.4
100
AcDbLine
 10
218.0856397388
 20
231.8894278789
 30
0.0
 11
206.0856397388
 21
231.8894278789
 31
0.0
  0
LINE
  5
15C
330
115
100
AcDbEntity
  8
DV2_Default
  6
Continuous
 62
     7
 48
25.4
100
AcDbLine
 10
206.0856397388
 20
231.8894278789
 30
0.0
 11
206.0856397388
 21
240.3894278789
 31
0.0
  0
LINE
  5
15D
330
115
100
AcDbEntity
  8
DV2_Default
  6
Continuous
 62
     7
 48
25.4
100
AcDbLine
 10
206.0856397388
 20
232.3894278789
 30
0.0
 11
215.0856397388
 21
232.3894278789
 31
0.0
  0
LINE
  5
15E
330
115
100
AcDbEntity
  8
DV2_Default
  6
Continuous
 62
     7
 48
25.4
100
AcDbLine
 10
216.0856397388
 20
233.3894278789
 30
0.0
 11
216.0856397388
 21
240.3894278789
 31
0.0
  0
LINE
  5
15F
330
115
100
AcDbEntity
  8
DV2_Default
  6
Continuous
 62
     7
 48
25.4
100
AcDbLine
 10
216.0856397388
 20
233.3894278789
 30
0.0
 11
215.0856397388
 21
232.3894278789
 31
0.0
  0
LINE
  5
160
330
115
100
AcDbEntity
  8
DV2_Default
  6
Continuous
 62
     7
 48
25.4
100
AcDbLine
 10
215.0856397388
 20
232.3894278789
 30
0.0
 11
215.0856397388
 21
240.3894278789
 31
0.0
  0
LINE
  5
161
330
115
100
AcDbEntity
  8
DV2_Default
  6
Continuous
 62
     7
 48
25.4
100
AcDbLine
 10
152.2803171634
 20
235.3894278789
 30
0.0
 11
152.2803171634
 21
240.3894278789
 31
0.0
  0
LINE
  5
162
330
115
100
AcDbEntity
  8
DV2_Default
  6
Continuous
 62
     7
 48
25.4
100
AcDbLine
 10
126.0856397388
 20
236.1894278789
 30
0.0
 11
152.2803171634
 21
236.1894278789
 31
0.0
  0
LINE
  5
163
330
115
100
AcDbEntity
  8
DV2_Default
  6
Continuous
 62
     7
 48
25.4
100
AcDbLine
 10
206.0856397388
 20
234.3894278789
 30
0.0
 11
142.0856397388
 21
234.3894278789
 31
0.0
  0
LINE
  5
164
330
115
100
AcDbEntity
  8
DV2_Default
  6
Continuous
 62
     7
 48
25.4
100
AcDbLine
 10
218.0856397388
 20
268.7894278789
 30
0.0
 11
214.0856397388
 21
268.7894278789
 31
0.0
  0
LINE
  5
165
330
115
100
AcDbEntity
  8
DV2_Default
  6
Continuous
 62
     7
 48
25.4
100
AcDbLine
 10
214.0856397388
 20
268.7894278789
 30
0.0
 11
214.0856397388
 21
258.7894278789
 31
0.0
  0
LINE
  5
166
330
115
100
AcDbEntity
  8
DV2_Default
  6
Continuous
 62
     7
 48
25.4
100
AcDbLine
 10
214.0856397388
 20
258.7894278789
 30
0.0
 11
218.0856397388
 21
258.7894278789
 31
0.0
  0
LINE
  5
167
330
115
100
AcDbEntity
  8
DV2_Default
  6
CENTER2
 62
     7
 48
25.4
100
AcDbLine
 10
217.5856397388
 20
263.7894278789
 30
0.0
 11
201.2952962958
 21
263.7894278789
 31
0.0
  0
LINE
  5
168
330
115
100
AcDbEntity
  8
DV2_Default
  6
Continuous
 62
     7
 48
25.4
100
AcDbLine
 10
217.7856397388
 20
263.7958136037
 30
0.0
 11
217.7856397388
 21
265.7958136037
 31
0.0
  0
LINE
  5
169
330
115
100
AcDbEntity
  8
DV2_Default
  6
Continuous
 62
     7
 48
25.4
100
AcDbLine
 10
217.7856397388
 20
263.7958136037
 30
0.0
 11
217.7856397388
 21
261.7958136037
 31
0.0
  0
ARC
  5
16A
330
115
100
AcDbEntity
  8
DV2_Default
  6
Continuous
 62
     7
 48
25.4
100
AcDbCircle
 10
213.8783617436
 20
264.2555989486
 30
0.0
 40
4.19989077427288
100
AcDbArc
 50
21.5139231712
 51
87.1711343562
  0
ARC
  5
16B
330
115
100
AcDbEntity
  8
DV2_Default
  6
Continuous
 62
     7
 48
25.4
100
AcDbCircle
 10
213.8267739299
 20
263.2236605634
 30
0.0
 40
4.19989077427288
100
AcDbArc
 50
273.5337408433
 51
340.49487193
  0
LINE
  5
16C
330
115
100
AcDbEntity
  8
DV2_Default
  6
Continuous
 62
     7
 48
25.4
100
AcDbLine
 10
214.0856397388
 20
265.7833146512
 30
0.0
 11
204.7291652118
 21
265.7833146512
 31
0.0
  0
LINE
  5
16D
330
115
100
AcDbEntity
  8
DV2_Default
  6
Continuous
 62
     7
 48
25.4
100
AcDbLine
 10
204.7291652118
 20
261.7833146512
 30
0.0
 11
214.0856397388
 21
261.7833146512
 31
0.0
  0
LINE
  5
16E
330
115
100
AcDbEntity
  8
DV2_Default
  6
Continuous
 62
     7
 48
25.4
100
AcDbLine
 10
214.0856397388
 20
261.3031972645
 30
0.0
 11
204.7291652118
 21
261.3031972645
 31
0.0
  0
LINE
  5
16F
330
115
100
AcDbEntity
  8
DV2_Default
  6
Continuous
 62
     7
 48
25.4
100
AcDbLine
 10
204.7291652118
 20
266.2678628188
 30
0.0
 11
214.0856397388
 21
266.2678628188
 31
0.0
  0
LINE
  5
170
330
115
100
AcDbEntity
  8
DV2_Default
  6
Continuous
 62
     7
 48
25.4
100
AcDbLine
 10
213.0856397388
 20
265.7833146512
 30
0.0
 11
213.0856397388
 21
268.7894278789
 31
0.0
  0
LINE
  5
171
330
115
100
AcDbEntity
  8
DV2_Default
  6
Continuous
 62
     7
 48
25.4
100
AcDbLine
 10
213.0856397388
 20
267.9893827301
 30
0.0
 11
202.5555267742
 21
267.9893827301
 31
0.0
  0
LINE
  5
172
330
115
100
AcDbEntity
  8
DV2_Default
  6
Continuous
 62
     7
 48
25.4
100
AcDbLine
 10
195.9422383828
 20
268.7894278789
 30
0.0
 11
195.9422383828
 21
243.3229834047
 31
0.0
  0
LINE
  5
173
330
115
100
AcDbEntity
  8
DV2_Default
  6
Continuous
 62
     7
 48
25.4
100
AcDbLine
 10
195.9422383828
 20
243.3229834047
 30
0.0
 11
142.0856397388
 21
243.3229834047
 31
0.0
  0
LINE
  5
174
330
115
100
AcDbEntity
  8
DV2_Default
  6
Continuous
 62
     7
 48
25.4
100
AcDbLine
 10
194.9422383828
 20
268.7894278789
 30
0.0
 11
194.9422383828
 21
248.4502105245
 31
0.0
  0
LINE
  5
175
330
115
100
AcDbEntity
  8
DV2_Default
  6
Continuous
 62
     7
 48
25.4
100
AcDbLine
 10
194.9422383828
 20
248.4502105245
 30
0.0
 11
195.5271572732
 21
247.8652916341
 31
0.0
  0
LINE
  5
176
330
115
100
AcDbEntity
  8
DV2_Default
  6
Continuous
 62
     7
 48
25.4
100
AcDbLine
 10
195.5271572732
 20
247.8652916341
 30
0.0
 11
195.5271572732
 21
243.3229834047
 31
0.0
  0
LINE
  5
177
330
115
100
AcDbEntity
  8
DV2_Default
  6
Continuous
 62
     7
 48
25.4
100
AcDbLine
 10
160.0856397388
 20
258.4424922888
 30
0.0
 11
155.1290809049
 21
258.4424922888
 31
0.0
  0
LINE
  5
178
330
115
100
AcDbEntity
  8
DV2_Default
  6
Continuous
 62
     7
 48
25.4
100
AcDbLine
 10
160.0856397388
 20
255.9989794341
 30
0.0
 11
175.7946646633
 21
255.9989794341
 31
0.0
  0
LINE
  5
179
330
115
100
AcDbEntity
  8
DV2_Default
  6
Continuous
 62
     7
 48
25.4
100
AcDbLine
 10
175.7946646633
 20
255.9989794341
 30
0.0
 11
175.7946646633
 21
250.9989794341
 31
0.0
  0
LINE
  5
17A
330
115
100
AcDbEntity
  8
DV2_Default
  6
Continuous
 62
     7
 48
25.4
100
AcDbLine
 10
175.7946646633
 20
250.9989794341
 30
0.0
 11
160.0856397388
 21
250.9989794341
 31
0.0
  0
LINE
  5
17B
330
115
100
AcDbEntity
  8
DV2_Default
  6
Continuous
 62
     7
 48
25.4
100
AcDbLine
 10
160.0856397388
 20
250.4989794341
 30
0.0
 11
175.7946646633
 21
250.4989794341
 31
0.0
  0
LINE
  5
17C
330
115
100
AcDbEntity
  8
DV2_Default
  6
Continuous
 62
     7
 48
25.4
100
AcDbLine
 10
175.7946646633
 20
250.4989794341
 30
0.0
 11
175.7946646633
 21
250.9989794341
 31
0.0
  0
LINE
  5
17D
330
115
100
AcDbEntity
  8
DV2_Default
  6
Continuous
 62
     7
 48
25.4
100
AcDbLine
 10
160.0856397388
 20
256.5412523934
 30
0.0
 11
175.7946646633
 21
256.5412523934
 31
0.0
  0
LINE
  5
17E
330
115
100
AcDbEntity
  8
DV2_Default
  6
Continuous
 62
     7
 48
25.4
100
AcDbLine
 10
175.7946646633
 20
256.5412523934
 30
0.0
 11
175.7946646633
 21
255.9989794341
 31
0.0
  0
LINE
  5
17F
330
115
100
AcDbEntity
  8
DV2_Default
  6
Continuous
 62
     7
 48
25.4
100
AcDbLine
 10
165.0856397388
 20
250.9989794341
 30
0.0
 11
165.0856397388
 21
247.2894278789
 31
0.0
  0
LINE
  5
180
330
115
100
AcDbEntity
  8
DV2_Default
  6
Continuous
 62
     7
 48
25.4
100
AcDbLine
 10
161.0874845831
 20
247.2894278789
 30
0.0
 11
161.0874845831
 21
243.3229834047
 31
0.0
  0
LINE
  5
181
330
115
100
AcDbEntity
  8
DV2_Default
  6
Continuous
 62
     7
 48
25.4
100
AcDbLine
 10
160.0856397388
 20
253.4424922888
 30
0.0
 11
160.0856397388
 21
247.9424922888
 31
0.0
  0
LINE
  5
182
330
115
100
AcDbEntity
  8
DV2_Default
  6
Continuous
 62
     7
 48
25.4
100
AcDbLine
 10
160.0856397388
 20
247.9424922888
 30
0.0
 11
154.0856397388
 21
247.9424922888
 31
0.0
  0
LINE
  5
183
330
115
100
AcDbEntity
  8
DV2_Default
  6
Continuous
 62
     7
 48
25.4
100
AcDbLine
 10
160.0856397388
 20
253.4424922888
 30
0.0
 11
160.0856397388
 21
258.9424922888
 31
0.0
  0
LINE
  5
184
330
115
100
AcDbEntity
  8
DV2_Default
  6
Continuous
 62
     7
 48
25.4
100
AcDbLine
 10
160.0856397388
 20
258.9424922888
 30
0.0
 11
154.0856397388
 21
258.9424922888
 31
0.0
  0
LINE
  5
185
330
115
100
AcDbEntity
  8
DV2_Default
  6
Continuous
 62
     7
 48
25.4
100
AcDbLine
 10
155.1290809049
 20
248.4424922888
 30
0.0
 11
160.0856397388
 21
248.4424922888
 31
0.0
  0
LINE
  5
186
330
115
100
AcDbEntity
  8
DV2_Default
  6
Continuous
 62
     7
 48
25.4
100
AcDbLine
 10
154.6290809049
 20
257.9424922888
 30
0.0
 11
154.6290809049
 21
248.9424922888
 31
0.0
  0
LINE
  5
187
330
115
100
AcDbEntity
  8
DV2_Default
  6
Continuous
 62
     7
 48
25.4
100
AcDbLine
 10
155.1290809049
 20
248.4424922888
 30
0.0
 11
154.6290809049
 21
248.9424922888
 31
0.0
  0
LINE
  5
188
330
115
100
AcDbEntity
  8
DV2_Default
  6
Continuous
 62
     7
 48
25.4
100
AcDbLine
 10
155.1290809049
 20
258.4424922888
 30
0.0
 11
154.6290809049
 21
257.9424922888
 31
0.0
  0
LINE
  5
189
330
115
100
AcDbEntity
  8
DV2_Default
  6
Continuous
 62
     7
 48
25.4
100
AcDbLine
 10
155.1290809049
 20
258.4424922888
 30
0.0
 11
155.1290809049
 21
248.4424922888
 31
0.0
  0
LINE
  5
18A
330
115
100
AcDbEntity
  8
DV2_Default
  6
CENTER2
 62
     7
 48
25.4
100
AcDbLine
 10
179.2946646633
 20
253.4989794341
 30
0.0
 11
147.1955403924
 21
253.4989794341
 31
0.0
  0
LINE
  5
18B
330
115
100
AcDbEntity
  8
DV2_Default
  6
Continuous
 62
     7
 48
25.4
100
AcDbLine
 10
213.0856397388
 20
321.2894278789
 30
0.0
 11
214.0856397388
 21
321.2894278789
 31
0.0
  0
LINE
  5
18C
330
115
100
AcDbEntity
  8
DV2_Default
  6
Continuous
 62
     7
 48
25.4
100
AcDbLine
 10
214.0856397388
 20
321.2894278789
 30
0.0
 11
218.0856397388
 21
317.2894278789
 31
0.0
  0
LINE
  5
18D
330
115
100
AcDbEntity
  8
DV2_Default
  6
Continuous
 62
     7
 48
25.4
100
AcDbLine
 10
168.0856397388
 20
319.8869847499
 30
0.0
 11
153.0856397388
 21
319.8869847499
 31
0.0
  0
LINE
  5
18E
330
115
100
AcDbEntity
  8
DV2_Default
  6
Continuous
 62
     7
 48
25.4
100
AcDbLine
 10
168.0856397388
 20
265.6918710079
 30
0.0
 11
153.0856397388
 21
265.6918710079
 31
0.0
  0
LINE
  5
18F
330
115
100
AcDbEntity
  8
DV2_Default
  6
Continuous
 62
     7
 48
25.4
100
AcDbLine
 10
220.0185705674
 20
378.2894278789
 30
0.0
 11
247.0856397388
 21
378.2894278789
 31
0.0
  0
LINE
  5
190
330
115
100
AcDbEntity
  8
DV2_Default
  6
Continuous
 62
     7
 48
25.4
100
AcDbLine
 10
247.0856397388
 20
378.2894278789
 30
0.0
 11
247.0856397388
 21
312.2894278789
 31
0.0
  0
LINE
  5
191
330
115
100
AcDbEntity
  8
DV2_Default
  6
Continuous
 62
     7
 48
25.4
100
AcDbLine
 10
218.086205393
 20
376.2877315547
 30
0.0
 11
217.0856397388
 21
377.2894278789
 31
0.0
  0
LINE
  5
192
330
115
100
AcDbEntity
  8
DV2_Default
  6
Continuous
 62
     7
 48
25.4
100
AcDbLine
 10
217.0856397388
 20
377.2894278789
 30
0.0
 11
220.0856397388
 21
377.2894278789
 31
0.0
  0
LINE
  5
193
330
115
100
AcDbEntity
  8
DV2_Default
  6
Continuous
 62
     7
 48
25.4
100
AcDbLine
 10
219.0856397388
 20
377.3564970503
 30
0.0
 11
220.0185705674
 21
378.2894278789
 31
0.0
  0
LINE
  5
194
330
115
100
AcDbEntity
  8
DV2_Default
  6
CENTER2
 62
     7
 48
25.4
100
AcDbLine
 10
212.7799058473
 20
346.2894278789
 30
0.0
 11
256.100150559
 21
346.2894278789
 31
0.0
  0
LINE
  5
195
330
115
100
AcDbEntity
  8
DV2_Default
  6
CENTER2
 62
     7
 48
25.4
100
AcDbLine
 10
214.2239140043
 20
366.2894278789
 30
0.0
 11
256.100150559
 21
366.2894278789
 31
0.0
  0
LINE
  5
196
330
115
100
AcDbEntity
  8
DV2_Default
  6
Continuous
 62
     7
 48
25.4
100
AcDbLine
 10
222.0856397388
 20
371.7894278789
 30
0.0
 11
231.0856397388
 21
371.7894278789
 31
0.0
  0
LINE
  5
197
330
115
100
AcDbEntity
  8
DV2_Default
  6
Continuous
 62
     7
 48
25.4
100
AcDbLine
 10
247.0856397388
 20
374.7894278789
 30
0.0
 11
231.0856397388
 21
374.7894278789
 31
0.0
  0
LINE
  5
198
330
115
100
AcDbEntity
  8
DV2_Default
  6
Continuous
 62
     7
 48
25.4
100
AcDbLine
 10
231.0856397388
 20
374.7894278789
 30
0.0
 11
231.0856397388
 21
357.7894278789
 31
0.0
  0
LINE
  5
199
330
115
100
AcDbEntity
  8
DV2_Default
  6
Continuous
 62
     7
 48
25.4
100
AcDbLine
 10
231.0856397388
 20
357.7894278789
 30
0.0
 11
247.0856397388
 21
357.7894278789
 31
0.0
  0
LINE
  5
19A
330
115
100
AcDbEntity
  8
DV2_Default
  6
Continuous
 62
     7
 48
25.4
100
AcDbLine
 10
222.0856397388
 20
360.7894278789
 30
0.0
 11
231.0856397388
 21
360.7894278789
 31
0.0
  0
LINE
  5
19B
330
115
100
AcDbEntity
  8
DV2_Default
  6
Continuous
 62
     7
 48
25.4
100
AcDbLine
 10
231.0856397388
 20
361.2894278789
 30
0.0
 11
222.0856397388
 21
361.2894278789
 31
0.0
  0
LINE
  5
19C
330
115
100
AcDbEntity
  8
DV2_Default
  6
Continuous
 62
     7
 48
25.4
100
AcDbLine
 10
222.0856397388
 20
371.2894278789
 30
0.0
 11
231.0856397388
 21
371.2894278789
 31
0.0
  0
LINE
  5
19D
330
115
100
AcDbEntity
  8
DV2_Default
  6
Continuous
 62
     7
 48
25.4
100
AcDbLine
 10
222.5856397388
 20
372.2894278789
 30
0.0
 11
231.0856397388
 21
372.2894278789
 31
0.0
  0
LINE
  5
19E
330
115
100
AcDbEntity
  8
DV2_Default
  6
Continuous
 62
     7
 48
25.4
100
AcDbLine
 10
231.0856397388
 20
360.2894278789
 30
0.0
 11
222.5856397388
 21
360.2894278789
 31
0.0
  0
LINE
  5
19F
330
115
100
AcDbEntity
  8
DV2_Default
  6
Continuous
 62
     7
 48
25.4
100
AcDbLine
 10
231.0856397388
 20
358.7894278789
 30
0.0
 11
240.0856397388
 21
358.7894278789
 31
0.0
  0
LINE
  5
1A0
330
115
100
AcDbEntity
  8
DV2_Default
  6
Continuous
 62
     7
 48
25.4
100
AcDbLine
 10
241.0856397388
 20
359.7894278789
 30
0.0
 11
241.0856397388
 21
372.7894278789
 31
0.0
  0
LINE
  5
1A1
330
115
100
AcDbEntity
  8
DV2_Default
  6
Continuous
 62
     7
 48
25.4
100
AcDbLine
 10
240.0856397388
 20
373.7894278789
 30
0.0
 11
231.0856397388
 21
373.7894278789
 31
0.0
  0
LINE
  5
1A2
330
115
100
AcDbEntity
  8
DV2_Default
  6
Continuous
 62
     7
 48
25.4
100
AcDbLine
 10
240.0856397388
 20
358.7894278789
 30
0.0
 11
241.0856397388
 21
359.7894278789
 31
0.0
  0
LINE
  5
1A3
330
115
100
AcDbEntity
  8
DV2_Default
  6
Continuous
 62
     7
 48
25.4
100
AcDbLine
 10
240.0856397388
 20
373.7894278789
 30
0.0
 11
241.0856397388
 21
372.7894278789
 31
0.0
  0
LINE
  5
1A4
330
115
100
AcDbEntity
  8
DV2_Default
  6
Continuous
 62
     7
 48
25.4
100
AcDbLine
 10
240.0856397388
 20
373.7894278789
 30
0.0
 11
240.0856397388
 21
358.7894278789
 31
0.0
  0
LINE
  5
1A5
330
115
100
AcDbEntity
  8
DV2_Default
  6
Continuous
 62
     7
 48
25.4
100
AcDbLine
 10
222.0856397388
 20
360.2894278789
 30
0.0
 11
222.0856397388
 21
356.2626100222
 31
0.0
  0
LINE
  5
1A6
330
115
100
AcDbEntity
  8
DV2_Default
  6
Continuous
 62
     7
 48
25.4
100
AcDbLine
 10
222.0856397388
 20
340.7357921654
 30
0.0
 11
231.0856397388
 21
340.7357921654
 31
0.0
  0
LINE
  5
1A7
330
115
100
AcDbEntity
  8
DV2_Default
  6
Continuous
 62
     7
 48
25.4
100
AcDbLine
 10
247.0856397388
 20
337.7357921654
 30
0.0
 11
231.0856397388
 21
337.7357921654
 31
0.0
  0
LINE
  5
1A8
330
115
100
AcDbEntity
  8
DV2_Default
  6
Continuous
 62
     7
 48
25.4
100
AcDbLine
 10
231.0856397388
 20
337.7357921654
 30
0.0
 11
231.0856397388
 21
354.7357921654
 31
0.0
  0
LINE
  5
1A9
330
115
100
AcDbEntity
  8
DV2_Default
  6
Continuous
 62
     7
 48
25.4
100
AcDbLine
 10
231.0856397388
 20
354.7357921654
 30
0.0
 11
247.0856397388
 21
354.7357921654
 31
0.0
  0
LINE
  5
1AA
330
115
100
AcDbEntity
  8
DV2_Default
  6
Continuous
 62
     7
 48
25.4
100
AcDbLine
 10
222.0856397388
 20
351.7357921654
 30
0.0
 11
231.0856397388
 21
351.7357921654
 31
0.0
  0
LINE
  5
1AB
330
115
100
AcDbEntity
  8
DV2_Default
  6
Continuous
 62
     7
 48
25.4
100
AcDbLine
 10
231.0856397388
 20
351.2357921654
 30
0.0
 11
222.0856397388
 21
351.2357921654
 31
0.0
  0
LINE
  5
1AC
330
115
100
AcDbEntity
  8
DV2_Default
  6
Continuous
 62
     7
 48
25.4
100
AcDbLine
 10
222.0856397388
 20
341.2357921654
 30
0.0
 11
231.0856397388
 21
341.2357921654
 31
0.0
  0
LINE
  5
1AD
330
115
100
AcDbEntity
  8
DV2_Default
  6
Continuous
 62
     7
 48
25.4
100
AcDbLine
 10
222.5856397388
 20
340.2357921654
 30
0.0
 11
231.0856397388
 21
340.2357921654
 31
0.0
  0
LINE
  5
1AE
330
115
100
AcDbEntity
  8
DV2_Default
  6
Continuous
 62
     7
 48
25.4
100
AcDbLine
 10
231.0856397388
 20
352.2357921654
 30
0.0
 11
222.5856397388
 21
352.2357921654
 31
0.0
  0
LINE
  5
1AF
330
115
100
AcDbEntity
  8
DV2_Default
  6
Continuous
 62
     7
 48
25.4
100
AcDbLine
 10
231.0856397388
 20
353.7357921654
 30
0.0
 11
240.0856397388
 21
353.7357921654
 31
0.0
  0
LINE
  5
1B0
330
115
100
AcDbEntity
  8
DV2_Default
  6
Continuous
 62
     7
 48
25.4
100
AcDbLine
 10
241.0856397388
 20
352.7357921654
 30
0.0
 11
241.0856397388
 21
339.7357921654
 31
0.0
  0
LINE
  5
1B1
330
115
100
AcDbEntity
  8
DV2_Default
  6
Continuous
 62
     7
 48
25.4
100
AcDbLine
 10
240.0856397388
 20
338.7357921654
 30
0.0
 11
231.0856397388
 21
338.7357921654
 31
0.0
  0
LINE
  5
1B2
330
115
100
AcDbEntity
  8
DV2_Default
  6
Continuous
 62
     7
 48
25.4
100
AcDbLine
 10
240.0856397388
 20
353.7357921654
 30
0.0
 11
241.0856397388
 21
352.7357921654
 31
0.0
  0
LINE
  5
1B3
330
115
100
AcDbEntity
  8
DV2_Default
  6
Continuous
 62
     7
 48
25.4
100
AcDbLine
 10
240.0856397388
 20
338.7357921654
 30
0.0
 11
241.0856397388
 21
339.7357921654
 31
0.0
  0
LINE
  5
1B4
330
115
100
AcDbEntity
  8
DV2_Default
  6
Continuous
 62
     7
 48
25.4
100
AcDbLine
 10
240.0856397388
 20
338.7357921654
 30
0.0
 11
240.0856397388
 21
353.7357921654
 31
0.0
  0
LINE
  5
1B5
330
115
100
AcDbEntity
  8
DV2_Default
  6
Continuous
 62
     7
 48
25.4
100
AcDbLine
 10
222.0856397388
 20
352.2357921654
 30
0.0
 11
222.0856397388
 21
356.2626100222
 31
0.0
  0
LINE
  5
1B6
330
115
100
AcDbEntity
  8
DV2_Default
  6
Continuous
 62
     7
 48
25.4
100
AcDbLine
 10
220.881690963
 20
324.0612858167
 30
0.0
 11
220.881690963
 21
312.2894278789
 31
0.0
  0
LINE
  5
1B7
330
115
100
AcDbEntity
  8
DV2_Default
  6
Continuous
 62
     7
 48
25.4
100
AcDbLine
 10
220.881690963
 20
312.2894278789
 30
0.0
 11
247.0856397388
 21
312.2894278789
 31
0.0
  0
LINE
  5
1B8
330
115
100
AcDbEntity
  8
DV2_Default
  6
CENTER2
 62
     7
 48
25.4
100
AcDbLine
 10
271.3192608161
 20
293.847539297
 30
0.0
 11
120.8095582478
 21
293.847539297
 31
0.0
  0
LINE
  5
1B9
330
115
100
AcDbEntity
  8
DV2_Default
  6
Continuous
 62
     7
 48
25.4
100
AcDbLine
 10
202.5555267742
 20
259.7401416562
 30
0.0
 11
195.9422383828
 21
259.7401416562
 31
0.0
  0
LINE
  5
1BA
330
115
100
AcDbEntity
  8
DV2_Default
  6
Continuous
 62
     7
 48
25.4
100
AcDbLine
 10
202.5555267742
 20
259.7401416562
 30
0.0
 11
202.5555267742
 21
268.7894278789
 31
0.0
  0
SPLINE
  5
1BB
330
115
100
AcDbEntity
  8
DV2_Default
  6
Continuous
 62
     7
 48
25.4
100
AcDbSpline
210
0.0
220
0.0
230
1.0
 70
     8
 71
     3
 72
    15
 73
    11
 74
     0
 42
0.0000000001
 43
0.0000000001
 40
0.0
 40
0.0
 40
0.0
 40
0.0
 40
0.1202265439283134
 40
0.2911705763884705
 40
0.4220293218698909
 40
0.5457164446672895
 40
0.687410263472668
 40
0.7861164570744027
 40
0.9979280554210291
 40
1.0
 40
1.0
 40
1.0
 40
1.0
 10
137.0856397387711
 20
369.5166121672881
 30
0.0
 10
140.4076998020868
 20
368.4476080832477
 30
0.0
 10
146.9721777253674
 20
367.2258641990615
 30
0.0
 10
160.3959983713085
 20
368.7647123664391
 30
0.0
 10
164.1874810890067
 20
354.0844877989629
 30
0.0
 10
158.5974267142986
 20
346.5041833142126
 30
0.0
 10
158.2835546838472
 20
331.7132316565059
 30
0.0
 10
176.0983760366246
 20
336.1689215139451
 30
0.0
 10
177.3207766005494
 20
322.7033359724412
 30
0.0
 10
179.0294611633231
 20
316.7587302849131
 30
0.0
 10
179.0856397387711
 20
316.7894278788575
 30
0.0
  0
LINE
  5
1BC
330
115
100
AcDbEntity
  8
DV2_Default
  6
Continuous
 62
     7
 48
25.4
100
AcDbLine
 10
213.0856397388
 20
325.847539297
 30
0.0
 11
220.0185705674
 21
325.847539297
 31
0.0
  0
LINE
  5
1BD
330
115
100
AcDbEntity
  8
DV2_Default
  6
Continuous
 62
     7
 48
25.4
100
AcDbLine
 10
220.0185705674
 20
378.2894278789
 30
0.0
 11
220.0185705674
 21
325.847539297
 31
0.0
  0
LINE
  5
1BF
330
115
100
AcDbEntity
  8
DV2_Default
  6
HIDDEN2
 62
     7
 48
25.4
100
AcDbLine
 10
218.086205393
 20
376.2877315547
 30
0.0
 11
218.086205393
 21
325.847539297
 31
0.0
  0
LINE
  5
1C0
330
115
100
AcDbEntity
  8
DV2_Default
  6
Continuous
 62
     7
 48
25.4
100
AcDbLine
 10
219.0856397388
 20
377.3564970503
 30
0.0
 11
219.0856397388
 21
325.847539297
 31
0.0
  0
LINE
  5
1C1
330
115
100
AcDbEntity
  8
DV2_Default
  6
Continuous
 62
     7
 48
25.4
100
AcDbLine
 10
219.0856297596
 20
325.8475622397
 30
0.0
 11
220.8817024053
 21
324.0612691782
 31
0.0
  0
LINE
  5
1C2
330
115
100
AcDbEntity
  8
DV2_Default
  6
Continuous
 62
     7
 48
25.4
100
AcDbLine
 10
222.0856397388
 20
337.7357911067
 30
0.0
 11
220.0185705674
 21
337.7357911067
 31
0.0
  0
LINE
  5
1C3
330
115
100
AcDbEntity
  8
DV2_Default
  6
Continuous
 62
     7
 48
25.4
100
AcDbLine
 10
220.0185705674
 20
374.7894278789
 30
0.0
 11
222.0856397388
 21
374.7894278789
 31
0.0
  0
LINE
  5
1C4
330
115
100
AcDbEntity
  8
DV2_Default
  6
Continuous
 62
     7
 48
25.4
100
AcDbLine
 10
222.0856397388
 20
374.7894278789
 30
0.0
 11
222.0856397388
 21
337.7357911067
 31
0.0
  0
LINE
  5
1C5
330
115
100
AcDbEntity
  8
DV2_Default
  6
Continuous
 62
     7
 48
25.4
100
AcDbLine
 10
222.5856397388
 20
372.2894278789
 30
0.0
 11
222.5856397388
 21
378.2894278789
 31
0.0
  0
LINE
  5
1C6
330
115
100
AcDbEntity
  8
DV2_Default
  6
Continuous
 62
     7
 48
25.4
100
AcDbLine
 10
222.5856397388
 20
360.2894278789
 30
0.0
 11
222.5856397388
 21
352.2357921654
 31
0.0
  0
LINE
  5
1C7
330
115
100
AcDbEntity
  8
DV2_Default
  6
Continuous
 62
     7
 48
25.4
100
AcDbLine
 10
222.5856397388
 20
340.2357921654
 30
0.0
 11
222.5856397388
 21
312.2894278789
 31
0.0
  0
LINE
  5
1C8
330
115
100
AcDbEntity
  8
DV2_Default
  6
Continuous
 62
     7
 48
25.4
100
AcDbLine
 10
153.0856397388
 20
318.8869847499
 30
0.0
 11
168.0856397388
 21
318.8869847499
 31
0.0
  0
LINE
  5
1C9
330
115
100
AcDbEntity
  8
DV2_Default
  6
Continuous
 62
     7
 48
25.4
100
AcDbLine
 10
153.0856397388
 20
266.6918710079
 30
0.0
 11
168.0856397388
 21
266.6918710079
 31
0.0
  0
LINE
  5
1CA
330
115
100
AcDbEntity
  8
DV2_Default
  6
Continuous
 62
     7
 48
25.4
100
AcDbLine
 10
137.0856397388
 20
376.2894278789
 30
0.0
 11
138.0856397388
 21
377.2894278789
 31
0.0
  0
LINE
  5
1CB
330
115
100
AcDbEntity
  8
DV2_Default
  6
Continuous
 62
     7
 48
25.4
100
AcDbLine
 10
137.0856397388
 20
209.2894278789
 30
0.0
 11
138.0856397388
 21
208.2894278789
 31
0.0
  0
LINE
  5
1CC
330
115
100
AcDbEntity
  8
DV2_Default
  6
Continuous
 62
     7
 48
25.4
100
AcDbLine
 10
217.0856397388
 20
208.2894278789
 30
0.0
 11
218.0856397388
 21
209.2894278789
 31
0.0
  0
LINE
  5
1CD
330
115
100
AcDbEntity
  8
DV2_Default
  6
Continuous
 62
     7
 48
25.4
100
AcDbLine
 10
142.0856397388
 20
362.7894278789
 30
0.0
 11
127.0856397388
 21
362.7894278789
 31
0.0
  0
LINE
  5
1CE
330
115
100
AcDbEntity
  8
DV2_Default
  6
Continuous
 62
     7
 48
25.4
100
AcDbLine
 10
127.0856397388
 20
362.7894278789
 30
0.0
 11
127.0856397388
 21
245.3894278789
 31
0.0
  0
LINE
  5
1CF
330
115
100
AcDbEntity
  8
DV2_Default
  6
Continuous
 62
     7
 48
25.4
100
AcDbLine
 10
127.0856397388
 20
222.7894278789
 30
0.0
 11
142.0856397388
 21
222.7894278789
 31
0.0
  0
LINE
  5
1D0
330
115
100
AcDbEntity
  8
DV2_Default
  6
Continuous
 62
     7
 48
25.4
100
AcDbLine
 10
127.0856397388
 20
235.3894278789
 30
0.0
 11
127.0856397388
 21
222.7894278789
 31
0.0
  0
LINE
  5
1D1
330
115
100
AcDbEntity
  8
DV2_Default
  6
Continuous
 62
     7
 48
25.4
100
AcDbLine
 10
204.7291652118
 20
266.2678628188
 30
0.0
 11
204.7291652118
 21
261.3031972645
 31
0.0
  0
LINE
  5
1D2
330
115
100
AcDbEntity
  8
DV2_Default
  6
Continuous
 62
     7
 48
25.4
100
AcDbLine
 10
137.0856397388
 20
376.2894278789
 30
0.0
 11
137.0856397388
 21
362.7894278789
 31
0.0
  0
LINE
  5
1D3
330
115
100
AcDbEntity
  8
DV2_Default
  6
Continuous
 62
     7
 48
25.4
100
AcDbLine
 10
111.0856397388
 20
235.3894278789
 30
0.0
 11
111.0856397388
 21
245.3894278789
 31
0.0
  0
LINE
  5
1D4
330
115
100
AcDbEntity
  8
DV2_Default
  6
Continuous
 62
     7
 48
25.4
100
AcDbLine
 10
111.0856397388
 20
235.3894278789
 30
0.0
 11
206.0856397388
 21
235.3894278789
 31
0.0
  0
LINE
  5
1D5
330
115
100
AcDbEntity
  8
DV2_Default
  6
Continuous
 62
     7
 48
25.4
100
AcDbLine
 10
111.0856397388
 20
245.3894278789
 30
0.0
 11
206.0856397388
 21
245.3894278789
 31
0.0
  0
LINE
  5
1D6
330
115
100
AcDbEntity
  8
DV2_Default
  6
Continuous
 62
     7
 48
25.4
100
AcDbLine
 10
111.0856397388
 20
244.5894278789
 30
0.0
 11
152.2803171634
 21
244.5894278789
 31
0.0
  0
LINE
  5
1D7
330
115
100
AcDbEntity
  8
DV2_Default
  6
Continuous
 62
     7
 48
25.4
100
AcDbLine
 10
111.0856397388
 20
236.1894278789
 30
0.0
 11
152.2803171634
 21
236.1894278789
 31
0.0
  0
LINE
  5
1D8
330
115
100
AcDbEntity
  8
DV2_Default
  6
Continuous
 62
     7
 48
25.4
100
AcDbLine
 10
142.0856397388
 20
348.7671697305
 30
0.0
 11
142.0856397388
 21
243.3229834047
 31
0.0
  0
LINE
  5
1D9
330
115
100
AcDbEntity
  8
DV2_Default
  6
Continuous
 62
     7
 48
25.4
100
AcDbLine
 10
127.0856397388
 20
357.347539297
 30
0.0
 11
127.0856397388
 21
346.347539297
 31
0.0
  0
LINE
  5
1DA
330
115
100
AcDbEntity
  8
DV2_Default
  6
CENTER2
 62
     7
 48
25.4
100
AcDbLine
 10
123.5856397388
 20
351.847539297
 30
0.0
 11
159.6050151656
 21
351.847539297
 31
0.0
  0
LINE
  5
1DB
330
115
100
AcDbEntity
  8
DV2_Default
  6
Continuous
 62
     7
 48
25.4
100
AcDbLine
 10
133.0856397388
 20
357.9054912301
 30
0.0
 11
127.0856397388
 21
357.9054912301
 31
0.0
  0
LINE
  5
1DC
330
115
100
AcDbEntity
  8
DV2_Default
  6
Continuous
 62
     7
 48
25.4
100
AcDbLine
 10
133.0856397388
 20
354.7671697305
 30
0.0
 11
152.0856397388
 21
354.7671697305
 31
0.0
  0
LINE
  5
1DD
330
115
100
AcDbEntity
  8
DV2_Default
  6
Continuous
 62
     7
 48
25.4
100
AcDbLine
 10
152.0856397388
 20
354.7671697305
 30
0.0
 11
152.0856397388
 21
348.7671697305
 31
0.0
  0
LINE
  5
1DE
330
115
100
AcDbEntity
  8
DV2_Default
  6
Continuous
 62
     7
 48
25.4
100
AcDbLine
 10
152.0856397388
 20
348.7671697305
 30
0.0
 11
133.0856397388
 21
348.7671697305
 31
0.0
  0
LINE
  5
1DF
330
115
100
AcDbEntity
  8
DV2_Default
  6
Continuous
 62
     7
 48
25.4
100
AcDbLine
 10
133.0856397388
 20
354.3312404915
 30
0.0
 11
152.0856397388
 21
354.3312404915
 31
0.0
  0
LINE
  5
1E0
330
115
100
AcDbEntity
  8
DV2_Default
  6
Continuous
 62
     7
 48
25.4
100
AcDbLine
 10
133.0856397388
 20
349.1373535654
 30
0.0
 11
152.0856397388
 21
349.1373535654
 31
0.0
  0
LINE
  5
1E1
330
115
100
AcDbEntity
  8
DV2_Default
  6
Continuous
 62
     7
 48
25.4
100
AcDbLine
 10
133.0856397388
 20
348.2826633117
 30
0.0
 11
142.0856397388
 21
348.2826633117
 31
0.0
  0
LINE
  5
1E2
330
115
100
AcDbEntity
  8
DV2_Default
  6
Continuous
 62
     7
 48
25.4
100
AcDbLine
 10
133.0857729037
 20
355.1825065053
 30
0.0
 11
142.0857729037
 21
355.1825065053
 31
0.0
  0
LINE
  5
1E3
330
115
100
AcDbEntity
  8
DV2_Default
  6
Continuous
 62
     7
 48
25.4
100
AcDbLine
 10
133.0856397388
 20
357.2671697305
 30
0.0
 11
127.8430989509
 21
357.2671697305
 31
0.0
  0
LINE
  5
1E4
330
115
100
AcDbEntity
  8
DV2_Default
  6
Continuous
 62
     7
 48
25.4
100
AcDbLine
 10
127.8430989509
 20
346.2671697305
 30
0.0
 11
133.0856397388
 21
346.2671697305
 31
0.0
  0
LINE
  5
1E5
330
115
100
AcDbEntity
  8
DV2_Default
  6
Continuous
 62
     7
 48
25.4
100
AcDbLine
 10
127.5544238163
 20
356.7671697305
 30
0.0
 11
127.5544238163
 21
346.7671697305
 31
0.0
  0
LINE
  5
1E6
330
115
100
AcDbEntity
  8
DV2_Default
  6
Continuous
 62
     7
 48
25.4
100
AcDbLine
 10
127.8430989509
 20
357.2671697305
 30
0.0
 11
127.5544238163
 21
356.7671697305
 31
0.0
  0
LINE
  5
1E7
330
115
100
AcDbEntity
  8
DV2_Default
  6
Continuous
 62
     7
 48
25.4
100
AcDbLine
 10
127.8430989509
 20
346.2671697305
 30
0.0
 11
127.5544238163
 21
346.7671697305
 31
0.0
  0
LINE
  5
1E8
330
115
100
AcDbEntity
  8
DV2_Default
  6
Continuous
 62
     7
 48
25.4
100
AcDbLine
 10
127.8430989509
 20
357.2671697305
 30
0.0
 11
127.8430989509
 21
346.2671697305
 31
0.0
  0
LINE
  5
1E9
330
115
100
AcDbEntity
  8
DV2_Default
  6
Continuous
 62
     7
 48
25.4
100
AcDbLine
 10
142.0856397388
 20
362.7894278789
 30
0.0
 11
142.0856397388
 21
354.7671697305
 31
0.0
  0
LINE
  5
1EA
330
115
100
AcDbEntity
  8
DV2_Default
  6
Continuous
 62
     7
 48
25.4
100
AcDbLine
 10
127.0856397388
 20
335.127539297
 30
0.0
 11
140.1453247602
 21
333.5240116062
 31
0.0
  0
LINE
  5
1EB
330
115
100
AcDbEntity
  8
DV2_Default
  6
Continuous
 62
     7
 48
25.4
100
AcDbLine
 10
140.1453247602
 20
333.5240116062
 30
0.0
 11
142.0866644398
 21
333.5240116062
 31
0.0
  0
LINE
  5
1EC
330
115
100
AcDbEntity
  8
DV2_Default
  6
Continuous
 62
     7
 48
25.4
100
AcDbLine
 10
127.0856397388
 20
252.567539297
 30
0.0
 11
140.1453247602
 21
254.1710669879
 31
0.0
  0
LINE
  5
1ED
330
115
100
AcDbEntity
  8
DV2_Default
  6
Continuous
 62
     7
 48
25.4
100
AcDbLine
 10
140.1453247602
 20
254.1710669879
 30
0.0
 11
142.0866644398
 21
254.1710669879
 31
0.0
  0
LINE
  5
1EE
330
115
100
AcDbEntity
  8
DV2_Default
  6
Continuous
 62
     7
 48
25.4
100
AcDbLine
 10
140.1453247602
 20
333.5240116062
 30
0.0
 11
140.1453247602
 21
254.1710669879
 31
0.0
  0
LINE
  5
1EF
330
115
100
AcDbEntity
  8
DV2_Default
  6
Continuous
 62
     7
 48
25.4
100
AcDbLine
 10
133.0856397388
 20
357.9054912301
 30
0.0
 11
133.0856397388
 21
345.6649316369
 31
0.0
  0
LINE
  5
1F0
330
115
100
AcDbEntity
  8
DV2_Default
  6
Continuous
 62
     7
 48
25.4
100
AcDbLine
 10
133.0856397388
 20
345.6649316369
 30
0.0
 11
127.0856397388
 21
345.6649316369
 31
0.0
  0
LINE
  5
1F1
330
115
100
AcDbEntity
  8
DV2_Default
  6
CENTER2
 62
     7
 48
25.4
100
AcDbLine
 10
107.5856397388
 20
240.3894278789
 30
0.0
 11
226.9860498726
 21
240.3894278789
 31
0.0
  0
ENDBLK
  5
1F3
330
115
100
AcDbEntity
  8
0
100
AcDbBlockEnd
  0
BLOCK
  5
1FE
330
1F4
100
AcDbEntity
  8
0
100
AcDbBlockBegin
  2
GDimGGroup1
 70
     0
 71
     0
 10
0.0
 20
0.0
 30
0.0
  3
GDimGGroup1
  1

  0
HATCH
  5
1F6
330
1F4
100
AcDbEntity
  8
Default
  6
Continuous
 62
     7
 48
25.4
100
AcDbHatch
 10
0.0
 20
0.0
 30
0.0
210
0.0
220
0.0
230
1.0
  2
SOLID
 70
     1
 71
     0
 91
        1
 92
        1
 93
        3
 72
     1
 10
508.8857459359392
 20
362.8769025736041
 11
512.2329544301408
 21
360.5876578721956
 72
     1
 10
512.2329544301408
 20
360.5876578721956
 11
509.8091338658123
 21
363.8387407500259
 72
     1
 10
509.8091338658123
 20
363.8387407500258
 11
508.8857459359392
 21
362.8769025736041
 97
        0
 75
     0
 76
     1
 98
        0
  0
LWPOLYLINE
  5
1F7
330
1F4
100
AcDbEntity
  8
Default
  6
Continuous
 62
     7
 48
25.4
370
    30
100
AcDbPolyline
 90
        4
 70
     1
 43
0.00035
 10
508.8857459359
 20
362.8769025736
 10
512.2329544301
 20
360.5876578722
 10
509.8091338658
 20
363.83874075
 10
508.8857459359
 20
362.8769025736
  0
HATCH
  5
1F8
330
1F4
100
AcDbEntity
  8
Default
  6
Continuous
 62
     7
 48
25.4
100
AcDbHatch
 10
0.0
 20
0.0
 30
0.0
210
0.0
220
0.0
230
1.0
  2
SOLID
 70
     1
 71
     0
 91
        1
 92
        1
 93
        3
 72
     1
 10
447.4429242036437
 20
389.6777064841899
 11
443.4300649097277
 21
389.0934066520701
 72
     1
 10
443.4300649097278
 20
389.0934066520701
 11
447.4155155387142
 21
388.3446548303728
 72
     1
 10
447.4155155387141
 20
388.3446548303729
 11
447.4429242036437
 21
389.6777064841899
 97
        0
 75
     0
 76
     1
 98
        0
  0
LWPOLYLINE
  5
1F9
330
1F4
100
AcDbEntity
  8
Default
  6
Continuous
 62
     7
 48
25.4
370
    30
100
AcDbPolyline
 90
        4
 70
     1
 43
0.00035
 10
447.4429242036
 20
389.6777064842
 10
443.4300649097
 20
389.0934066521
 10
447.4155155387
 20
388.3446548304
 10
447.4429242036
 20
389.6777064842
  0
LINE
  5
1FA
330
1F4
100
AcDbEntity
  8
Default
  6
Continuous
 62
     7
 48
25.4
100
AcDbLine
 10
480.4885838624
 20
328.8537756804
 30
0.0
 11
513.6473992379
 21
362.0016353458
 31
0.0
  0
LINE
  5
1FB
330
1F4
100
AcDbEntity
  8
Default
  6
Continuous
 62
     7
 48
25.4
100
AcDbLine
 10
443.4300666678
 20
291.8075026618
 30
0.0
 11
443.4300666678
 21
391.0934032546
 31
0.0
  0
ARC
  5
1FC
330
1F4
100
AcDbEntity
  8
Default
  6
Continuous
 62
     7
 48
25.4
100
AcDbCircle
 10
443.4300666678
 20
291.8075026618
 30
0.0
 40
97.28590399026862
100
AcDbArc
 50
44.990533141
 51
90.0000010354
  0
TEXT
  5
1FD
330
1F4
100
AcDbEntity
  8
Default
  6
Continuous
 62
     7
 48
25.4
100
AcDbText
 10
477.1135598733
 20
384.2396194725
 30
0.0
 40
4.0
  1
45°
 50
337.4952665705
  7
SEACAD_arial_ttf
 11
478.6445988988
 21
387.93501113
 31
0.0
100
AcDbText
 73
     3
  0
ENDBLK
  5
1FF
330
1F4
100
AcDbEntity
  8
0
100
AcDbBlockEnd
  0
BLOCK
  5
20A
330
200
100
AcDbEntity
  8
0
100
AcDbBlockBegin
  2
GDimGGroup2
 70
     0
 71
     0
 10
0.0
 20
0.0
 30
0.0
  3
GDimGGroup2
  1

  0
HATCH
  5
202
330
200
100
AcDbEntity
  8
Default
  6
Continuous
 62
     7
 48
25.4
100
AcDbHatch
 10
0.0
 20
0.0
 30
0.0
210
0.0
220
0.0
230
1.0
  2
SOLID
 70
     1
 71
     0
 91
        1
 92
        1
 93
        3
 72
     1
 10
535.6961255537527
 20
320.4829264586858
 11
537.4445356194634
 21
316.8240320561778
 72
     1
 10
537.4445356194634
 20
316.8240320561778
 11
536.9773026608207
 21
320.852200296078
 72
     1
 10
536.9773026608207
 20
320.852200296078
 11
535.6961255537527
 21
320.4829264586858
 97
        0
 75
     0
 76
     1
 98
        0
  0
LWPOLYLINE
  5
203
330
200
100
AcDbEntity
  8
Default
  6
Continuous
 62
     7
 48
25.4
370
    30
100
AcDbPolyline
 90
        4
 70
     1
 43
0.00035
 10
535.6961255538
 20
320.4829264587
 10
537.4445356195
 20
316.8240320562
 10
536.9773026608
 20
320.8522002961
 10
535.6961255538
 20
320.4829264587
  0
HATCH
  5
204
330
200
100
AcDbEntity
  8
Default
  6
Continuous
 62
     7
 48
25.4
100
AcDbHatch
 10
0.0
 20
0.0
 30
0.0
210
0.0
220
0.0
230
1.0
  2
SOLID
 70
     1
 71
     0
 91
        1
 92
        1
 93
        3
 72
     1
 10
515.4832371143009
 20
358.162762064849
 11
512.2329554164777
 21
360.5876568855326
 72
     1
 10
512.2329554164777
 20
360.5876568855326
 11
514.5210938374402
 21
357.2396920450514
 72
     1
 10
514.5210938374402
 20
357.2396920450514
 11
515.4832371143009
 21
358.162762064849
 97
        0
 75
     0
 76
     1
 98
        0
  0
LWPOLYLINE
  5
205
330
200
100
AcDbEntity
  8
Default
  6
Continuous
 62
     7
 48
25.4
370
    30
100
AcDbPolyline
 90
        4
 70
     1
 43
0.00035
 10
515.4832371143
 20
358.1627620648
 10
512.2329554165
 20
360.5876568855
 10
514.5210938374
 20
357.2396920451
 10
515.4832371143
 20
358.1627620648
  0
LINE
  5
206
330
200
100
AcDbEntity
  8
Default
  6
Continuous
 62
     7
 48
25.4
100
AcDbLine
 10
494.0680112003
 20
305.281871469
 30
0.0
 11
539.3772782963
 21
317.3383200644
 31
0.0
  0
LINE
  5
207
330
200
100
AcDbEntity
  8
Default
  6
Continuous
 62
     7
 48
25.4
100
AcDbLine
 10
480.4885838624
 20
328.8537756804
 30
0.0
 11
513.6473992379
 21
362.0016353458
 31
0.0
  0
ARC
  5
208
330
200
100
AcDbEntity
  8
Default
  6
Continuous
 62
     7
 48
25.4
100
AcDbCircle
 10
443.4300666678
 20
291.8075026618
 30
0.0
 40
97.2859039902679
100
AcDbArc
 50
14.9006905913
 51
44.9905323193
  0
TEXT
  5
209
330
200
100
AcDbEntity
  8
Default
  6
Continuous
 62
     7
 48
25.4
100
AcDbText
 10
526.467835984
 20
344.5616759529
 30
0.0
 40
4.0
  1
30°
 50
299.9456118661
  7
SEACAD_arial_ttf
 11
529.9338345422
 21
346.5583867468
 31
0.0
100
AcDbText
 73
     3
  0
ENDBLK
  5
20B
330
200
100
AcDbEntity
  8
0
100
AcDbBlockEnd
  0
BLOCK
  5
216
330
20C
100
AcDbEntity
  8
0
100
AcDbBlockBegin
  2
GDimGGroup3
 70
     0
 71
     0
 10
0.0
 20
0.0
 30
0.0
  3
GDimGGroup3
  1

  0
HATCH
  5
20E
330
20C
100
AcDbEntity
  8
Default
  6
Continuous
 62
     7
 48
25.4
100
AcDbHatch
 10
0.0
 20
0.0
 30
0.0
210
0.0
220
0.0
230
1.0
  2
SOLID
 70
     1
 71
     0
 91
        1
 92
        1
 93
        3
 72
     1
 10
539.5448311073417
 20
295.7928861963401
 11
540.2939399707324
 21
291.8075026618014
 72
     1
 10
540.2939399707323
 20
291.8075026618014
 11
540.8778803003482
 21
295.8204142853026
 72
     1
 10
540.8778803003482
 20
295.8204142853026
 11
539.5448311073417
 21
295.7928861963401
 97
        0
 75
     0
 76
     1
 98
        0
  0
LWPOLYLINE
  5
20F
330
20C
100
AcDbEntity
  8
Default
  6
Continuous
 62
     7
 48
25.4
370
    30
100
AcDbPolyline
 90
        4
 70
     1
 43
0.00035
 10
539.5448311073
 20
295.7928861963
 10
540.2939399707
 20
291.8075026618
 10
540.8778803003
 20
295.8204142853
 10
539.5448311073
 20
295.7928861963
  0
HATCH
  5
210
330
20C
100
AcDbEntity
  8
Default
  6
Continuous
 62
     7
 48
25.4
100
AcDbHatch
 10
0.0
 20
0.0
 30
0.0
210
0.0
220
0.0
230
1.0
  2
SOLID
 70
     1
 71
     0
 91
        1
 92
        1
 93
        3
 72
     1
 10
538.6328984197605
 20
312.9876978239663
 11
537.0366963129698
 21
316.7155101637789
 72
     1
 10
537.0366963129696
 20
316.7155101637789
 11
537.3375970064811
 21
312.6715140239159
 72
     1
 10
537.3375970064813
 20
312.6715140239159
 11
538.6328984197605
 21
312.9876978239663
 97
        0
 75
     0
 76
     1
 98
        0
  0
LWPOLYLINE
  5
211
330
20C
100
AcDbEntity
  8
Default
  6
Continuous
 62
     7
 48
25.4
370
    30
100
AcDbPolyline
 90
        4
 70
     1
 43
0.00035
 10
538.6328984198
 20
312.987697824
 10
537.036696313
 20
316.7155101638
 10
537.3375970065
 20
312.6715140239
 10
538.6328984198
 20
312.987697824
  0
LINE
  5
212
330
20C
100
AcDbEntity
  8
Default
  6
Continuous
 62
     7
 48
25.4
100
AcDbLine
 10
443.4300666678
 20
291.8075026618
 30
0.0
 11
542.2939365733
 21
291.8075026618
 31
0.0
  0
LINE
  5
213
330
20C
100
AcDbEntity
  8
Default
  6
Continuous
 62
     7
 48
25.4
100
AcDbLine
 10
494.0680112003
 20
305.281871469
 30
0.0
 11
538.9694392433
 21
317.2297972193
 31
0.0
  0
ARC
  5
214
330
20C
100
AcDbEntity
  8
Default
  6
Continuous
 62
     7
 48
25.4
100
AcDbCircle
 10
443.4300666678
 20
291.8075026618
 30
0.0
 40
96.86387330294272
100
AcDbArc
 50
0.0
 51
14.9006911744
  0
TEXT
  5
215
330
20C
100
AcDbEntity
  8
Default
  6
Continuous
 62
     7
 48
25.4
100
AcDbText
 10
539.91524096
 20
308.7221072715
 30
0.0
 40
4.0
  1
15°
 50
277.4503452956
  7
SEACAD_arial_ttf
 11
543.8814713921
 21
309.2407749493
 31
0.0
100
AcDbText
 73
     3
  0
ENDBLK
  5
217
330
20C
100
AcDbEntity
  8
0
100
AcDbBlockEnd
  0
BLOCK
  5
222
330
218
100
AcDbEntity
  8
0
100
AcDbBlockBegin
  2
GDimGGroup4
 70
     0
 71
     0
 10
0.0
 20
0.0
 30
0.0
  3
GDimGGroup4
  1

  0
HATCH
  5
21A
330
218
100
AcDbEntity
  8
Default
  6
Continuous
 62
     7
 48
25.4
100
AcDbHatch
 10
0.0
 20
0.0
 30
0.0
210
0.0
220
0.0
230
1.0
  2
SOLID
 70
     1
 71
     0
 91
        1
 92
        1
 93
        3
 72
     1
 10
529.0216043297584
 20
247.8982791905578
 11
527.7089135142766
 21
244.0614460133747
 72
     1
 10
527.7089135142766
 20
244.0614460133747
 11
530.195026397197
 21
247.265145240824
 72
     1
 10
530.195026397197
 20
247.265145240824
 11
529.0216043297584
 21
247.8982791905578
 97
        0
 75
     0
 76
     1
 98
        0
  0
LWPOLYLINE
  5
21B
330
218
100
AcDbEntity
  8
Default
  6
Continuous
 62
     7
 48
25.4
370
    30
100
AcDbPolyline
 90
        4
 70
     1
 43
0.00035
 10
529.0216043298
 20
247.8982791906
 10
527.7089135143
 20
244.0614460134
 10
530.1950263972
 20
247.2651452408
 10
529.0216043298
 20
247.8982791906
  0
HATCH
  5
21C
330
218
100
AcDbEntity
  8
Default
  6
Continuous
 62
     7
 48
25.4
100
AcDbHatch
 10
0.0
 20
0.0
 30
0.0
210
0.0
220
0.0
230
1.0
  2
SOLID
 70
     1
 71
     0
 91
        1
 92
        1
 93
        3
 72
     1
 10
540.8778802233218
 20
287.7945892628176
 11
540.2939399707324
 21
291.8075008975273
 72
     1
 10
540.2939399707323
 20
291.8075008975274
 11
539.5448310308434
 21
287.8221173773675
 72
     1
 10
539.5448310308434
 20
287.8221173773675
 11
540.8778802233218
 21
287.7945892628177
 97
        0
 75
     0
 76
     1
 98
        0
  0
LWPOLYLINE
  5
21D
330
218
100
AcDbEntity
  8
Default
  6
Continuous
 62
     7
 48
25.4
370
    30
100
AcDbPolyline
 90
        4
 70
     1
 43
0.00035
 10
540.8778802233
 20
287.7945892628
 10
540.2939399707
 20
291.8075008975
 10
539.5448310308
 20
287.8221173774
 10
540.8778802233
 20
287.7945892628
  0
LINE
  5
21E
330
218
100
AcDbEntity
  8
Default
  6
Continuous
 62
     7
 48
25.4
100
AcDbLine
 10
527.189841581
 20
244.3555131353
 30
0.0
 11
529.4490608118
 21
243.0756094179
 31
0.0
  0
LINE
  5
21F
330
218
100
AcDbEntity
  8
Default
  6
Continuous
 62
     7
 48
25.4
100
AcDbLine
 10
443.4300666678
 20
291.8075026618
 30
0.0
 11
542.2939365733
 21
291.8075026618
 31
0.0
  0
ARC
  5
220
330
218
100
AcDbEntity
  8
Default
  6
Continuous
 62
     7
 48
25.4
100
AcDbCircle
 10
443.4300666678
 20
291.8075026618
 30
0.0
 40
96.86387330293781
100
AcDbArc
 50
330.467370891
 51
359.9999989564
  0
TEXT
  5
221
330
218
100
AcDbEntity
  8
Default
  6
Continuous
 62
     7
 48
25.4
100
AcDbText
 10
535.041883606
 20
263.2538301945
 30
0.0
 40
4.0
  1
30°
 50
75.2336854455
  7
SEACAD_arial_ttf
 11
531.1739899914
 21
264.2733393831
 31
0.0
100
AcDbText
 73
     3
  0
ENDBLK
  5
223
330
218
100
AcDbEntity
  8
0
100
AcDbBlockEnd
  0
BLOCK
  5
22E
330
224
100
AcDbEntity
  8
0
100
AcDbBlockBegin
  2
GDimGGroup5
 70
     0
 71
     0
 10
0.0
 20
0.0
 30
0.0
  3
GDimGGroup5
  1

  0
HATCH
  5
226
330
224
100
AcDbEntity
  8
Default
  6
Continuous
 62
     7
 48
25.4
100
AcDbHatch
 10
0.0
 20
0.0
 30
0.0
210
0.0
220
0.0
230
1.0
  2
SOLID
 70
     1
 71
     0
 91
        1
 92
        1
 93
        3
 72
     1
 10
131.0856399287609
 20
182.0210159982501
 11
131.0856399287609
 21
183.3543493949134
 72
     1
 10
131.0856399287609
 20
183.3543493949134
 11
127.0856397387711
 21
182.6876826965818
 72
     1
 10
127.0856397387711
 20
182.6876826965818
 11
131.0856399287609
 21
182.0210159982501
 97
        0
 75
     0
 76
     1
 98
        0
  0
LWPOLYLINE
  5
227
330
224
100
AcDbEntity
  8
Default
  6
Continuous
 62
     7
 48
25.4
370
    30
100
AcDbPolyline
 90
        4
 70
     1
 43
0.00035
 10
131.0856399288
 20
182.0210159983
 10
127.0856397388
 20
182.6876826966
 10
131.0856399288
 20
183.3543493949
 10
131.0856399288
 20
182.0210159983
  0
HATCH
  5
228
330
224
100
AcDbEntity
  8
Default
  6
Continuous
 62
     7
 48
25.4
100
AcDbHatch
 10
0.0
 20
0.0
 30
0.0
210
0.0
220
0.0
230
1.0
  2
SOLID
 70
     1
 71
     0
 91
        1
 92
        1
 93
        3
 72
     1
 10
214.0856377010373
 20
182.0210159982501
 11
218.0856378910272
 21
182.6876826965818
 72
     1
 10
218.0856378910272
 20
182.6876826965818
 11
214.0856377010373
 21
183.3543493949134
 72
     1
 10
214.0856377010373
 20
183.3543493949134
 11
214.0856377010373
 21
182.0210159982501
 97
        0
 75
     0
 76
     1
 98
        0
  0
LWPOLYLINE
  5
229
330
224
100
AcDbEntity
  8
Default
  6
Continuous
 62
     7
 48
25.4
370
    30
100
AcDbPolyline
 90
        4
 70
     1
 43
0.00035
 10
214.085637701
 20
182.0210159983
 10
218.085637891
 20
182.6876826966
 10
214.085637701
 20
183.3543493949
 10
214.085637701
 20
182.0210159983
  0
LINE
  5
22A
330
224
100
AcDbEntity
  8
Default
  6
Continuous
 62
     7
 48
25.4
100
AcDbLine
 10
127.0856397388
 20
222.7894278625
 30
0.0
 11
127.0856397388
 21
180.6876826016
 31
0.0
  0
LINE
  5
22B
330
224
100
AcDbEntity
  8
Default
  6
Continuous
 62
     7
 48
25.4
100
AcDbLine
 10
218.0856397388
 20
209.2894278789
 30
0.0
 11
218.0856397388
 21
180.6876826016
 31
0.0
  0
LINE
  5
22C
330
224
100
AcDbEntity
  8
Default
  6
Continuous
 62
     7
 48
25.4
100
AcDbLine
 10
127.0856397388
 20
182.6876826966
 30
0.0
 11
218.085637891
 21
182.6876826966
 31
0.0
  0
TEXT
  5
22D
330
224
100
AcDbEntity
  8
Default
  6
Continuous
 62
     7
 48
25.4
100
AcDbText
 10
169.4552040323
 20
183.6876826966
 30
0.0
 40
4.0
  1
91
  7
SEACAD_arial_ttf
 11
169.4552040323
 21
187.6876826966
 31
0.0
100
AcDbText
 73
     3
  0
ENDBLK
  5
22F
330
224
100
AcDbEntity
  8
0
100
AcDbBlockEnd
  0
BLOCK
  5
239
330
230
100
AcDbEntity
  8
0
100
AcDbBlockBegin
  2
GDimGGroup6
 70
     0
 71
     0
 10
0.0
 20
0.0
 30
0.0
  3
GDimGGroup6
  1

  0
HATCH
  5
232
330
230
100
AcDbEntity
  8
Default
  6
Continuous
 62
     7
 48
25.4
100
AcDbHatch
 10
0.0
 20
0.0
 30
0.0
210
0.0
220
0.0
230
1.0
  2
SOLID
 70
     1
 71
     0
 91
        1
 92
        1
 93
        3
 72
     1
 10
146.0856399287609
 20
215.66316461367
 11
146.0856399287609
 21
216.9964980103332
 72
     1
 10
146.0856399287609
 20
216.9964980103332
 11
142.0856397387711
 21
216.3298313120016
 72
     1
 10
142.0856397387711
 20
216.3298313120016
 11
146.0856399287609
 21
215.66316461367
 97
        0
 75
     0
 76
     1
 98
        0
  0
LWPOLYLINE
  5
233
330
230
100
AcDbEntity
  8
Default
  6
Continuous
 62
     7
 48
25.4
370
    30
100
AcDbPolyline
 90
        4
 70
     1
 43
0.00035
 10
146.0856399288
 20
215.6631646137
 10
142.0856397388
 20
216.329831312
 10
146.0856399288
 20
216.9964980103
 10
146.0856399288
 20
215.6631646137
  0
HATCH
  5
234
330
230
100
AcDbEntity
  8
Default
  6
Continuous
 62
     7
 48
25.4
100
AcDbHatch
 10
0.0
 20
0.0
 30
0.0
210
0.0
220
0.0
230
1.0
  2
SOLID
 70
     1
 71
     0
 91
        1
 92
        1
 93
        3
 72
     1
 10
133.0856395487813
 20
215.66316461367
 11
137.0856397387711
 21
216.3298313120016
 72
     1
 10
137.0856397387711
 20
216.3298313120016
 11
133.0856395487813
 21
216.9964980103332
 72
     1
 10
133.0856395487813
 20
216.9964980103332
 11
133.0856395487813
 21
215.66316461367
 97
        0
 75
     0
 76
     1
 98
        0
  0
LWPOLYLINE
  5
235
330
230
100
AcDbEntity
  8
Default
  6
Continuous
 62
     7
 48
25.4
370
    30
100
AcDbPolyline
 90
        4
 70
     1
 43
0.00035
 10
133.0856395488
 20
215.6631646137
 10
137.0856397388
 20
216.329831312
 10
133.0856395488
 20
216.9964980103
 10
133.0856395488
 20
215.6631646137
  0
LINE
  5
236
330
230
100
AcDbEntity
  8
Default
  6
Continuous
 62
     7
 48
25.4
100
AcDbLine
 10
142.0856397388
 20
222.7894278789
 30
0.0
 11
142.0856397388
 21
214.329831217
 31
0.0
  0
LINE
  5
237
330
230
100
AcDbEntity
  8
Default
  6
Continuous
 62
     7
 48
25.4
100
AcDbLine
 10
154.6924393413
 20
216.329831312
 30
0.0
 11
129.0856394706
 21
216.329831312
 31
0.0
  0
TEXT
  5
238
330
230
100
AcDbEntity
  8
Default
  6
Continuous
 62
     7
 48
25.4
100
AcDbText
 10
150.1620044288
 20
217.329831312
 30
0.0
 40
4.0
  1
5
  7
SEACAD_arial_ttf
 11
150.1620044288
 21
221.329831312
 31
0.0
100
AcDbText
 73
     3
  0
ENDBLK
  5
23A
330
230
100
AcDbEntity
  8
0
100
AcDbBlockEnd
  0
BLOCK
  5
245
330
23B
100
AcDbEntity
  8
0
100
AcDbBlockBegin
  2
GDimGGroup7
 70
     0
 71
     0
 10
0.0
 20
0.0
 30
0.0
  3
GDimGGroup7
  1

  0
HATCH
  5
23D
330
23B
100
AcDbEntity
  8
Default
  6
Continuous
 62
     7
 48
25.4
100
AcDbHatch
 10
0.0
 20
0.0
 30
0.0
210
0.0
220
0.0
230
1.0
  2
SOLID
 70
     1
 71
     0
 91
        1
 92
        1
 93
        3
 72
     1
 10
123.0856395487813
 20
215.6843768822906
 11
127.0856397387711
 21
216.3510435806223
 72
     1
 10
127.0856397387711
 20
216.3510435806223
 11
123.0856395487813
 21
217.0177102789539
 72
     1
 10
123.0856395487813
 20
217.0177102789539
 11
123.0856395487813
 21
215.6843768822906
 97
        0
 75
     0
 76
     1
 98
        0
  0
LWPOLYLINE
  5
23E
330
23B
100
AcDbEntity
  8
Default
  6
Continuous
 62
     7
 48
25.4
370
    30
100
AcDbPolyline
 90
        4
 70
     1
 43
0.00035
 10
123.0856395488
 20
215.6843768823
 10
127.0856397388
 20
216.3510435806
 10
123.0856395488
 20
217.017710279
 10
123.0856395488
 20
215.6843768823
  0
HATCH
  5
23F
330
23B
100
AcDbEntity
  8
Default
  6
Continuous
 62
     7
 48
25.4
100
AcDbHatch
 10
0.0
 20
0.0
 30
0.0
210
0.0
220
0.0
230
1.0
  2
SOLID
 70
     1
 71
     0
 91
        1
 92
        1
 93
        3
 72
     1
 10
115.0856391688017
 20
215.6843768822906
 11
115.0856391688017
 21
217.0177102789539
 72
     1
 10
115.0856391688017
 20
217.0177102789539
 11
111.0856389788119
 21
216.3510435806223
 72
     1
 10
111.0856389788119
 20
216.3510435806223
 11
115.0856391688017
 21
215.6843768822906
 97
        0
 75
     0
 76
     1
 98
        0
  0
LWPOLYLINE
  5
240
330
23B
100
AcDbEntity
  8
Default
  6
Continuous
 62
     7
 48
25.4
370
    30
100
AcDbPolyline
 90
        4
 70
     1
 43
0.00035
 10
115.0856391688
 20
215.6843768823
 10
111.0856389788
 20
216.3510435806
 10
115.0856391688
 20
217.017710279
 10
115.0856391688
 20
215.6843768823
  0
LINE
  5
241
330
23B
100
AcDbEntity
  8
Default
  6
Continuous
 62
     7
 48
25.4
100
AcDbLine
 10
127.0856397388
 20
222.7894278789
 30
0.0
 11
127.0856397388
 21
214.3510434856
 31
0.0
  0
LINE
  5
242
330
23B
100
AcDbEntity
  8
Default
  6
Continuous
 62
     7
 48
25.4
100
AcDbLine
 10
111.0856397388
 20
235.3894278789
 30
0.0
 11
111.0856397388
 21
214.3510434856
 31
0.0
  0
LINE
  5
243
330
23B
100
AcDbEntity
  8
Default
  6
Continuous
 62
     7
 48
25.4
100
AcDbLine
 10
127.0856397388
 20
216.3510435806
 30
0.0
 11
111.0856389788
 21
216.3510435806
 31
0.0
  0
TEXT
  5
244
330
23B
100
AcDbEntity
  8
Default
  6
Continuous
 62
     7
 48
25.4
100
AcDbText
 10
115.9552045762
 20
217.3510435806
 30
0.0
 40
4.0
  1
16
  7
SEACAD_arial_ttf
 11
115.9552045762
 21
221.3510435806
 31
0.0
100
AcDbText
 73
     3
  0
ENDBLK
  5
246
330
23B
100
AcDbEntity
  8
0
100
AcDbBlockEnd
  0
BLOCK
  5
251
330
247
100
AcDbEntity
  8
0
100
AcDbBlockBegin
  2
GDimGGroup8
 70
     0
 71
     0
 10
0.0
 20
0.0
 30
0.0
  3
GDimGGroup8
  1

  0
HATCH
  5
249
330
247
100
AcDbEntity
  8
Default
  6
Continuous
 62
     7
 48
25.4
100
AcDbHatch
 10
0.0
 20
0.0
 30
0.0
210
0.0
220
0.0
230
1.0
  2
SOLID
 70
     1
 71
     0
 91
        1
 92
        1
 93
        3
 72
     1
 10
138.0856395487813
 20
194.6489221806584
 11
142.0856397387711
 21
195.31558887899
 72
     1
 10
142.0856397387711
 20
195.31558887899
 11
138.0856395487813
 21
195.9822555773217
 72
     1
 10
138.0856395487813
 20
195.9822555773217
 11
138.0856395487813
 21
194.6489221806584
 97
        0
 75
     0
 76
     1
 98
        0
  0
LWPOLYLINE
  5
24A
330
247
100
AcDbEntity
  8
Default
  6
Continuous
 62
     7
 48
25.4
370
    30
100
AcDbPolyline
 90
        4
 70
     1
 43
0.00035
 10
138.0856395488
 20
194.6489221807
 10
142.0856397388
 20
195.315588879
 10
138.0856395488
 20
195.9822555773
 10
138.0856395488
 20
194.6489221807
  0
HATCH
  5
24B
330
247
100
AcDbEntity
  8
Default
  6
Continuous
 62
     7
 48
25.4
100
AcDbHatch
 10
0.0
 20
0.0
 30
0.0
210
0.0
220
0.0
230
1.0
  2
SOLID
 70
     1
 71
     0
 91
        1
 92
        1
 93
        3
 72
     1
 10
131.085640264037
 20
194.6489221806584
 11
131.085640264037
 21
195.9822555773217
 72
     1
 10
131.085640264037
 20
195.9822555773217
 11
127.0856400740472
 21
195.31558887899
 72
     1
 10
127.0856400740472
 20
195.31558887899
 11
131.085640264037
 21
194.6489221806584
 97
        0
 75
     0
 76
     1
 98
        0
  0
LWPOLYLINE
  5
24C
330
247
100
AcDbEntity
  8
Default
  6
Continuous
 62
     7
 48
25.4
370
    30
100
AcDbPolyline
 90
        4
 70
     1
 43
0.00035
 10
131.085640264
 20
194.6489221807
 10
127.085640074
 20
195.315588879
 10
131.085640264
 20
195.9822555773
 10
131.085640264
 20
194.6489221807
  0
LINE
  5
24D
330
247
100
AcDbEntity
  8
Default
  6
Continuous
 62
     7
 48
25.4
100
AcDbLine
 10
142.0856397388
 20
222.7894278789
 30
0.0
 11
142.0856397388
 21
193.315588784
 31
0.0
  0
LINE
  5
24E
330
247
100
AcDbEntity
  8
Default
  6
Continuous
 62
     7
 48
25.4
100
AcDbLine
 10
127.0856397388
 20
222.7894278789
 30
0.0
 11
127.0856397388
 21
193.315588784
 31
0.0
  0
LINE
  5
24F
330
247
100
AcDbEntity
  8
Default
  6
Continuous
 62
     7
 48
25.4
100
AcDbLine
 10
142.0856397388
 20
195.315588879
 30
0.0
 11
127.085640074
 21
195.315588879
 31
0.0
  0
TEXT
  5
250
330
247
100
AcDbEntity
  8
Default
  6
Continuous
 62
     7
 48
25.4
100
AcDbText
 10
131.4552051238
 20
196.315588879
 30
0.0
 40
4.0
  1
15
  7
SEACAD_arial_ttf
 11
131.4552051238
 21
200.315588879
 31
0.0
100
AcDbText
 73
     3
  0
ENDBLK
  5
252
330
247
100
AcDbEntity
  8
0
100
AcDbBlockEnd
  0
BLOCK
  5
25E
330
253
100
AcDbEntity
  8
0
100
AcDbBlockBegin
  2
GDimGGroup9
 70
     0
 71
     0
 10
0.0
 20
0.0
 30
0.0
  3
GDimGGroup9
  1

  0
HATCH
  5
255
330
253
100
AcDbEntity
  8
Default
  6
Continuous
 62
     7
 48
25.4
100
AcDbHatch
 10
0.0
 20
0.0
 30
0.0
210
0.0
220
0.0
230
1.0
  2
SOLID
 70
     1
 71
     0
 91
        1
 92
        1
 93
        3
 72
     1
 10
232.5373715888538
 20
235.8894280688473
 11
231.2040381921905
 21
235.8894280688473
 72
     1
 10
231.2040381921905
 20
235.8894280688473
 11
231.8707048905222
 21
231.8894278788575
 72
     1
 10
231.8707048905222
 20
231.8894278788575
 11
232.5373715888538
 21
235.8894280688473
 97
        0
 75
     0
 76
     1
 98
        0
  0
LWPOLYLINE
  5
256
330
253
100
AcDbEntity
  8
Default
  6
Continuous
 62
     7
 48
25.4
370
    30
100
AcDbPolyline
 90
        4
 70
     1
 43
0.00035
 10
232.5373715889
 20
235.8894280688
 10
231.8707048905
 20
231.8894278789
 10
231.2040381922
 20
235.8894280688
 10
232.5373715889
 20
235.8894280688
  0
HATCH
  5
257
330
253
100
AcDbEntity
  8
Default
  6
Continuous
 62
     7
 48
25.4
100
AcDbHatch
 10
0.0
 20
0.0
 30
0.0
210
0.0
220
0.0
230
1.0
  2
SOLID
 70
     1
 71
     0
 91
        1
 92
        1
 93
        3
 72
     1
 10
232.5373715888538
 20
244.8894286127397
 11
231.8707048905222
 21
248.8894288027295
 72
     1
 10
231.8707048905222
 20
248.8894288027295
 11
231.2040381921905
 21
244.8894286127397
 72
     1
 10
231.2040381921905
 20
244.8894286127397
 11
232.5373715888538
 21
244.8894286127397
 97
        0
 75
     0
 76
     1
 98
        0
  0
LWPOLYLINE
  5
258
330
253
100
AcDbEntity
  8
Default
  6
Continuous
 62
     7
 48
25.4
370
    30
100
AcDbPolyline
 90
        4
 70
     1
 43
0.00035
 10
232.5373715889
 20
244.8894286127
 10
231.8707048905
 20
248.8894288027
 10
231.2040381922
 20
244.8894286127
 10
232.5373715889
 20
244.8894286127
  0
LINE
  5
259
330
253
100
AcDbEntity
  8
Default
  6
Continuous
 62
     7
 48
25.4
100
AcDbLine
 10
218.0856397388
 20
231.8894278789
 30
0.0
 11
233.8707049855
 21
231.8894278789
 31
0.0
  0
LINE
  5
25A
330
253
100
AcDbEntity
  8
Default
  6
Continuous
 62
     7
 48
25.4
100
AcDbLine
 10
218.0856397388
 20
248.8894278789
 30
0.0
 11
233.8707049855
 21
248.8894278789
 31
0.0
  0
LINE
  5
25B
330
253
100
AcDbEntity
  8
Default
  6
Continuous
 62
     7
 48
25.4
100
AcDbLine
 10
231.8707048905
 20
231.8894278789
 30
0.0
 11
231.8707048905
 21
248.8894288027
 31
0.0
  0
TEXT
  5
25C
330
253
100
AcDbEntity
  8
Default
  6
Continuous
 62
     7
 48
25.4
100
AcDbText
 10
230.8707048905
 20
240.9396953126
 30
0.0
 40
4.0
  1
17
 50
90.0
  7
SEACAD_arial_ttf
 11
226.8707048905
 21
240.9396953126
 31
0.0
100
AcDbText
 73
     3
  0
TEXT
  5
25D
330
253
100
AcDbEntity
  8
Default
  6
Continuous
 62
     7
 48
25.4
100
AcDbText
 10
230.8707048905
 20
233.5782918038
 30
0.0
 40
4.0
  1
O
 50
90.0
  7
SEACAD_semeca1_ttf
 11
226.8707048905
 21
233.5782918038
 31
0.0
100
AcDbText
 73
     3
  0
ENDBLK
  5
25F
330
253
100
AcDbEntity
  8
0
100
AcDbBlockEnd
  0
BLOCK
  5
269
330
260
100
AcDbEntity
  8
0
100
AcDbBlockBegin
  2
GDimGGroup10
 70
     0
 71
     0
 10
0.0
 20
0.0
 30
0.0
  3
GDimGGroup10
  1

  0
HATCH
  5
262
330
260
100
AcDbEntity
  8
Default
  6
Continuous
 62
     7
 48
25.4
100
AcDbHatch
 10
0.0
 20
0.0
 30
0.0
210
0.0
220
0.0
230
1.0
  2
SOLID
 70
     1
 71
     0
 91
        1
 92
        1
 93
        3
 72
     1
 10
214.0856395487813
 20
217.0643424161035
 11
214.0856395487813
 21
215.7310090194402
 72
     1
 10
214.0856395487813
 20
215.7310090194402
 11
218.0856397387711
 21
216.3976757177719
 72
     1
 10
218.0856397387711
 20
216.3976757177719
 11
214.0856395487813
 21
217.0643424161035
 97
        0
 75
     0
 76
     1
 98
        0
  0
LWPOLYLINE
  5
263
330
260
100
AcDbEntity
  8
Default
  6
Continuous
 62
     7
 48
25.4
370
    30
100
AcDbPolyline
 90
        4
 70
     1
 43
0.00035
 10
214.0856395488
 20
217.0643424161
 10
218.0856397388
 20
216.3976757178
 10
214.0856395488
 20
215.7310090194
 10
214.0856395488
 20
217.0643424161
  0
HATCH
  5
264
330
260
100
AcDbEntity
  8
Default
  6
Continuous
 62
     7
 48
25.4
100
AcDbHatch
 10
0.0
 20
0.0
 30
0.0
210
0.0
220
0.0
230
1.0
  2
SOLID
 70
     1
 71
     0
 91
        1
 92
        1
 93
        3
 72
     1
 10
210.0856398244528
 20
217.0643424161035
 11
206.085639634463
 21
216.3976757177719
 72
     1
 10
206.085639634463
 20
216.3976757177719
 11
210.0856398244528
 21
215.7310090194402
 72
     1
 10
210.0856398244528
 20
215.7310090194402
 11
210.0856398244528
 21
217.0643424161035
 97
        0
 75
     0
 76
     1
 98
        0
  0
LWPOLYLINE
  5
265
330
260
100
AcDbEntity
  8
Default
  6
Continuous
 62
     7
 48
25.4
370
    30
100
AcDbPolyline
 90
        4
 70
     1
 43
0.00035
 10
210.0856398245
 20
217.0643424161
 10
206.0856396345
 20
216.3976757178
 10
210.0856398245
 20
215.7310090194
 10
210.0856398245
 20
217.0643424161
  0
LINE
  5
266
330
260
100
AcDbEntity
  8
Default
  6
Continuous
 62
     7
 48
25.4
100
AcDbLine
 10
206.0856397388
 20
231.8894274169
 30
0.0
 11
206.0856397388
 21
214.3976756228
 31
0.0
  0
LINE
  5
267
330
260
100
AcDbEntity
  8
Default
  6
Continuous
 62
     7
 48
25.4
100
AcDbLine
 10
230.9681108234
 20
216.3976757178
 30
0.0
 11
206.0856396345
 21
216.3976757178
 31
0.0
  0
TEXT
  5
268
330
260
100
AcDbEntity
  8
Default
  6
Continuous
 62
     7
 48
25.4
100
AcDbText
 10
223.3072411315
 20
217.3976757178
 30
0.0
 40
4.0
  1
12
  7
SEACAD_arial_ttf
 11
223.3072411315
 21
221.3976757178
 31
0.0
100
AcDbText
 73
     3
  0
ENDBLK
  5
26A
330
260
100
AcDbEntity
  8
0
100
AcDbBlockEnd
  0
BLOCK
  5
276
330
26B
100
AcDbEntity
  8
0
100
AcDbBlockBegin
  2
GDimGGroup11
 70
     0
 71
     0
 10
0.0
 20
0.0
 30
0.0
  3
GDimGGroup11
  1

  0
HATCH
  5
26D
330
26B
100
AcDbEntity
  8
Default
  6
Continuous
 62
     7
 48
25.4
100
AcDbHatch
 10
0.0
 20
0.0
 30
0.0
210
0.0
220
0.0
230
1.0
  2
SOLID
 70
     1
 71
     0
 91
        1
 92
        1
 93
        3
 72
     1
 10
79.28132144794643
 20
256.5675394870385
 11
79.94798814627806
 21
252.5675392970487
 72
     1
 10
79.94798814627806
 20
252.5675392970487
 11
80.6146548446097
 21
256.5675394870385
 72
     1
 10
80.6146548446097
 20
256.5675394870385
 11
79.28132144794643
 21
256.5675394870385
 97
        0
 75
     0
 76
     1
 98
        0
  0
LWPOLYLINE
  5
26E
330
26B
100
AcDbEntity
  8
Default
  6
Continuous
 62
     7
 48
25.4
370
    30
100
AcDbPolyline
 90
        4
 70
     1
 43
0.00035
 10
79.2813214479
 20
256.567539487
 10
79.9479881463
 20
252.567539297
 10
80.6146548446
 20
256.567539487
 10
79.2813214479
 20
256.567539487
  0
HATCH
  5
26F
330
26B
100
AcDbEntity
  8
Default
  6
Continuous
 62
     7
 48
25.4
100
AcDbHatch
 10
0.0
 20
0.0
 30
0.0
210
0.0
220
0.0
230
1.0
  2
SOLID
 70
     1
 71
     0
 91
        1
 92
        1
 93
        3
 72
     1
 10
79.28132144794643
 20
331.1275419108614
 11
80.6146548446097
 21
331.1275419108614
 72
     1
 10
80.6146548446097
 20
331.1275419108614
 11
79.94798814627806
 21
335.1275421008512
 72
     1
 10
79.94798814627806
 20
335.1275421008512
 11
79.28132144794643
 21
331.1275419108614
 97
        0
 75
     0
 76
     1
 98
        0
  0
LWPOLYLINE
  5
270
330
26B
100
AcDbEntity
  8
Default
  6
Continuous
 62
     7
 48
25.4
370
    30
100
AcDbPolyline
 90
        4
 70
     1
 43
0.00035
 10
79.2813214479
 20
331.1275419109
 10
79.9479881463
 20
335.1275421009
 10
80.6146548446
 20
331.1275419109
 10
79.2813214479
 20
331.1275419109
  0
LINE
  5
271
330
26B
100
AcDbEntity
  8
Default
  6
Continuous
 62
     7
 48
25.4
100
AcDbLine
 10
127.0856397388
 20
252.567539297
 30
0.0
 11
77.9479880513
 21
252.567539297
 31
0.0
  0
LINE
  5
272
330
26B
100
AcDbEntity
  8
Default
  6
Continuous
 62
     7
 48
25.4
100
AcDbLine
 10
127.0856397388
 20
335.127539297
 30
0.0
 11
77.9479880513
 21
335.127539297
 31
0.0
  0
LINE
  5
273
330
26B
100
AcDbEntity
  8
Default
  6
Continuous
 62
     7
 48
25.4
100
AcDbLine
 10
79.9479881463
 20
252.567539297
 30
0.0
 11
79.9479881463
 21
335.1275421009
 31
0.0
  0
TEXT
  5
274
330
26B
100
AcDbEntity
  8
Default
  6
Continuous
 62
     7
 48
25.4
100
AcDbText
 10
78.9479881463
 20
288.9195468012
 30
0.0
 40
4.0
  1
82.563
 50
90.0
  7
SEACAD_arial_ttf
 11
74.9479881463
 21
288.9195468012
 31
0.0
100
AcDbText
 73
     3
  0
TEXT
  5
275
330
26B
100
AcDbEntity
  8
Default
  6
Continuous
 62
     7
 48
25.4
100
AcDbText
 10
78.9479881463
 20
281.5581432924
 30
0.0
 40
4.0
  1
O
 50
90.0
  7
SEACAD_semeca1_ttf
 11
74.9479881463
 21
281.5581432924
 31
0.0
100
AcDbText
 73
     3
  0
ENDBLK
  5
277
330
26B
100
AcDbEntity
  8
0
100
AcDbBlockEnd
  0
BLOCK
  5
281
330
278
100
AcDbEntity
  8
0
100
AcDbBlockBegin
  2
GDimGGroup12
 70
     0
 71
     0
 10
0.0
 20
0.0
 30
0.0
  3
GDimGGroup12
  1

  0
HATCH
  5
27A
330
278
100
AcDbEntity
  8
Default
  6
Continuous
 62
     7
 48
25.4
100
AcDbHatch
 10
0.0
 20
0.0
 30
0.0
210
0.0
220
0.0
230
1.0
  2
SOLID
 70
     1
 71
     0
 91
        1
 92
        1
 93
        3
 72
     1
 10
200.0773760347146
 20
274.2894280688473
 11
200.7440427330462
 21
270.2894278788575
 72
     1
 10
200.7440427330462
 20
270.2894278788575
 11
201.4107094313778
 21
274.2894280688473
 72
     1
 10
201.4107094313778
 20
274.2894280688473
 11
200.0773760347146
 21
274.2894280688473
 97
        0
 75
     0
 76
     1
 98
        0
  0
LWPOLYLINE
  5
27B
330
278
100
AcDbEntity
  8
Default
  6
Continuous
 62
     7
 48
25.4
370
    30
100
AcDbPolyline
 90
        4
 70
     1
 43
0.00035
 10
200.0773760347
 20
274.2894280688
 10
200.744042733
 20
270.2894278789
 10
201.4107094314
 20
274.2894280688
 10
200.0773760347
 20
274.2894280688
  0
HATCH
  5
27C
330
278
100
AcDbEntity
  8
Default
  6
Continuous
 62
     7
 48
25.4
100
AcDbHatch
 10
0.0
 20
0.0
 30
0.0
210
0.0
220
0.0
230
1.0
  2
SOLID
 70
     1
 71
     0
 91
        1
 92
        1
 93
        3
 72
     1
 10
200.0773760347146
 20
311.2894294770071
 11
201.4107094313778
 21
311.2894294770071
 72
     1
 10
201.4107094313778
 20
311.2894294770071
 11
200.7440427330462
 21
315.2894296669969
 72
     1
 10
200.7440427330462
 20
315.2894296669969
 11
200.0773760347146
 21
311.2894294770071
 97
        0
 75
     0
 76
     1
 98
        0
  0
LWPOLYLINE
  5
27D
330
278
100
AcDbEntity
  8
Default
  6
Continuous
 62
     7
 48
25.4
370
    30
100
AcDbPolyline
 90
        4
 70
     1
 43
0.00035
 10
200.0773760347
 20
311.289429477
 10
200.744042733
 20
315.289429667
 10
201.4107094314
 20
311.289429477
 10
200.0773760347
 20
311.289429477
  0
LINE
  5
27E
330
278
100
AcDbEntity
  8
Default
  6
Continuous
 62
     7
 48
25.4
100
AcDbLine
 10
200.744042733
 20
270.2894278789
 30
0.0
 11
200.744042733
 21
315.289429667
 31
0.0
  0
TEXT
  5
27F
330
278
100
AcDbEntity
  8
Default
  6
Continuous
 62
     7
 48
25.4
100
AcDbText
 10
199.744042733
 20
293.3396957447
 30
0.0
 40
4.0
  1
45
 50
90.0
  7
SEACAD_arial_ttf
 11
195.744042733
 21
293.3396957447
 31
0.0
100
AcDbText
 73
     3
  0
TEXT
  5
280
330
278
100
AcDbEntity
  8
Default
  6
Continuous
 62
     7
 48
25.4
100
AcDbText
 10
199.744042733
 20
285.9782922359
 30
0.0
 40
4.0
  1
O
 50
90.0
  7
SEACAD_semeca1_ttf
 11
195.744042733
 21
285.9782922359
 31
0.0
100
AcDbText
 73
     3
  0
ENDBLK
  5
282
330
278
100
AcDbEntity
  8
0
100
AcDbBlockEnd
  0
BLOCK
  5
28E
330
283
100
AcDbEntity
  8
0
100
AcDbBlockBegin
  2
GDimGGroup13
 70
     0
 71
     0
 10
0.0
 20
0.0
 30
0.0
  3
GDimGGroup13
  1

  0
HATCH
  5
285
330
283
100
AcDbEntity
  8
Default
  6
Continuous
 62
     7
 48
25.4
100
AcDbHatch
 10
0.0
 20
0.0
 30
0.0
210
0.0
220
0.0
230
1.0
  2
SOLID
 70
     1
 71
     0
 91
        1
 92
        1
 93
        3
 72
     1
 10
95.32866994724455
 20
266.7894280688473
 11
95.99533664557619
 21
262.7894278788575
 72
     1
 10
95.99533664557619
 20
262.7894278788575
 11
96.66200334390783
 21
266.7894280688473
 72
     1
 10
96.66200334390783
 20
266.7894280688473
 11
95.32866994724455
 21
266.7894280688473
 97
        0
 75
     0
 76
     1
 98
        0
  0
LWPOLYLINE
  5
286
330
283
100
AcDbEntity
  8
Default
  6
Continuous
 62
     7
 48
25.4
370
    30
100
AcDbPolyline
 90
        4
 70
     1
 43
0.00035
 10
95.3286699472
 20
266.7894280688
 10
95.9953366456
 20
262.7894278789
 10
96.6620033439
 20
266.7894280688
 10
95.3286699472
 20
266.7894280688
  0
HATCH
  5
287
330
283
100
AcDbEntity
  8
Default
  6
Continuous
 62
     7
 48
25.4
100
AcDbHatch
 10
0.0
 20
0.0
 30
0.0
210
0.0
220
0.0
230
1.0
  2
SOLID
 70
     1
 71
     0
 91
        1
 92
        1
 93
        3
 72
     1
 10
95.32866994724455
 20
318.7894263477632
 11
96.66200334390783
 21
318.7894263477632
 72
     1
 10
96.66200334390783
 20
318.7894263477632
 11
95.99533664557619
 21
322.789426537753
 72
     1
 10
95.99533664557619
 20
322.789426537753
 11
95.32866994724455
 21
318.7894263477632
 97
        0
 75
     0
 76
     1
 98
        0
  0
LWPOLYLINE
  5
288
330
283
100
AcDbEntity
  8
Default
  6
Continuous
 62
     7
 48
25.4
370
    30
100
AcDbPolyline
 90
        4
 70
     1
 43
0.00035
 10
95.3286699472
 20
318.7894263478
 10
95.9953366456
 20
322.7894265378
 10
96.6620033439
 20
318.7894263478
 10
95.3286699472
 20
318.7894263478
  0
LINE
  5
289
330
283
100
AcDbEntity
  8
Default
  6
Continuous
 62
     7
 48
25.4
100
AcDbLine
 10
154.0856397388
 20
262.7894278789
 30
0.0
 11
93.9953365506
 21
262.7894278789
 31
0.0
  0
LINE
  5
28A
330
283
100
AcDbEntity
  8
Default
  6
Continuous
 62
     7
 48
25.4
100
AcDbLine
 10
154.0856397388
 20
322.7894278789
 30
0.0
 11
93.9953365506
 21
322.7894278789
 31
0.0
  0
LINE
  5
28B
330
283
100
AcDbEntity
  8
Default
  6
Continuous
 62
     7
 48
25.4
100
AcDbLine
 10
95.9953366456
 20
262.7894278789
 30
0.0
 11
95.9953366456
 21
322.7894265378
 31
0.0
  0
TEXT
  5
28C
330
283
100
AcDbEntity
  8
Default
  6
Continuous
 62
     7
 48
25.4
100
AcDbText
 10
94.9953366456
 20
293.3396941801
 30
0.0
 40
4.0
  1
60
 50
90.0
  7
SEACAD_arial_ttf
 11
90.9953366456
 21
293.3396941801
 31
0.0
100
AcDbText
 73
     3
  0
TEXT
  5
28D
330
283
100
AcDbEntity
  8
Default
  6
Continuous
 62
     7
 48
25.4
100
AcDbText
 10
94.9953366456
 20
285.9782906713
 30
0.0
 40
4.0
  1
O
 50
90.0
  7
SEACAD_semeca1_ttf
 11
90.9953366456
 21
285.9782906713
 31
0.0
100
AcDbText
 73
     3
  0
ENDBLK
  5
28F
330
283
100
AcDbEntity
  8
0
100
AcDbBlockEnd
  0
BLOCK
  5
299
330
290
100
AcDbEntity
  8
0
100
AcDbBlockBegin
  2
GDimGGroup14
 70
     0
 71
     0
 10
0.0
 20
0.0
 30
0.0
  3
GDimGGroup14
  1

  0
HATCH
  5
292
330
290
100
AcDbEntity
  8
Default
  6
Continuous
 62
     7
 48
25.4
100
AcDbHatch
 10
0.0
 20
0.0
 30
0.0
210
0.0
220
0.0
230
1.0
  2
SOLID
 70
     1
 71
     0
 91
        1
 92
        1
 93
        3
 72
     1
 10
162.8838032092728
 20
286.7894280688473
 11
161.5504698126096
 21
286.7894280688473
 72
     1
 10
161.5504698126096
 20
286.7894280688473
 11
162.2171365109412
 21
282.7894278788575
 72
     1
 10
162.2171365109412
 20
282.7894278788575
 11
162.8838032092728
 21
286.7894280688473
 97
        0
 75
     0
 76
     1
 98
        0
  0
LWPOLYLINE
  5
293
330
290
100
AcDbEntity
  8
Default
  6
Continuous
 62
     7
 48
25.4
370
    30
100
AcDbPolyline
 90
        4
 70
     1
 43
0.00035
 10
162.8838032093
 20
286.7894280688
 10
162.2171365109
 20
282.7894278789
 10
161.5504698126
 20
286.7894280688
 10
162.8838032093
 20
286.7894280688
  0
HATCH
  5
294
330
290
100
AcDbEntity
  8
Default
  6
Continuous
 62
     7
 48
25.4
100
AcDbHatch
 10
0.0
 20
0.0
 30
0.0
210
0.0
220
0.0
230
1.0
  2
SOLID
 70
     1
 71
     0
 91
        1
 92
        1
 93
        3
 72
     1
 10
162.8838032092728
 20
298.7894272418328
 11
162.2171365109412
 21
302.7894274318226
 72
     1
 10
162.2171365109412
 20
302.7894274318226
 11
161.5504698126096
 21
298.7894272418328
 72
     1
 10
161.5504698126096
 20
298.7894272418328
 11
162.8838032092728
 21
298.7894272418328
 97
        0
 75
     0
 76
     1
 98
        0
  0
LWPOLYLINE
  5
295
330
290
100
AcDbEntity
  8
Default
  6
Continuous
 62
     7
 48
25.4
370
    30
100
AcDbPolyline
 90
        4
 70
     1
 43
0.00035
 10
162.8838032093
 20
298.7894272418
 10
162.2171365109
 20
302.7894274318
 10
161.5504698126
 20
298.7894272418
 10
162.8838032093
 20
298.7894272418
  0
LINE
  5
296
330
290
100
AcDbEntity
  8
Default
  6
Continuous
 62
     7
 48
25.4
100
AcDbLine
 10
162.2171365109
 20
282.7894278789
 30
0.0
 11
162.2171365109
 21
302.7894274318
 31
0.0
  0
TEXT
  5
297
330
290
100
AcDbEntity
  8
Default
  6
Continuous
 62
     7
 48
25.4
100
AcDbText
 10
161.2171365109
 20
293.3396946271
 30
0.0
 40
4.0
  1
20
 50
90.0
  7
SEACAD_arial_ttf
 11
157.2171365109
 21
293.3396946271
 31
0.0
100
AcDbText
 73
     3
  0
TEXT
  5
298
330
290
100
AcDbEntity
  8
Default
  6
Continuous
 62
     7
 48
25.4
100
AcDbText
 10
161.2171365109
 20
285.9782911183
 30
0.0
 40
4.0
  1
O
 50
90.0
  7
SEACAD_semeca1_ttf
 11
157.2171365109
 21
285.9782911183
 31
0.0
100
AcDbText
 73
     3
  0
ENDBLK
  5
29A
330
290
100
AcDbEntity
  8
0
100
AcDbBlockEnd
  0
BLOCK
  5
2A7
330
29B
100
AcDbEntity
  8
0
100
AcDbBlockBegin
  2
GDimGGroup15
 70
     0
 71
     0
 10
0.0
 20
0.0
 30
0.0
  3
GDimGGroup15
  1

  0
HATCH
  5
29D
330
29B
100
AcDbEntity
  8
Default
  6
Continuous
 62
     7
 48
25.4
100
AcDbHatch
 10
0.0
 20
0.0
 30
0.0
210
0.0
220
0.0
230
1.0
  2
SOLID
 70
     1
 71
     0
 91
        1
 92
        1
 93
        3
 72
     1
 10
60.39145840392293
 20
226.7894280688472
 11
61.05812510225456
 21
222.7894278788574
 72
     1
 10
61.05812510225456
 20
222.7894278788574
 11
61.72479180058619
 21
226.7894280688472
 72
     1
 10
61.72479180058619
 20
226.7894280688472
 11
60.39145840392293
 21
226.7894280688472
 97
        0
 75
     0
 76
     1
 98
        0
  0
LWPOLYLINE
  5
29E
330
29B
100
AcDbEntity
  8
Default
  6
Continuous
 62
     7
 48
25.4
370
    30
100
AcDbPolyline
 90
        4
 70
     1
 43
0.00035
 10
60.3914584039
 20
226.7894280688
 10
61.0581251023
 20
222.7894278789
 10
61.7247918006
 20
226.7894280688
 10
60.3914584039
 20
226.7894280688
  0
HATCH
  5
29F
330
29B
100
AcDbEntity
  8
Default
  6
Continuous
 62
     7
 48
25.4
100
AcDbHatch
 10
0.0
 20
0.0
 30
0.0
210
0.0
220
0.0
230
1.0
  2
SOLID
 70
     1
 71
     0
 91
        1
 92
        1
 93
        3
 72
     1
 10
60.39145840392293
 20
358.789428284914
 11
61.72479180058619
 21
358.789428284914
 72
     1
 10
61.72479180058619
 20
358.789428284914
 11
61.05812510225456
 21
362.7894284749038
 72
     1
 10
61.05812510225456
 20
362.7894284749038
 11
60.39145840392293
 21
358.789428284914
 97
        0
 75
     0
 76
     1
 98
        0
  0
LWPOLYLINE
  5
2A0
330
29B
100
AcDbEntity
  8
Default
  6
Continuous
 62
     7
 48
25.4
370
    30
100
AcDbPolyline
 90
        4
 70
     1
 43
0.00035
 10
60.3914584039
 20
358.7894282849
 10
61.0581251023
 20
362.7894284749
 10
61.7247918006
 20
358.7894282849
 10
60.3914584039
 20
358.7894282849
  0
LINE
  5
2A1
330
29B
100
AcDbEntity
  8
Default
  6
Continuous
 62
     7
 48
25.4
100
AcDbLine
 10
127.0856397388
 20
222.7894278789
 30
0.0
 11
59.0581250073
 21
222.7894278789
 31
0.0
  0
LINE
  5
2A2
330
29B
100
AcDbEntity
  8
Default
  6
Continuous
 62
     7
 48
25.4
100
AcDbLine
 10
127.0856397388
 20
362.7894278789
 30
0.0
 11
59.0581250073
 21
362.7894278789
 31
0.0
  0
LINE
  5
2A3
330
29B
100
AcDbEntity
  8
Default
  6
Continuous
 62
     7
 48
25.4
100
AcDbLine
 10
61.0581251023
 20
222.7894278789
 30
0.0
 11
61.0581251023
 21
362.7894284749
 31
0.0
  0
TEXT
  5
2A4
330
29B
100
AcDbEntity
  8
Default
  6
Continuous
 62
     7
 48
25.4
100
AcDbText
 10
60.0581251023
 20
287.009260366
 30
0.0
 40
4.0
  1
140
 50
90.0
  7
SEACAD_arial_ttf
 11
56.0581251023
 21
287.009260366
 31
0.0
100
AcDbText
 73
     3
  0
TEXT
  5
2A5
330
29B
100
AcDbEntity
  8
Default
  6
Continuous
 62
     7
 48
25.4
100
AcDbText
 10
60.0581251023
 20
298.8005647139
 30
0.0
 40
4.0
  1
H6
 50
90.0
  7
SEACAD_arial_ttf
 11
56.0581251023
 21
298.8005647139
 31
0.0
100
AcDbText
 73
     3
  0
TEXT
  5
2A6
330
29B
100
AcDbEntity
  8
Default
  6
Continuous
 62
     7
 48
25.4
100
AcDbText
 10
60.0581251023
 20
279.6478568573
 30
0.0
 40
4.0
  1
O
 50
90.0
  7
SEACAD_semeca1_ttf
 11
56.0581251023
 21
279.6478568573
 31
0.0
100
AcDbText
 73
     3
  0
ENDBLK
  5
2A8
330
29B
100
AcDbEntity
  8
0
100
AcDbBlockEnd
  0
BLOCK
  5
2B4
330
2A9
100
AcDbEntity
  8
0
100
AcDbBlockBegin
  2
GDimGGroup16
 70
     0
 71
     0
 10
0.0
 20
0.0
 30
0.0
  3
GDimGGroup16
  1

  0
HATCH
  5
2AB
330
2A9
100
AcDbEntity
  8
Default
  6
Continuous
 62
     7
 48
25.4
100
AcDbHatch
 10
0.0
 20
0.0
 30
0.0
210
0.0
220
0.0
230
1.0
  2
SOLID
 70
     1
 71
     0
 91
        1
 92
        1
 93
        3
 72
     1
 10
41.44960154280837
 20
212.2894280688473
 11
42.11626824114001
 21
208.2894278788575
 72
     1
 10
42.11626824114001
 20
208.2894278788575
 11
42.78293493947164
 21
212.2894280688473
 72
     1
 10
42.78293493947164
 20
212.2894280688473
 11
41.44960154280838
 21
212.2894280688473
 97
        0
 75
     0
 76
     1
 98
        0
  0
LWPOLYLINE
  5
2AC
330
2A9
100
AcDbEntity
  8
Default
  6
Continuous
 62
     7
 48
25.4
370
    30
100
AcDbPolyline
 90
        4
 70
     1
 43
0.00035
 10
41.4496015428
 20
212.2894280688
 10
42.1162682411
 20
208.2894278789
 10
42.7829349395
 20
212.2894280688
 10
41.4496015428
 20
212.2894280688
  0
HATCH
  5
2AD
330
2A9
100
AcDbEntity
  8
Default
  6
Continuous
 62
     7
 48
25.4
100
AcDbHatch
 10
0.0
 20
0.0
 30
0.0
210
0.0
220
0.0
230
1.0
  2
SOLID
 70
     1
 71
     0
 91
        1
 92
        1
 93
        3
 72
     1
 10
41.44960154280837
 20
373.2894274504491
 11
42.78293493947164
 21
373.2894274504491
 72
     1
 10
42.78293493947164
 20
373.2894274504491
 11
42.11626824114001
 21
377.2894276404389
 72
     1
 10
42.11626824114001
 20
377.2894276404389
 11
41.44960154280837
 21
373.2894274504491
 97
        0
 75
     0
 76
     1
 98
        0
  0
LWPOLYLINE
  5
2AE
330
2A9
100
AcDbEntity
  8
Default
  6
Continuous
 62
     7
 48
25.4
370
    30
100
AcDbPolyline
 90
        4
 70
     1
 43
0.00035
 10
41.4496015428
 20
373.2894274504
 10
42.1162682411
 20
377.2894276404
 10
42.7829349395
 20
373.2894274504
 10
41.4496015428
 20
373.2894274504
  0
LINE
  5
2AF
330
2A9
100
AcDbEntity
  8
Default
  6
Continuous
 62
     7
 48
25.4
100
AcDbLine
 10
138.0856397388
 20
208.2894278789
 30
0.0
 11
40.1162681461
 21
208.2894278789
 31
0.0
  0
LINE
  5
2B0
330
2A9
100
AcDbEntity
  8
Default
  6
Continuous
 62
     7
 48
25.4
100
AcDbLine
 10
138.0856397388
 20
377.2894278789
 30
0.0
 11
40.1162681461
 21
377.2894278789
 31
0.0
  0
LINE
  5
2B1
330
2A9
100
AcDbEntity
  8
Default
  6
Continuous
 62
     7
 48
25.4
100
AcDbLine
 10
42.1162682411
 20
208.2894278789
 30
0.0
 11
42.1162682411
 21
377.2894276404
 31
0.0
  0
TEXT
  5
2B2
330
2A9
100
AcDbEntity
  8
Default
  6
Continuous
 62
     7
 48
25.4
100
AcDbText
 10
41.1162682411
 20
291.7744773401
 30
0.0
 40
4.0
  1
169
 50
90.0
  7
SEACAD_arial_ttf
 11
37.1162682411
 21
291.7744773401
 31
0.0
100
AcDbText
 73
     3
  0
TEXT
  5
2B3
330
2A9
100
AcDbEntity
  8
Default
  6
Continuous
 62
     7
 48
25.4
100
AcDbText
 10
41.1162682411
 20
284.4130738313
 30
0.0
 40
4.0
  1
O
 50
90.0
  7
SEACAD_semeca1_ttf
 11
37.1162682411
 21
284.4130738313
 31
0.0
100
AcDbText
 73
     3
  0
ENDBLK
  5
2B5
330
2A9
100
AcDbEntity
  8
0
100
AcDbBlockEnd
  0
BLOCK
  5
2C0
330
2B6
100
AcDbEntity
  8
0
100
AcDbBlockBegin
  2
GDimGGroup17
 70
     0
 71
     0
 10
0.0
 20
0.0
 30
0.0
  3
GDimGGroup17
  1

  0
HATCH
  5
2B8
330
2B6
100
AcDbEntity
  8
Default
  6
Continuous
 62
     7
 48
25.4
100
AcDbHatch
 10
0.0
 20
0.0
 30
0.0
210
0.0
220
0.0
230
1.0
  2
SOLID
 70
     1
 71
     0
 91
        1
 92
        1
 93
        3
 72
     1
 10
315.9666484352031
 20
316.2894280688473
 11
314.6333150385398
 21
316.2894280688473
 72
     1
 10
314.6333150385398
 20
316.2894280688473
 11
315.2999817368714
 21
312.2894278788575
 72
     1
 10
315.2999817368714
 20
312.2894278788575
 11
315.9666484352031
 21
316.2894280688473
 97
        0
 75
     0
 76
     1
 98
        0
  0
LWPOLYLINE
  5
2B9
330
2B6
100
AcDbEntity
  8
Default
  6
Continuous
 62
     7
 48
25.4
370
    30
100
AcDbPolyline
 90
        4
 70
     1
 43
0.00035
 10
315.9666484352
 20
316.2894280688
 10
315.2999817369
 20
312.2894278789
 10
314.6333150385
 20
316.2894280688
 10
315.9666484352
 20
316.2894280688
  0
HATCH
  5
2BA
330
2B6
100
AcDbEntity
  8
Default
  6
Continuous
 62
     7
 48
25.4
100
AcDbHatch
 10
0.0
 20
0.0
 30
0.0
210
0.0
220
0.0
230
1.0
  2
SOLID
 70
     1
 71
     0
 91
        1
 92
        1
 93
        3
 72
     1
 10
315.9666484352031
 20
374.2894273312398
 11
315.2999817368714
 21
378.2894275212296
 72
     1
 10
315.2999817368714
 20
378.2894275212296
 11
314.6333150385398
 21
374.2894273312398
 72
     1
 10
314.6333150385398
 20
374.2894273312398
 11
315.9666484352031
 21
374.2894273312398
 97
        0
 75
     0
 76
     1
 98
        0
  0
LWPOLYLINE
  5
2BB
330
2B6
100
AcDbEntity
  8
Default
  6
Continuous
 62
     7
 48
25.4
370
    30
100
AcDbPolyline
 90
        4
 70
     1
 43
0.00035
 10
315.9666484352
 20
374.2894273312
 10
315.2999817369
 20
378.2894275212
 10
314.6333150385
 20
374.2894273312
 10
315.9666484352
 20
374.2894273312
  0
LINE
  5
2BC
330
2B6
100
AcDbEntity
  8
Default
  6
Continuous
 62
     7
 48
25.4
100
AcDbLine
 10
247.0856397388
 20
312.2894278789
 30
0.0
 11
317.2999818319
 21
312.2894278789
 31
0.0
  0
LINE
  5
2BD
330
2B6
100
AcDbEntity
  8
Default
  6
Continuous
 62
     7
 48
25.4
100
AcDbLine
 10
247.0856395316
 20
378.2894278789
 30
0.0
 11
317.2999818319
 21
378.2894278789
 31
0.0
  0
LINE
  5
2BE
330
2B6
100
AcDbEntity
  8
Default
  6
Continuous
 62
     7
 48
25.4
100
AcDbLine
 10
315.2999817369
 20
312.2894278789
 30
0.0
 11
315.2999817369
 21
378.2894275212
 31
0.0
  0
TEXT
  5
2BF
330
2B6
100
AcDbEntity
  8
Default
  6
Continuous
 62
     7
 48
25.4
100
AcDbText
 10
314.2999817369
 20
342.1589929174
 30
0.0
 40
4.0
  1
66
 50
90.0
  7
SEACAD_arial_ttf
 11
310.2999817369
 21
342.1589929174
 31
0.0
100
AcDbText
 73
     3
  0
ENDBLK
  5
2C1
330
2B6
100
AcDbEntity
  8
0
100
AcDbBlockEnd
  0
BLOCK
  5
2CC
330
2C2
100
AcDbEntity
  8
0
100
AcDbBlockBegin
  2
GDimGGroup18
 70
     0
 71
     0
 10
0.0
 20
0.0
 30
0.0
  3
GDimGGroup18
  1

  0
HATCH
  5
2C4
330
2C2
100
AcDbEntity
  8
Default
  6
Continuous
 62
     7
 48
25.4
100
AcDbHatch
 10
0.0
 20
0.0
 30
0.0
210
0.0
220
0.0
230
1.0
  2
SOLID
 70
     1
 71
     0
 91
        1
 92
        1
 93
        3
 72
     1
 10
291.5526939686217
 20
374.2894276888677
 11
290.88602727029
 21
378.2894278788575
 72
     1
 10
290.88602727029
 20
378.2894278788575
 11
290.2193605719584
 21
374.2894276888677
 72
     1
 10
290.2193605719584
 20
374.2894276888677
 11
291.5526939686217
 21
374.2894276888677
 97
        0
 75
     0
 76
     1
 98
        0
  0
LWPOLYLINE
  5
2C5
330
2C2
100
AcDbEntity
  8
Default
  6
Continuous
 62
     7
 48
25.4
370
    30
100
AcDbPolyline
 90
        4
 70
     1
 43
0.00035
 10
291.5526939686
 20
374.2894276889
 10
290.8860272703
 20
378.2894278789
 10
290.219360572
 20
374.2894276889
 10
291.5526939686
 20
374.2894276889
  0
HATCH
  5
2C6
330
2C2
100
AcDbEntity
  8
Default
  6
Continuous
 62
     7
 48
25.4
100
AcDbHatch
 10
0.0
 20
0.0
 30
0.0
210
0.0
220
0.0
230
1.0
  2
SOLID
 70
     1
 71
     0
 91
        1
 92
        1
 93
        3
 72
     1
 10
291.5526939686217
 20
370.2894279645392
 11
290.2193605719584
 21
370.2894279645392
 72
     1
 10
290.2193605719584
 20
370.2894279645392
 11
290.88602727029
 21
366.2894277745494
 72
     1
 10
290.88602727029
 20
366.2894277745494
 11
291.5526939686217
 21
370.2894279645392
 97
        0
 75
     0
 76
     1
 98
        0
  0
LWPOLYLINE
  5
2C7
330
2C2
100
AcDbEntity
  8
Default
  6
Continuous
 62
     7
 48
25.4
370
    30
100
AcDbPolyline
 90
        4
 70
     1
 43
0.00035
 10
291.5526939686
 20
370.2894279645
 10
290.8860272703
 20
366.2894277745
 10
290.219360572
 20
370.2894279645
 10
291.5526939686
 20
370.2894279645
  0
LINE
  5
2C8
330
2C2
100
AcDbEntity
  8
Default
  6
Continuous
 62
     7
 48
25.4
100
AcDbLine
 10
247.0856397388
 20
378.2894278789
 30
0.0
 11
292.8860273653
 21
378.2894278789
 31
0.0
  0
LINE
  5
2C9
330
2C2
100
AcDbEntity
  8
Default
  6
Continuous
 62
     7
 48
25.4
100
AcDbLine
 10
256.100150559
 20
366.2894278789
 30
0.0
 11
292.8860273653
 21
366.2894278789
 31
0.0
  0
LINE
  5
2CA
330
2C2
100
AcDbEntity
  8
Default
  6
Continuous
 62
     7
 48
25.4
100
AcDbLine
 10
290.8860272703
 20
378.2894278789
 30
0.0
 11
290.8860272703
 21
366.2894277745
 31
0.0
  0
TEXT
  5
2CB
330
2C2
100
AcDbEntity
  8
Default
  6
Continuous
 62
     7
 48
25.4
100
AcDbText
 10
289.8860272703
 20
369.1589930441
 30
0.0
 40
4.0
  1
12
 50
90.0
  7
SEACAD_arial_ttf
 11
285.8860272703
 21
369.1589930441
 31
0.0
100
AcDbText
 73
     3
  0
ENDBLK
  5
2CD
330
2C2
100
AcDbEntity
  8
0
100
AcDbBlockEnd
  0
BLOCK
  5
2D8
330
2CE
100
AcDbEntity
  8
0
100
AcDbBlockBegin
  2
GDimGGroup19
 70
     0
 71
     0
 10
0.0
 20
0.0
 30
0.0
  3
GDimGGroup19
  1

  0
HATCH
  5
2D0
330
2CE
100
AcDbEntity
  8
Default
  6
Continuous
 62
     7
 48
25.4
100
AcDbHatch
 10
0.0
 20
0.0
 30
0.0
210
0.0
220
0.0
230
1.0
  2
SOLID
 70
     1
 71
     0
 91
        1
 92
        1
 93
        3
 72
     1
 10
291.5526951705532
 20
362.2894276888677
 11
290.8860284722215
 21
366.2894278788575
 72
     1
 10
290.8860284722215
 20
366.2894278788575
 11
290.2193617738899
 21
362.2894276888677
 72
     1
 10
290.2193617738899
 20
362.2894276888677
 11
291.5526951705532
 21
362.2894276888677
 97
        0
 75
     0
 76
     1
 98
        0
  0
LWPOLYLINE
  5
2D1
330
2CE
100
AcDbEntity
  8
Default
  6
Continuous
 62
     7
 48
25.4
370
    30
100
AcDbPolyline
 90
        4
 70
     1
 43
0.00035
 10
291.5526951706
 20
362.2894276889
 10
290.8860284722
 20
366.2894278789
 10
290.2193617739
 20
362.2894276889
 10
291.5526951706
 20
362.2894276889
  0
HATCH
  5
2D2
330
2CE
100
AcDbEntity
  8
Default
  6
Continuous
 62
     7
 48
25.4
100
AcDbHatch
 10
0.0
 20
0.0
 30
0.0
210
0.0
220
0.0
230
1.0
  2
SOLID
 70
     1
 71
     0
 91
        1
 92
        1
 93
        3
 72
     1
 10
291.5526951705532
 20
350.2894285158822
 11
290.2193617738899
 21
350.2894285158822
 72
     1
 10
290.2193617738899
 20
350.2894285158822
 11
290.8860284722215
 21
346.2894283258924
 72
     1
 10
290.8860284722215
 20
346.2894283258924
 11
291.5526951705532
 21
350.2894285158822
 97
        0
 75
     0
 76
     1
 98
        0
  0
LWPOLYLINE
  5
2D3
330
2CE
100
AcDbEntity
  8
Default
  6
Continuous
 62
     7
 48
25.4
370
    30
100
AcDbPolyline
 90
        4
 70
     1
 43
0.00035
 10
291.5526951706
 20
350.2894285159
 10
290.8860284722
 20
346.2894283259
 10
290.2193617739
 20
350.2894285159
 10
291.5526951706
 20
350.2894285159
  0
LINE
  5
2D4
330
2CE
100
AcDbEntity
  8
Default
  6
Continuous
 62
     7
 48
25.4
100
AcDbLine
 10
256.100150559
 20
366.2894278789
 30
0.0
 11
292.8860285672
 21
366.2894278789
 31
0.0
  0
LINE
  5
2D5
330
2CE
100
AcDbEntity
  8
Default
  6
Continuous
 62
     7
 48
25.4
100
AcDbLine
 10
256.100150559
 20
346.2894278789
 30
0.0
 11
292.8860285672
 21
346.2894278789
 31
0.0
  0
LINE
  5
2D6
330
2CE
100
AcDbEntity
  8
Default
  6
Continuous
 62
     7
 48
25.4
100
AcDbLine
 10
290.8860284722
 20
366.2894278789
 30
0.0
 11
290.8860284722
 21
346.2894283259
 31
0.0
  0
TEXT
  5
2D7
330
2CE
100
AcDbEntity
  8
Default
  6
Continuous
 62
     7
 48
25.4
100
AcDbText
 10
289.8860284722
 20
353.1589933198
 30
0.0
 40
4.0
  1
20
 50
90.0
  7
SEACAD_arial_ttf
 11
285.8860284722
 21
353.1589933198
 31
0.0
100
AcDbText
 73
     3
  0
ENDBLK
  5
2D9
330
2CE
100
AcDbEntity
  8
0
100
AcDbBlockEnd
  0
BLOCK
  5
2E6
330
2DA
100
AcDbEntity
  8
0
100
AcDbBlockBegin
  2
GDimGGroup20
 70
     0
 71
     0
 10
0.0
 20
0.0
 30
0.0
  3
GDimGGroup20
  1

  0
HATCH
  5
2DC
330
2DA
100
AcDbEntity
  8
Default
  6
Continuous
 62
     7
 48
25.4
100
AcDbHatch
 10
0.0
 20
0.0
 30
0.0
210
0.0
220
0.0
230
1.0
  2
SOLID
 70
     1
 71
     0
 91
        1
 92
        1
 93
        3
 72
     1
 10
291.5526944321418
 20
297.8475394870386
 11
290.2193610354785
 21
297.8475394870386
 72
     1
 10
290.2193610354785
 20
297.8475394870386
 11
290.8860277338101
 21
293.8475392970487
 72
     1
 10
290.8860277338101
 20
293.8475392970487
 11
291.5526944321418
 21
297.8475394870386
 97
        0
 75
     0
 76
     1
 98
        0
  0
LWPOLYLINE
  5
2DD
330
2DA
100
AcDbEntity
  8
Default
  6
Continuous
 62
     7
 48
25.4
370
    30
100
AcDbPolyline
 90
        4
 70
     1
 43
0.00035
 10
291.5526944321
 20
297.847539487
 10
290.8860277338
 20
293.847539297
 10
290.2193610355
 20
297.847539487
 10
291.5526944321
 20
297.847539487
  0
HATCH
  5
2DE
330
2DA
100
AcDbEntity
  8
Default
  6
Continuous
 62
     7
 48
25.4
100
AcDbHatch
 10
0.0
 20
0.0
 30
0.0
210
0.0
220
0.0
230
1.0
  2
SOLID
 70
     1
 71
     0
 91
        1
 92
        1
 93
        3
 72
     1
 10
291.5526944321418
 20
321.8475406269774
 11
290.8860277338101
 21
325.8475408169672
 72
     1
 10
290.8860277338101
 20
325.8475408169672
 11
290.2193610354785
 21
321.8475406269774
 72
     1
 10
290.2193610354785
 20
321.8475406269774
 11
291.5526944321418
 21
321.8475406269774
 97
        0
 75
     0
 76
     1
 98
        0
  0
LWPOLYLINE
  5
2DF
330
2DA
100
AcDbEntity
  8
Default
  6
Continuous
 62
     7
 48
25.4
370
    30
100
AcDbPolyline
 90
        4
 70
     1
 43
0.00035
 10
291.5526944321
 20
321.847540627
 10
290.8860277338
 20
325.847540817
 10
290.2193610355
 20
321.847540627
 10
291.5526944321
 20
321.847540627
  0
LINE
  5
2E0
330
2DA
100
AcDbEntity
  8
Default
  6
Continuous
 62
     7
 48
25.4
100
AcDbLine
 10
271.3192608161
 20
293.847539297
 30
0.0
 11
292.8860278288
 21
293.847539297
 31
0.0
  0
LINE
  5
2E1
330
2DA
100
AcDbEntity
  8
Default
  6
Continuous
 62
     7
 48
25.4
100
AcDbLine
 10
220.0185707596
 20
325.847539297
 30
0.0
 11
292.8860278288
 21
325.847539297
 31
0.0
  0
LINE
  5
2E2
330
2DA
100
AcDbEntity
  8
Default
  6
Continuous
 62
     7
 48
25.4
100
AcDbLine
 10
290.8860277338
 20
262.7993978772
 30
0.0
 11
290.8860277338
 21
325.847540817
 31
0.0
  0
TEXT
  5
2E3
330
2DA
100
AcDbEntity
  8
Default
  6
Continuous
 62
     7
 48
25.4
100
AcDbText
 10
283.8860277338
 20
278.9124415206
 30
0.0
 40
4.0
  1
32
 50
90.0
  7
SEACAD_arial_ttf
 11
279.8860277338
 21
278.9124415206
 31
0.0
100
AcDbText
 73
     3
  0
TEXT
  5
2E4
330
2DA
100
AcDbEntity
  8
Default
  6
Continuous
 62
     7
 48
25.4
100
AcDbText
 10
283.8860277338
 20
264.1993980423
 30
0.0
 40
4.0
  1
MAX
 50
90.0
  7
SEACAD_arial_ttf
 11
279.8860277338
 21
264.1993980423
 31
0.0
100
AcDbText
 73
     3
  0
TEXT
  5
2E5
330
2DA
100
AcDbEntity
  8
Default
  6
Continuous
 62
     7
 48
25.4
100
AcDbText
 10
289.8860277338
 20
264.1993980423
 30
0.0
 40
4.0
  1
MIN 29.25
 50
90.0
  7
SEACAD_arial_ttf
 11
285.8860277338
 21
264.1993980423
 31
0.0
100
AcDbText
 73
     3
  0
ENDBLK
  5
2E7
330
2DA
100
AcDbEntity
  8
0
100
AcDbBlockEnd
  0
BLOCK
  5
2F3
330
2E8
100
AcDbEntity
  8
0
100
AcDbBlockBegin
  2
GDimGGroup21
 70
     0
 71
     0
 10
0.0
 20
0.0
 30
0.0
  3
GDimGGroup21
  1

  0
HATCH
  5
2EA
330
2E8
100
AcDbEntity
  8
Default
  6
Continuous
 62
     7
 48
25.4
100
AcDbHatch
 10
0.0
 20
0.0
 30
0.0
210
0.0
220
0.0
230
1.0
  2
SOLID
 70
     1
 71
     0
 91
        1
 92
        1
 93
        3
 72
     1
 10
149.0856395487813
 20
305.8961306281644
 11
149.0856395487813
 21
304.5627972315011
 72
     1
 10
149.0856395487813
 20
304.5627972315011
 11
153.0856397387711
 21
305.2294639298328
 72
     1
 10
153.0856397387711
 20
305.2294639298328
 11
149.0856395487813
 21
305.8961306281644
 97
        0
 75
     0
 76
     1
 98
        0
  0
LWPOLYLINE
  5
2EB
330
2E8
100
AcDbEntity
  8
Default
  6
Continuous
 62
     7
 48
25.4
370
    30
100
AcDbPolyline
 90
        4
 70
     1
 43
0.00035
 10
149.0856395488
 20
305.8961306282
 10
153.0856397388
 20
305.2294639298
 10
149.0856395488
 20
304.5627972315
 10
149.0856395488
 20
305.8961306282
  0
HATCH
  5
2EC
330
2E8
100
AcDbEntity
  8
Default
  6
Continuous
 62
     7
 48
25.4
100
AcDbHatch
 10
0.0
 20
0.0
 30
0.0
210
0.0
220
0.0
230
1.0
  2
SOLID
 70
     1
 71
     0
 91
        1
 92
        1
 93
        3
 72
     1
 10
131.0856399287609
 20
305.8961306281644
 11
127.0856397387711
 21
305.2294639298328
 72
     1
 10
127.0856397387711
 20
305.2294639298328
 11
131.0856399287609
 21
304.5627972315011
 72
     1
 10
131.0856399287609
 20
304.5627972315011
 11
131.0856399287609
 21
305.8961306281644
 97
        0
 75
     0
 76
     1
 98
        0
  0
LWPOLYLINE
  5
2ED
330
2E8
100
AcDbEntity
  8
Default
  6
Continuous
 62
     7
 48
25.4
370
    30
100
AcDbPolyline
 90
        4
 70
     1
 43
0.00035
 10
131.0856399288
 20
305.8961306282
 10
127.0856397388
 20
305.2294639298
 10
131.0856399288
 20
304.5627972315
 10
131.0856399288
 20
305.8961306282
  0
LINE
  5
2EE
330
2E8
100
AcDbEntity
  8
Default
  6
Continuous
 62
     7
 48
25.4
100
AcDbLine
 10
153.0856397388
 20
292.7894278789
 30
0.0
 11
153.0856397388
 21
307.2294640248
 31
0.0
  0
LINE
  5
2EF
330
2E8
100
AcDbEntity
  8
Default
  6
Continuous
 62
     7
 48
25.4
100
AcDbLine
 10
153.0856397388
 20
305.2294639298
 30
0.0
 11
102.4743039546
 21
305.2294639298
 31
0.0
  0
TEXT
  5
2F0
330
2E8
100
AcDbEntity
  8
Default
  6
Continuous
 62
     7
 48
25.4
100
AcDbText
 10
118.5873467298
 20
312.2294639298
 30
0.0
 40
4.0
  1
26
  7
SEACAD_arial_ttf
 11
118.5873467298
 21
316.2294639298
 31
0.0
100
AcDbText
 73
     3
  0
TEXT
  5
2F1
330
2E8
100
AcDbEntity
  8
Default
  6
Continuous
 62
     7
 48
25.4
100
AcDbText
 10
103.8743032515
 20
312.2294639298
 30
0.0
 40
4.0
  1
MAX
  7
SEACAD_arial_ttf
 11
103.8743032515
 21
316.2294639298
 31
0.0
100
AcDbText
 73
     3
  0
TEXT
  5
2F2
330
2E8
100
AcDbEntity
  8
Default
  6
Continuous
 62
     7
 48
25.4
100
AcDbText
 10
103.8743032515
 20
306.2294639298
 30
0.0
 40
4.0
  1
MIN 14
  7
SEACAD_arial_ttf
 11
103.8743032515
 21
310.2294639298
 31
0.0
100
AcDbText
 73
     3
  0
ENDBLK
  5
2F4
330
2E8
100
AcDbEntity
  8
0
100
AcDbBlockEnd
  0
BLOCK
  5
2FD
330
2F5
100
AcDbEntity
  8
0
100
AcDbBlockBegin
  2
GDimGGroup22
 70
     0
 71
     0
 10
0.0
 20
0.0
 30
0.0
  3
GDimGGroup22
  1

  0
HATCH
  5
2F7
330
2F5
100
AcDbEntity
  8
Default
  6
Continuous
 62
     7
 48
25.4
100
AcDbHatch
 10
0.0
 20
0.0
 30
0.0
210
0.0
220
0.0
230
1.0
  2
SOLID
 70
     1
 71
     0
 91
        1
 92
        1
 93
        3
 72
     1
 10
157.085639928761
 20
274.9003342904408
 11
153.0856397387712
 21
274.2336675921091
 72
     1
 10
153.0856397387712
 20
274.2336675921091
 11
157.085639928761
 21
273.5670008937775
 72
     1
 10
157.085639928761
 20
273.5670008937775
 11
157.085639928761
 21
274.9003342904408
 97
        0
 75
     0
 76
     1
 98
        0
  0
LWPOLYLINE
  5
2F8
330
2F5
100
AcDbEntity
  8
Default
  6
Continuous
 62
     7
 48
25.4
370
    30
100
AcDbPolyline
 90
        4
 70
     1
 43
0.00035
 10
157.0856399288
 20
274.9003342904
 10
153.0856397388
 20
274.2336675921
 10
157.0856399288
 20
273.5670008938
 10
157.0856399288
 20
274.9003342904
  0
HATCH
  5
2F9
330
2F5
100
AcDbEntity
  8
Default
  6
Continuous
 62
     7
 48
25.4
100
AcDbHatch
 10
0.0
 20
0.0
 30
0.0
210
0.0
220
0.0
230
1.0
  2
SOLID
 70
     1
 71
     0
 91
        1
 92
        1
 93
        3
 72
     1
 10
168.0856389378338
 20
274.9003342904408
 11
168.0856389378338
 21
273.5670008937775
 72
     1
 10
168.0856389378338
 20
273.5670008937775
 11
172.0856391278236
 21
274.2336675921091
 72
     1
 10
172.0856391278236
 20
274.2336675921091
 11
168.0856389378338
 21
274.9003342904408
 97
        0
 75
     0
 76
     1
 98
        0
  0
LWPOLYLINE
  5
2FA
330
2F5
100
AcDbEntity
  8
Default
  6
Continuous
 62
     7
 48
25.4
370
    30
100
AcDbPolyline
 90
        4
 70
     1
 43
0.00035
 10
168.0856389378
 20
274.9003342904
 10
172.0856391278
 20
274.2336675921
 10
168.0856389378
 20
273.5670008938
 10
168.0856389378
 20
274.9003342904
  0
LINE
  5
2FB
330
2F5
100
AcDbEntity
  8
Default
  6
Continuous
 62
     7
 48
25.4
100
AcDbLine
 10
115.7953162131
 20
274.2336675921
 30
0.0
 11
172.0856391278
 21
274.2336675921
 31
0.0
  0
TEXT
  5
2FC
330
2F5
100
AcDbEntity
  8
Default
  6
Continuous
 62
     7
 48
25.4
100
AcDbText
 10
117.1953156413
 20
275.2336675921
 30
0.0
 40
4.0
  1
19
  7
SEACAD_arial_ttf
 11
117.1953156413
 21
279.2336675921
 31
0.0
100
AcDbText
 73
     3
  0
ENDBLK
  5
2FE
330
2F5
100
AcDbEntity
  8
0
100
AcDbBlockEnd
  0
BLOCK
  5
309
330
2FF
100
AcDbEntity
  8
0
100
AcDbBlockBegin
  2
GDimGGroup23
 70
     0
 71
     0
 10
0.0
 20
0.0
 30
0.0
  3
GDimGGroup23
  1

  0
HATCH
  5
301
330
2FF
100
AcDbEntity
  8
Default
  6
Continuous
 62
     7
 48
25.4
100
AcDbHatch
 10
0.0
 20
0.0
 30
0.0
210
0.0
220
0.0
230
1.0
  2
SOLID
 70
     1
 71
     0
 91
        1
 92
        1
 93
        3
 72
     1
 10
222.0862055829597
 20
397.170116328711
 11
218.0862053929699
 21
396.5034496303793
 72
     1
 10
218.0862053929699
 20
396.5034496303793
 11
222.0862055829597
 21
395.8367829320476
 72
     1
 10
222.0862055829597
 20
395.8367829320476
 11
222.0862055829597
 21
397.170116328711
 97
        0
 75
     0
 76
     1
 98
        0
  0
LWPOLYLINE
  5
302
330
2FF
100
AcDbEntity
  8
Default
  6
Continuous
 62
     7
 48
25.4
370
    30
100
AcDbPolyline
 90
        4
 70
     1
 43
0.00035
 10
222.086205583
 20
397.1701163287
 10
218.086205393
 20
396.5034496304
 10
222.086205583
 20
395.836782932
 10
222.086205583
 20
397.1701163287
  0
HATCH
  5
303
330
2FF
100
AcDbEntity
  8
Default
  6
Continuous
 62
     7
 48
25.4
100
AcDbHatch
 10
0.0
 20
0.0
 30
0.0
210
0.0
220
0.0
230
1.0
  2
SOLID
 70
     1
 71
     0
 91
        1
 92
        1
 93
        3
 72
     1
 10
243.0856399870348
 20
397.170116328711
 11
243.0856399870348
 21
395.8367829320476
 72
     1
 10
243.0856399870348
 20
395.8367829320476
 11
247.0856401770246
 21
396.5034496303793
 72
     1
 10
247.0856401770246
 20
396.5034496303793
 11
243.0856399870348
 21
397.170116328711
 97
        0
 75
     0
 76
     1
 98
        0
  0
LWPOLYLINE
  5
304
330
2FF
100
AcDbEntity
  8
Default
  6
Continuous
 62
     7
 48
25.4
370
    30
100
AcDbPolyline
 90
        4
 70
     1
 43
0.00035
 10
243.085639987
 20
397.1701163287
 10
247.085640177
 20
396.5034496304
 10
243.085639987
 20
395.836782932
 10
243.085639987
 20
397.1701163287
  0
LINE
  5
305
330
2FF
100
AcDbEntity
  8
Default
  6
Continuous
 62
     7
 48
25.4
100
AcDbLine
 10
218.086205393
 20
376.2877315547
 30
0.0
 11
218.086205393
 21
398.5034497254
 31
0.0
  0
LINE
  5
306
330
2FF
100
AcDbEntity
  8
Default
  6
Continuous
 62
     7
 48
25.4
100
AcDbLine
 10
247.0856397388
 20
378.2894278789
 30
0.0
 11
247.0856397388
 21
398.5034497254
 31
0.0
  0
LINE
  5
307
330
2FF
100
AcDbEntity
  8
Default
  6
Continuous
 62
     7
 48
25.4
100
AcDbLine
 10
218.086205393
 20
396.5034496304
 30
0.0
 11
247.085640177
 21
396.5034496304
 31
0.0
  0
TEXT
  5
308
330
2FF
100
AcDbEntity
  8
Default
  6
Continuous
 62
     7
 48
25.4
100
AcDbText
 10
229.4554880024
 20
397.5034496304
 30
0.0
 40
4.0
  1
29
  7
SEACAD_arial_ttf
 11
229.4554880024
 21
401.5034496304
 31
0.0
100
AcDbText
 73
     3
  0
ENDBLK
  5
30A
330
2FF
100
AcDbEntity
  8
0
100
AcDbBlockEnd
  0
BLOCK
  5
317
330
30B
100
AcDbEntity
  8
0
100
AcDbBlockBegin
  2
GDimGGroup24
 70
     0
 71
     0
 10
0.0
 20
0.0
 30
0.0
  3
GDimGGroup24
  1

  0
HATCH
  5
30D
330
30B
100
AcDbEntity
  8
Default
  6
Continuous
 62
     7
 48
25.4
100
AcDbHatch
 10
0.0
 20
0.0
 30
0.0
210
0.0
220
0.0
230
1.0
  2
SOLID
 70
     1
 71
     0
 91
        1
 92
        1
 93
        3
 72
     1
 10
275.13641435465
 20
329.8475394870386
 11
273.8030809579867
 21
329.8475394870386
 72
     1
 10
273.8030809579867
 20
329.8475394870386
 11
274.4697476563183
 21
325.8475392970487
 72
     1
 10
274.4697476563183
 20
325.8475392970487
 11
275.13641435465
 21
329.8475394870386
 97
        0
 75
     0
 76
     1
 98
        0
  0
LWPOLYLINE
  5
30E
330
30B
100
AcDbEntity
  8
Default
  6
Continuous
 62
     7
 48
25.4
370
    30
100
AcDbPolyline
 90
        4
 70
     1
 43
0.00035
 10
275.1364143546
 20
329.847539487
 10
274.4697476563
 20
325.847539297
 10
273.803080958
 20
329.847539487
 10
275.1364143546
 20
329.847539487
  0
HATCH
  5
30F
330
30B
100
AcDbEntity
  8
Default
  6
Continuous
 62
     7
 48
25.4
100
AcDbHatch
 10
0.0
 20
0.0
 30
0.0
210
0.0
220
0.0
230
1.0
  2
SOLID
 70
     1
 71
     0
 91
        1
 92
        1
 93
        3
 72
     1
 10
275.13641435465
 20
342.2894270072922
 11
274.4697476563183
 21
346.289427197282
 72
     1
 10
274.4697476563183
 20
346.289427197282
 11
273.8030809579867
 21
342.2894270072922
 72
     1
 10
273.8030809579867
 20
342.2894270072922
 11
275.13641435465
 21
342.2894270072922
 97
        0
 75
     0
 76
     1
 98
        0
  0
LWPOLYLINE
  5
310
330
30B
100
AcDbEntity
  8
Default
  6
Continuous
 62
     7
 48
25.4
370
    30
100
AcDbPolyline
 90
        4
 70
     1
 43
0.00035
 10
275.1364143546
 20
342.2894270073
 10
274.4697476563
 20
346.2894271973
 10
273.803080958
 20
342.2894270073
 10
275.1364143546
 20
342.2894270073
  0
LINE
  5
311
330
30B
100
AcDbEntity
  8
Default
  6
Continuous
 62
     7
 48
25.4
100
AcDbLine
 10
220.0185707596
 20
325.847539297
 30
0.0
 11
276.4697477513
 21
325.847539297
 31
0.0
  0
LINE
  5
312
330
30B
100
AcDbEntity
  8
Default
  6
Continuous
 62
     7
 48
25.4
100
AcDbLine
 10
256.1001518881
 20
346.2894278789
 30
0.0
 11
276.4697477513
 21
346.2894278789
 31
0.0
  0
LINE
  5
313
330
30B
100
AcDbEntity
  8
Default
  6
Continuous
 62
     7
 48
25.4
100
AcDbLine
 10
274.4697476563
 20
260.1086079988
 30
0.0
 11
274.4697476563
 21
346.2894271973
 31
0.0
  0
TEXT
  5
314
330
30B
100
AcDbEntity
  8
Default
  6
Continuous
 62
     7
 48
25.4
100
AcDbText
 10
267.4697476563
 20
276.2216536765
 30
0.0
 40
4.0
  1
22.75
 50
90.0
  7
SEACAD_arial_ttf
 11
263.4697476563
 21
276.2216536765
 31
0.0
100
AcDbText
 73
     3
  0
TEXT
  5
315
330
30B
100
AcDbEntity
  8
Default
  6
Continuous
 62
     7
 48
25.4
100
AcDbText
 10
267.4697476563
 20
261.5086101982
 30
0.0
 40
4.0
  1
MAX
 50
90.0
  7
SEACAD_arial_ttf
 11
263.4697476563
 21
261.5086101982
 31
0.0
100
AcDbText
 73
     3
  0
TEXT
  5
316
330
30B
100
AcDbEntity
  8
Default
  6
Continuous
 62
     7
 48
25.4
100
AcDbText
 10
273.4697476563
 20
261.5086101982
 30
0.0
 40
4.0
  1
MIN 9.25
 50
90.0
  7
SEACAD_arial_ttf
 11
269.4697476563
 21
261.5086101982
 31
0.0
100
AcDbText
 73
     3
  0
ENDBLK
  5
318
330
30B
100
AcDbEntity
  8
0
100
AcDbBlockEnd
  0
BLOCK
  5
325
330
319
100
AcDbEntity
  8
0
100
AcDbBlockBegin
  2
GDimGGroup25
 70
     0
 71
     0
 10
0.0
 20
0.0
 30
0.0
  3
GDimGGroup25
  1

  0
HATCH
  5
31B
330
319
100
AcDbEntity
  8
Default
  6
Continuous
 62
     7
 48
25.4
100
AcDbHatch
 10
0.0
 20
0.0
 30
0.0
210
0.0
220
0.0
230
1.0
  2
SOLID
 70
     1
 71
     0
 91
        1
 92
        1
 93
        3
 72
     1
 10
80.32979715409405
 20
344.9233520663967
 11
80.33189434423582
 21
340.8681773958829
 72
     1
 10
80.33189434423582
 20
340.8681773958829
 11
81.64510230075483
 21
344.7048336053338
 72
     1
 10
81.64510230075483
 20
344.7048336053338
 11
80.32979715409404
 21
344.9233520663967
 97
        0
 75
     0
 76
     1
 98
        0
  0
LWPOLYLINE
  5
31C
330
319
100
AcDbEntity
  8
Default
  6
Continuous
 62
     7
 48
25.4
370
    30
100
AcDbPolyline
 90
        4
 70
     1
 43
0.00035
 10
80.3297971541
 20
344.9233520664
 10
80.3318943442
 20
340.8681773959
 10
81.6451023008
 20
344.7048336053
 10
80.3297971541
 20
344.9233520664
  0
HATCH
  5
31D
330
319
100
AcDbEntity
  8
Default
  6
Continuous
 62
     7
 48
25.4
100
AcDbHatch
 10
0.0
 20
0.0
 30
0.0
210
0.0
220
0.0
230
1.0
  2
SOLID
 70
     1
 71
     0
 91
        1
 92
        1
 93
        3
 72
     1
 10
80.81663061520841
 20
331.1594411514577
 11
79.98078187677542
 21
335.1275392970487
 72
     1
 10
79.98078187677542
 20
335.1275392970488
 11
79.48449885239872
 21
331.1028468657817
 72
     1
 10
79.48449885239872
 20
331.1028468657817
 11
80.81663061520841
 21
331.1594411514577
 97
        0
 75
     0
 76
     1
 98
        0
  0
LWPOLYLINE
  5
31E
330
319
100
AcDbEntity
  8
Default
  6
Continuous
 62
     7
 48
25.4
370
    30
100
AcDbPolyline
 90
        4
 70
     1
 43
0.00035
 10
80.8166306152
 20
331.1594411515
 10
79.9807818768
 20
335.127539297
 10
79.4844988524
 20
331.1028468658
 10
80.8166306152
 20
331.1594411515
  0
LINE
  5
31F
330
319
100
AcDbEntity
  8
Default
  6
Continuous
 62
     7
 48
25.4
100
AcDbLine
 10
140.14532451
 20
333.5240116369
 30
0.0
 11
78.3468017156
 21
341.1119161226
 31
0.0
  0
LINE
  5
320
330
319
100
AcDbEntity
  8
Default
  6
Continuous
 62
     7
 48
25.4
100
AcDbLine
 10
127.0856397388
 20
335.127539297
 30
0.0
 11
77.9807815489
 21
335.127539297
 31
0.0
  0
ARC
  5
321
330
319
100
AcDbEntity
  8
Default
  6
Continuous
 62
     7
 48
25.4
100
AcDbCircle
 10
127.0856397388
 20
335.127539297
 30
0.0
 40
47.10485786199548
100
AcDbArc
 50
163.2692361027
 51
180.0000000525
  0
ARC
  5
322
330
319
100
AcDbEntity
  8
Default
  6
Continuous
 62
     7
 48
25.4
100
AcDbCircle
 10
127.0856397388
 20
335.127539297
 30
0.0
 40
47.10485786199436
100
AcDbArc
 50
180.0
 51
189.7307638973
  0
TEXT
  5
323
330
319
100
AcDbEntity
  8
Default
  6
Continuous
 62
     7
 48
25.4
100
AcDbText
 10
78.4409108911
 20
327.7704630408
 30
0.0
 40
4.0
  1
7°
 50
86.5
  7
SEACAD_arial_ttf
 11
74.4483716974
 21
328.0146571989
 31
0.0
100
AcDbText
 73
     3
  0
TEXT
  5
324
330
319
100
AcDbEntity
  8
Default
  6
Continuous
 62
     7
 48
25.4
100
AcDbText
 10
78.9409780584
 20
335.9464889548
 30
0.0
 40
4.0
  1
7'30"
 50
86.5
  7
SEACAD_arial_ttf
 11
74.9484388647
 21
336.1906831129
 31
0.0
100
AcDbText
 73
     3
  0
ENDBLK
  5
326
330
319
100
AcDbEntity
  8
0
100
AcDbBlockEnd
  0
BLOCK
  5
3C5
330
327
100
AcDbEntity
  8
0
100
AcDbBlockBegin
  2
SE2
 70
     0
 71
     0
 10
0.0
 20
0.0
 30
0.0
  3
SE2
  1

  0
LINE
  5
32A
330
327
100
AcDbEntity
  8
DV3_Default
  6
Continuous
 62
     7
 48
25.4
100
AcDbLine
 10
408.7179722328
 20
143.7845490664
 30
0.0
 11
268.7179722328
 21
143.7845490664
 31
0.0
  0
LINE
  5
32B
330
327
100
AcDbEntity
  8
DV3_Default
  6
Continuous
 62
     7
 48
25.4
100
AcDbLine
 10
408.7179722328
 20
143.7845490664
 30
0.0
 11
408.7179722328
 21
36.6845490664
 31
0.0
  0
LINE
  5
32C
330
327
100
AcDbEntity
  8
DV3_Default
  6
Continuous
 62
     7
 48
25.4
100
AcDbLine
 10
408.7179722328
 20
36.6845490664
 30
0.0
 11
268.7179722328
 21
36.6845490664
 31
0.0
  0
LINE
  5
32D
330
327
100
AcDbEntity
  8
DV3_Default
  6
Continuous
 62
     7
 48
25.4
100
AcDbLine
 10
268.7179722328
 20
36.6845490664
 30
0.0
 11
268.7179722328
 21
143.7845490664
 31
0.0
  0
TEXT
  5
32E
330
327
100
AcDbEntity
  8
DV3_Default
  6
Continuous
 62
     7
 48
25.4
100
AcDbText
 10
267.0779477658
 20
31.0639171415
 30
0.0
 40
3.5
  1
0
  7
SEACAD_arial_ttf
 11
267.0779477658
 21
34.5639171415
 31
0.0
100
AcDbText
 73
     3
  0
TEXT
  5
32F
330
327
100
AcDbEntity
  8
DV3_Default
  6
Continuous
 62
     7
 48
25.4
100
AcDbText
 10
286.7834296878
 20
30.8715051982
 30
0.0
 40
3.5
  1
1000
  7
SEACAD_arial_ttf
 11
286.7834296878
 21
34.3715051982
 31
0.0
100
AcDbText
 73
     3
  0
TEXT
  5
330
330
327
100
AcDbEntity
  8
DV3_Default
  6
Continuous
 62
     7
 48
25.4
100
AcDbText
 10
310.6424499233
 20
31.294868213
 30
0.0
 40
3.5
  1
2000
  7
SEACAD_arial_ttf
 11
310.6424499233
 21
34.794868213
 31
0.0
100
AcDbText
 73
     3
  0
TEXT
  5
331
330
327
100
AcDbEntity
  8
DV3_Default
  6
Continuous
 62
     7
 48
25.4
100
AcDbText
 10
333.6765417816
 20
31.1128608945
 30
0.0
 40
3.5
  1
3000
  7
SEACAD_arial_ttf
 11
333.6765417816
 21
34.6128608945
 31
0.0
100
AcDbText
 73
     3
  0
TEXT
  5
332
330
327
100
AcDbEntity
  8
DV3_Default
  6
Continuous
 62
     7
 48
25.4
100
AcDbText
 10
356.9897425179
 20
31.2496221089
 30
0.0
 40
3.5
  1
4000
  7
SEACAD_arial_ttf
 11
356.9897425179
 21
34.7496221089
 31
0.0
100
AcDbText
 73
     3
  0
TEXT
  5
333
330
327
100
AcDbEntity
  8
DV3_Default
  6
Continuous
 62
     7
 48
25.4
100
AcDbText
 10
380.3614127708
 20
31.4404971991
 30
0.0
 40
3.5
  1
5000
  7
SEACAD_arial_ttf
 11
380.3614127708
 21
34.9404971991
 31
0.0
100
AcDbText
 73
     3
  0
TEXT
  5
334
330
327
100
AcDbEntity
  8
DV3_Default
  6
Continuous
 62
     7
 48
25.4
100
AcDbText
 10
261.7556101527
 20
52.866234946
 30
0.0
 40
3.5
  1
10
  7
SEACAD_arial_ttf
 11
261.7556101527
 21
56.366234946
 31
0.0
100
AcDbText
 73
     3
  0
TEXT
  5
335
330
327
100
AcDbEntity
  8
DV3_Default
  6
Continuous
 62
     7
 48
25.4
100
AcDbText
 10
261.4141793972
 20
70.7013069697
 30
0.0
 40
3.5
  1
20
  7
SEACAD_arial_ttf
 11
261.4141793972
 21
74.2013069697
 31
0.0
100
AcDbText
 73
     3
  0
TEXT
  5
336
330
327
100
AcDbEntity
  8
DV3_Default
  6
Continuous
 62
     7
 48
25.4
100
AcDbText
 10
261.3635021562
 20
88.0573524825
 30
0.0
 40
3.5
  1
30
  7
SEACAD_arial_ttf
 11
261.3635021562
 21
91.5573524825
 31
0.0
100
AcDbText
 73
     3
  0
TEXT
  5
337
330
327
100
AcDbEntity
  8
DV3_Default
  6
Continuous
 62
     7
 48
25.4
100
AcDbText
 10
261.6597636636
 20
123.7668399703
 30
0.0
 40
3.5
  1
50
  7
SEACAD_arial_ttf
 11
261.6597636636
 21
127.2668399703
 31
0.0
100
AcDbText
 73
     3
  0
TEXT
  5
338
330
327
100
AcDbEntity
  8
DV3_Default
  6
Continuous
 62
     7
 48
25.4
100
AcDbText
 10
261.4479137388
 20
105.8710752441
 30
0.0
 40
3.5
  1
40
  7
SEACAD_arial_ttf
 11
261.4479137388
 21
109.3710752441
 31
0.0
100
AcDbText
 73
     3
  0
TEXT
  5
339
330
327
100
AcDbEntity
  8
DV3_Default
  6
Continuous
 62
     7
 48
25.4
100
AcDbText
 10
261.5961808383
 20
141.7276092778
 30
0.0
 40
3.5
  1
60
  7
SEACAD_arial_ttf
 11
261.5961808383
 21
145.2276092778
 31
0.0
100
AcDbText
 73
     3
  0
TEXT
  5
33A
330
327
100
AcDbEntity
  8
DV3_Default
  6
Continuous
 62
     7
 48
25.4
100
AcDbText
 10
315.7212472744
 20
138.1067471447
 30
0.0
 40
4.2
  1
Input Force
  7
SEACAD_arial_ttf
 11
315.7212472744
 21
142.3067471447
 31
0.0
100
AcDbText
 73
     3
  0
TEXT
  5
33B
330
327
100
AcDbEntity
  8
DV3_Default
  6
Continuous
 62
     7
 48
25.4
100
AcDbText
 10
317.0767256999
 20
131.4751896812
 30
0.0
 40
3.5
  1
22KN
  7
SEACAD_arial_ttf
 11
317.0767256999
 21
134.9751896812
 31
0.0
100
AcDbText
 73
     3
  0
TEXT
  5
33C
330
327
100
AcDbEntity
  8
DV3_Default
  6
Continuous
 62
     7
 48
25.4
100
AcDbText
 10
316.8467757969
 20
121.6820297071
 30
0.0
 40
3.5
  1
20KN
  7
SEACAD_arial_ttf
 11
316.8467757969
 21
125.1820297071
 31
0.0
100
AcDbText
 73
     3
  0
TEXT
  5
33D
330
327
100
AcDbEntity
  8
DV3_Default
  6
Continuous
 62
     7
 48
25.4
100
AcDbText
 10
316.1663356118
 20
111.4434242285
 30
0.0
 40
3.5
  1
18KN
  7
SEACAD_arial_ttf
 11
316.1663356118
 21
114.9434242285
 31
0.0
100
AcDbText
 73
     3
  0
TEXT
  5
33E
330
327
100
AcDbEntity
  8
DV3_Default
  6
Continuous
 62
     7
 48
25.4
100
AcDbText
 10
316.5191598042
 20
94.9025570096
 30
0.0
 40
3.5
  1
14KN
  7
SEACAD_arial_ttf
 11
316.5191598042
 21
98.4025570096
 31
0.0
100
AcDbText
 73
     3
  0
TEXT
  5
33F
330
327
100
AcDbEntity
  8
DV3_Default
  6
Continuous
 62
     7
 48
25.4
100
AcDbText
 10
316.1044800384
 20
102.9615370761
 30
0.0
 40
3.5
  1
16KN
  7
SEACAD_arial_ttf
 11
316.1044800384
 21
106.4615370761
 31
0.0
100
AcDbText
 73
     3
  0
TEXT
  5
340
330
327
100
AcDbEntity
  8
DV3_Default
  6
Continuous
 62
     7
 48
25.4
100
AcDbText
 10
316.2915696261
 20
85.7179093294
 30
0.0
 40
3.5
  1
12KN
  7
SEACAD_arial_ttf
 11
316.2915696261
 21
89.2179093294
 31
0.0
100
AcDbText
 73
     3
  0
TEXT
  5
341
330
327
100
AcDbEntity
  8
DV3_Default
  6
Continuous
 62
     7
 48
25.4
100
AcDbText
 10
316.0699498762
 20
75.8485237311
 30
0.0
 40
3.5
  1
10KN
  7
SEACAD_arial_ttf
 11
316.0699498762
 21
79.3485237311
 31
0.0
100
AcDbText
 73
     3
  0
TEXT
  5
342
330
327
100
AcDbEntity
  8
DV3_Default
  6
Continuous
 62
     7
 48
25.4
100
AcDbText
 10
316.6386871616
 20
65.2390223741
 30
0.0
 40
3.5
  1
8KN
  7
SEACAD_arial_ttf
 11
316.6386871616
 21
68.7390223741
 31
0.0
100
AcDbText
 73
     3
  0
TEXT
  5
343
330
327
100
AcDbEntity
  8
DV3_Default
  6
Continuous
 62
     7
 48
25.4
100
AcDbText
 10
316.399988382
 20
56.7976980784
 30
0.0
 40
3.5
  1
6KN
  7
SEACAD_arial_ttf
 11
316.399988382
 21
60.2976980784
 31
0.0
100
AcDbText
 73
     3
  0
TEXT
  5
344
330
327
100
AcDbEntity
  8
DV3_Default
  6
Continuous
 62
     7
 48
25.4
100
AcDbText
 10
326.2336673103
 20
17.738196888
 30
0.0
 40
4.2
  1
Speed in min-
  7
SEACAD_arial_ttf
 11
326.2336673103
 21
21.938196888
 31
0.0
100
AcDbText
 73
     3
  0
TEXT
  5
345
330
327
100
AcDbEntity
  8
DV3_Default
  6
Continuous
 62
     7
 48
25.4
100
AcDbText
 10
362.6641020929
 20
17.738196888
 30
0.0
 40
3.2102777778
  1
¹
  7
SEACAD_arial_ttf
 11
362.6641020929
 21
20.9484746658
 31
0.0
100
AcDbText
 73
     3
  0
TEXT
  5
346
330
327
100
AcDbEntity
  8
DV3_Default
  6
Continuous
 62
     7
 48
25.4
100
AcDbText
 10
221.549082678
 20
96.4788082357
 30
0.0
 40
4.2
  1
Total Gripping 
  7
SEACAD_arial_ttf
 11
221.549082678
 21
100.6788082357
 31
0.0
100
AcDbText
 73
     3
  0
TEXT
  5
347
330
327
100
AcDbEntity
  8
DV3_Default
  6
Continuous
 62
     7
 48
25.4
100
AcDbText
 10
221.549082678
 20
89.9048951922
 30
0.0
 40
4.2
  1
Force in KN
  7
SEACAD_arial_ttf
 11
221.549082678
 21
94.1048951922
 31
0.0
100
AcDbText
 73
     3
  0
TEXT
  5
348
330
327
100
AcDbEntity
  8
DV3_Default
  6
Continuous
 62
     7
 48
25.4
100
AcDbText
 10
283.7768801215
 20
163.970798389
 30
0.0
 40
4.2
  1
Gripping Characteristic Graph For B-206A5
  7
SEACAD_arial_ttf
 11
283.7768801215
 21
168.170798389
 31
0.0
100
AcDbText
 73
     3
  0
LWPOLYLINE
  5
349
330
327
100
AcDbEntity
  8
DV3_Default
  6
Continuous
 62
     7
 48
25.4
100
AcDbPolyline
 90
        2
 70
     0
 43
0.0
 10
413.6495795191
 20
42.541998713
 10
378.2770074465
 20
56.7139873847
  0
HATCH
  5
34A
330
327
100
AcDbEntity
  8
DV3_Default
  6
Continuous
 62
     7
 48
25.4
100
AcDbHatch
 10
0.0
 20
0.0
 30
0.0
210
0.0
220
0.0
230
1.0
  2
SOLID
 70
     1
 71
     0
 91
        1
 92
        1
 93
        3
 72
     1
 10
382.4360733760881
 20
55.80175336395765
 11
378.2770074465125
 21
56.71398738471572
 72
     1
 10
378.2770074465125
 20
56.71398738471571
 11
381.9153993191084
 21
54.50217706359572
 72
     1
 10
381.9153993191084
 20
54.50217706359572
 11
382.4360733760881
 21
55.80175336395765
 97
        0
 75
     0
 76
     1
 98
        0
  0
LWPOLYLINE
  5
34B
330
327
100
AcDbEntity
  8
DV3_Default
  6
Continuous
 62
     7
 48
25.4
370
    20
100
AcDbPolyline
 90
        4
 70
     1
 43
0.00025
 10
382.4360733761
 20
55.801753364
 10
378.2770074465
 20
56.7139873847
 10
381.9153993191
 20
54.5021770636
 10
382.4360733761
 20
55.801753364
  0
LINE
  5
34C
330
327
100
AcDbEntity
  8
DV3_Default
  6
Continuous
 62
     7
 48
25.4
100
AcDbLine
 10
413.6495795191
 20
42.541998713
 30
0.0
 11
466.6061012582
 21
42.541998713
 31
0.0
  0
TEXT
  5
34D
330
327
100
AcDbEntity
  8
DV3_Default
  6
Continuous
 62
     7
 48
25.4
100
AcDbText
 10
413.6495795191
 20
43.591998713
 30
0.0
 40
4.2
  1
Gripping Force Limit
  7
SEACAD_arial_ttf
 11
413.6495795191
 21
47.791998713
 31
0.0
100
AcDbText
 73
     3
  0
TEXT
  5
34E
330
327
100
AcDbEntity
  8
DV3_Default
  6
Continuous
 62
     7
 48
25.4
100
AcDbText
 10
18.2651095342
 20
145.4533630054
 30
0.0
 40
3.5
  1
SPINDLE NOSE SIZE
  7
SEACAD_arial_ttf
 11
18.2651095342
 21
148.9533630054
 31
0.0
100
AcDbText
 73
     3
  0
TEXT
  5
34F
330
327
100
AcDbEntity
  8
DV3_Default
  6
Continuous
 62
     7
 48
25.4
100
AcDbText
 10
123.9502998482
 20
145.4533630054
 30
0.0
 40
3.5
  1
A2-5
  7
SEACAD_arial_ttf
 11
123.9502998482
 21
148.9533630054
 31
0.0
100
AcDbText
 73
     3
  0
TEXT
  5
350
330
327
100
AcDbEntity
  8
DV3_Default
  6
Continuous
 62
     7
 48
25.4
100
AcDbText
 10
17.5351281729
 20
69.9787541511
 30
0.0
 40
3.5
  1
TOTAL GRIPPING FORCE AT MAX. SPEED
  7
SEACAD_arial_ttf
 11
17.5351281729
 21
73.4787541511
 31
0.0
100
AcDbText
 73
     3
  0
TEXT
  5
351
330
327
100
AcDbEntity
  8
DV3_Default
  6
Continuous
 62
     7
 48
25.4
100
AcDbText
 10
123.4562350715
 20
19.371851592
 30
0.0
 40
3.5
  1
SB06L1A/KSJ-206
  7
SEACAD_arial_ttf
 11
123.4562350715
 21
22.871851592
 31
0.0
100
AcDbText
 73
     3
  0
LINE
  5
352
330
327
100
AcDbEntity
  8
DV3_Default
  6
Continuous
 62
     7
 48
25.4
100
AcDbLine
 10
16.4098934619
 20
25.4110476619
 30
0.0
 11
184.4098934619
 21
25.4110476619
 31
0.0
  0
LINE
  5
353
330
327
100
AcDbEntity
  8
DV3_Default
  6
Continuous
 62
     7
 48
25.4
100
AcDbLine
 10
184.4098934619
 20
151.4110476619
 30
0.0
 11
16.4098934619
 21
151.4110476619
 31
0.0
  0
LINE
  5
354
330
327
100
AcDbEntity
  8
DV3_Default
  6
Continuous
 62
     7
 48
25.4
100
AcDbLine
 10
16.4098934619
 20
143.0110476619
 30
0.0
 11
184.4098934619
 21
143.0110476619
 31
0.0
  0
LINE
  5
355
330
327
100
AcDbEntity
  8
DV3_Default
  6
Continuous
 62
     7
 48
25.4
100
AcDbLine
 10
184.4098934619
 20
134.6110476619
 30
0.0
 11
16.4098934619
 21
134.6110476619
 31
0.0
  0
LINE
  5
356
330
327
100
AcDbEntity
  8
DV3_Default
  6
Continuous
 62
     7
 48
25.4
100
AcDbLine
 10
16.4098934619
 20
126.2110476619
 30
0.0
 11
184.4098934619
 21
126.2110476619
 31
0.0
  0
LINE
  5
357
330
327
100
AcDbEntity
  8
DV3_Default
  6
Continuous
 62
     7
 48
25.4
100
AcDbLine
 10
184.4098934619
 20
117.8110476619
 30
0.0
 11
16.4098934619
 21
117.8110476619
 31
0.0
  0
LINE
  5
358
330
327
100
AcDbEntity
  8
DV3_Default
  6
Continuous
 62
     7
 48
25.4
100
AcDbLine
 10
16.4098934619
 20
109.4110476619
 30
0.0
 11
184.4098934619
 21
109.4110476619
 31
0.0
  0
LINE
  5
359
330
327
100
AcDbEntity
  8
DV3_Default
  6
Continuous
 62
     7
 48
25.4
100
AcDbLine
 10
184.4098934619
 20
101.0110476619
 30
0.0
 11
16.4098934619
 21
101.0110476619
 31
0.0
  0
LINE
  5
35A
330
327
100
AcDbEntity
  8
DV3_Default
  6
Continuous
 62
     7
 48
25.4
100
AcDbLine
 10
16.4098934619
 20
92.6110476619
 30
0.0
 11
184.4098934619
 21
92.6110476619
 31
0.0
  0
LINE
  5
35B
330
327
100
AcDbEntity
  8
DV3_Default
  6
Continuous
 62
     7
 48
25.4
100
AcDbLine
 10
184.4098934619
 20
84.2110476619
 30
0.0
 11
16.4098934619
 21
84.2110476619
 31
0.0
  0
LINE
  5
35C
330
327
100
AcDbEntity
  8
DV3_Default
  6
Continuous
 62
     7
 48
25.4
100
AcDbLine
 10
16.4098934619
 20
75.8110476619
 30
0.0
 11
184.4098934619
 21
75.8110476619
 31
0.0
  0
LINE
  5
35D
330
327
100
AcDbEntity
  8
DV3_Default
  6
Continuous
 62
     7
 48
25.4
100
AcDbLine
 10
184.4098934619
 20
67.4110476619
 30
0.0
 11
16.4098934619
 21
67.4110476619
 31
0.0
  0
LINE
  5
35E
330
327
100
AcDbEntity
  8
DV3_Default
  6
Continuous
 62
     7
 48
25.4
100
AcDbLine
 10
16.4098934619
 20
59.0110476619
 30
0.0
 11
184.4098934619
 21
59.0110476619
 31
0.0
  0
LINE
  5
35F
330
327
100
AcDbEntity
  8
DV3_Default
  6
Continuous
 62
     7
 48
25.4
100
AcDbLine
 10
184.4098934619
 20
50.6110476619
 30
0.0
 11
16.4098934619
 21
50.6110476619
 31
0.0
  0
LINE
  5
360
330
327
100
AcDbEntity
  8
DV3_Default
  6
Continuous
 62
     7
 48
25.4
100
AcDbLine
 10
16.4098934619
 20
42.2110476619
 30
0.0
 11
184.4098934619
 21
42.2110476619
 31
0.0
  0
LINE
  5
361
330
327
100
AcDbEntity
  8
DV3_Default
  6
Continuous
 62
     7
 48
25.4
100
AcDbLine
 10
184.4098934619
 20
33.8110476619
 30
0.0
 11
16.4098934619
 21
33.8110476619
 31
0.0
  0
TEXT
  5
362
330
327
100
AcDbEntity
  8
DV3_Default
  6
Continuous
 62
     7
 48
25.4
100
AcDbText
 10
72.1585217375
 20
165.1250692086
 30
0.0
 40
4.2
  1
Specifications
  7
SEACAD_arial_ttf
 11
72.1585217375
 21
169.3250692086
 31
0.0
100
AcDbText
 73
     3
  0
TEXT
  5
363
330
327
100
AcDbEntity
  8
DV3_Default
  6
Continuous
 62
     7
 48
25.4
100
AcDbText
 10
18.1817577129
 20
136.8696174943
 30
0.0
 40
3.5
  1
THROUGH HOLE
  7
SEACAD_arial_ttf
 11
18.1817577129
 21
140.3696174943
 31
0.0
100
AcDbText
 73
     3
  0
TEXT
  5
364
330
327
100
AcDbEntity
  8
DV3_Default
  6
Continuous
 62
     7
 48
25.4
100
AcDbText
 10
123.7760543764
 20
136.83014502
 30
0.0
 40
3.5
  1
45mm
  7
SEACAD_arial_ttf
 11
123.7760543764
 21
140.33014502
 31
0.0
100
AcDbText
 73
     3
  0
TEXT
  5
365
330
327
100
AcDbEntity
  8
DV3_Default
  6
Continuous
 62
     7
 48
25.4
100
AcDbText
 10
18.6921544892
 20
128.1928722983
 30
0.0
 40
3.5
  1
MAX. GRIPPING RANGE
  7
SEACAD_arial_ttf
 11
18.6921544892
 21
131.6928722983
 31
0.0
100
AcDbText
 73
     3
  0
TEXT
  5
366
330
327
100
AcDbEntity
  8
DV3_Default
  6
Continuous
 62
     7
 48
25.4
100
AcDbText
 10
18.6921544892
 20
119.7713254904
 30
0.0
 40
3.5
  1
MIN. GRIPPING RANGE
  7
SEACAD_arial_ttf
 11
18.6921544892
 21
123.2713254904
 31
0.0
100
AcDbText
 73
     3
  0
TEXT
  5
367
330
327
100
AcDbEntity
  8
DV3_Default
  6
Continuous
 62
     7
 48
25.4
100
AcDbText
 10
18.1817577129
 20
110.8393819064
 30
0.0
 40
3.5
  1
JAW STROKE
  7
SEACAD_arial_ttf
 11
18.1817577129
 21
114.3393819064
 31
0.0
100
AcDbText
 73
     3
  0
TEXT
  5
368
330
327
100
AcDbEntity
  8
DV3_Default
  6
Continuous
 62
     7
 48
25.4
100
AcDbText
 10
18.9473528773
 20
102.9282318748
 30
0.0
 40
3.5
  1
PLUNGER STROKE
  7
SEACAD_arial_ttf
 11
18.9473528773
 21
106.4282318748
 31
0.0
100
AcDbText
 73
     3
  0
TEXT
  5
369
330
327
100
AcDbEntity
  8
DV3_Default
  6
Continuous
 62
     7
 48
25.4
100
AcDbText
 10
18.9473528773
 20
94.761883455
 30
0.0
 40
3.5
  1
MAX. DRAW BAR PULL FORCE
  7
SEACAD_arial_ttf
 11
18.9473528773
 21
98.261883455
 31
0.0
100
AcDbText
 73
     3
  0
TEXT
  5
36A
330
327
100
AcDbEntity
  8
DV3_Default
  6
Continuous
 62
     7
 48
25.4
100
AcDbText
 10
18.6921544892
 20
86.5955350353
 30
0.0
 40
3.5
  1
MAX. GRIPPING FORCE
  7
SEACAD_arial_ttf
 11
18.6921544892
 21
90.0955350353
 31
0.0
100
AcDbText
 73
     3
  0
TEXT
  5
36B
330
327
100
AcDbEntity
  8
DV3_Default
  6
Continuous
 62
     7
 48
25.4
100
AcDbText
 10
18.6921544892
 20
78.1739882275
 30
0.0
 40
3.5
  1
MAX. SPEED
  7
SEACAD_arial_ttf
 11
18.6921544892
 21
81.6739882275
 31
0.0
100
AcDbText
 73
     3
  0
TEXT
  5
36C
330
327
100
AcDbEntity
  8
DV3_Default
  6
Continuous
 62
     7
 48
25.4
100
AcDbText
 10
18.1817577129
 20
61.3308946118
 30
0.0
 40
3.5
  1
NET WEIGHT WITH SOFT TOP JAWS
  7
SEACAD_arial_ttf
 11
18.1817577129
 21
64.8308946118
 31
0.0
100
AcDbText
 73
     3
  0
TEXT
  5
36D
330
327
100
AcDbEntity
  8
DV3_Default
  6
Continuous
 62
     7
 48
25.4
100
AcDbText
 10
18.1817577129
 20
52.6541494158
 30
0.0
 40
3.5
  1
MOMENT OF INERTIA
  7
SEACAD_arial_ttf
 11
18.1817577129
 21
56.1541494158
 31
0.0
100
AcDbText
 73
     3
  0
TEXT
  5
36E
330
327
100
AcDbEntity
  8
DV3_Default
  6
Continuous
 62
     7
 48
25.4
100
AcDbText
 10
17.9265593248
 20
44.7429993842
 30
0.0
 40
3.5
  1
MATCHING CYLINDER
  7
SEACAD_arial_ttf
 11
17.9265593248
 21
48.2429993842
 31
0.0
100
AcDbText
 73
     3
  0
TEXT
  5
36F
330
327
100
AcDbEntity
  8
DV3_Default
  6
Continuous
 62
     7
 48
25.4
100
AcDbText
 10
17.9265593248
 20
35.8110558001
 30
0.0
 40
3.5
  1
MAX. PRESSURE
  7
SEACAD_arial_ttf
 11
17.9265593248
 21
39.3110558001
 31
0.0
100
AcDbText
 73
     3
  0
TEXT
  5
370
330
327
100
AcDbEntity
  8
DV3_Default
  6
Continuous
 62
     7
 48
25.4
100
AcDbText
 10
17.6713609367
 20
27.8999057685
 30
0.0
 40
3.5
  1
MATCHING HARD TOP JAW
  7
SEACAD_arial_ttf
 11
17.6713609367
 21
31.3999057685
 31
0.0
100
AcDbText
 73
     3
  0
TEXT
  5
371
330
327
100
AcDbEntity
  8
DV3_Default
  6
Continuous
 62
     7
 48
25.4
100
AcDbText
 10
17.6713609367
 20
19.7335573488
 30
0.0
 40
3.5
  1
MATCHING SOFT TOP JAW
  7
SEACAD_arial_ttf
 11
17.6713609367
 21
23.2335573488
 31
0.0
100
AcDbText
 73
     3
  0
LINE
  5
372
330
327
100
AcDbEntity
  8
DV3_Default
  6
Continuous
 62
     7
 48
25.4
100
AcDbLine
 10
16.4098934619
 20
17.0110476619
 30
0.0
 11
184.4098934619
 21
17.0110476619
 31
0.0
  0
LINE
  5
373
330
327
100
AcDbEntity
  8
DV3_Default
  6
Continuous
 62
     7
 48
25.4
100
AcDbLine
 10
121.281906512
 20
151.4110476619
 30
0.0
 11
121.281906512
 21
17.0110476619
 31
0.0
  0
LINE
  5
374
330
327
100
AcDbEntity
  8
DV3_Default
  6
Continuous
 62
     7
 48
25.4
100
AcDbLine
 10
16.4098934619
 20
151.4110476619
 30
0.0
 11
16.4098934619
 21
17.0110476619
 31
0.0
  0
LINE
  5
375
330
327
100
AcDbEntity
  8
DV3_Default
  6
Continuous
 62
     7
 48
25.4
100
AcDbLine
 10
184.4098934619
 20
151.4110476619
 30
0.0
 11
184.4098934619
 21
17.0110476619
 31
0.0
  0
TEXT
  5
376
330
327
100
AcDbEntity
  8
DV3_Default
  6
Continuous
 62
     7
 48
25.4
100
AcDbText
 10
123.7052898894
 20
128.4277620655
 30
0.0
 40
3.5
  1
169mm
  7
SEACAD_arial_ttf
 11
123.7052898894
 21
131.9277620655
 31
0.0
100
AcDbText
 73
     3
  0
TEXT
  5
377
330
327
100
AcDbEntity
  8
DV3_Default
  6
Continuous
 62
     7
 48
25.4
100
AcDbText
 10
123.820647036
 20
120.3115867705
 30
0.0
 40
3.5
  1
16mm
  7
SEACAD_arial_ttf
 11
123.820647036
 21
123.8115867705
 31
0.0
100
AcDbText
 73
     3
  0
TEXT
  5
378
330
327
100
AcDbEntity
  8
DV3_Default
  6
Continuous
 62
     7
 48
25.4
100
AcDbText
 10
123.9200894472
 20
111.8024063772
 30
0.0
 40
3.5
  1
5.5mm
  7
SEACAD_arial_ttf
 11
123.9200894472
 21
115.3024063772
 31
0.0
100
AcDbText
 73
     3
  0
TEXT
  5
379
330
327
100
AcDbEntity
  8
DV3_Default
  6
Continuous
 62
     7
 48
25.4
100
AcDbText
 10
123.3986084933
 20
103.3194803603
 30
0.0
 40
3.5
  1
12mm
  7
SEACAD_arial_ttf
 11
123.3986084933
 21
106.8194803603
 31
0.0
100
AcDbText
 73
     3
  0
TEXT
  5
37A
330
327
100
AcDbEntity
  8
DV3_Default
  6
Continuous
 62
     7
 48
25.4
100
AcDbText
 10
123.7043635334
 20
94.8365543435
 30
0.0
 40
3.5
  1
22kN
  7
SEACAD_arial_ttf
 11
123.7043635334
 21
98.3365543435
 31
0.0
100
AcDbText
 73
     3
  0
TEXT
  5
37B
330
327
100
AcDbEntity
  8
DV3_Default
  6
Continuous
 62
     7
 48
25.4
100
AcDbText
 10
123.830060321
 20
86.4793251142
 30
0.0
 40
3.5
  1
57kN
  7
SEACAD_arial_ttf
 11
123.830060321
 21
89.9793251142
 31
0.0
100
AcDbText
 73
     3
  0
TEXT
  5
37C
330
327
100
AcDbEntity
  8
DV3_Default
  6
Continuous
 62
     7
 48
25.4
100
AcDbText
 10
123.5550198781
 20
78.1626420981
 30
0.0
 40
3.5
  1
6000min-
  7
SEACAD_arial_ttf
 11
123.5550198781
 21
81.6626420981
 31
0.0
100
AcDbText
 73
     3
  0
TEXT
  5
37D
330
327
100
AcDbEntity
  8
DV3_Default
  6
Continuous
 62
     7
 48
25.4
100
AcDbText
 10
144.098498139
 20
78.1626420981
 30
0.0
 40
3.2102777778
  1
¹
  7
SEACAD_arial_ttf
 11
144.098498139
 21
81.3729198758
 31
0.0
100
AcDbText
 73
     3
  0
TEXT
  5
37E
330
327
100
AcDbEntity
  8
DV3_Default
  6
Continuous
 62
     7
 48
25.4
100
AcDbText
 10
123.3754385547
 20
69.9606586387
 30
0.0
 40
3.5
  1
19kN
  7
SEACAD_arial_ttf
 11
123.3754385547
 21
73.4606586387
 31
0.0
100
AcDbText
 73
     3
  0
TEXT
  5
37F
330
327
100
AcDbEntity
  8
DV3_Default
  6
Continuous
 62
     7
 48
25.4
100
AcDbText
 10
123.2242542508
 20
61.3397857904
 30
0.0
 40
3.5
  1
13.7kg
  7
SEACAD_arial_ttf
 11
123.2242542508
 21
64.8397857904
 31
0.0
100
AcDbText
 73
     3
  0
TEXT
  5
380
330
327
100
AcDbEntity
  8
DV3_Default
  6
Continuous
 62
     7
 48
25.4
100
AcDbText
 10
123.2028084117
 20
52.9344347632
 30
0.0
 40
3.5
  1
0.063kg.m
  7
SEACAD_arial_ttf
 11
123.2028084117
 21
56.4344347632
 31
0.0
100
AcDbText
 73
     3
  0
TEXT
  5
381
330
327
100
AcDbEntity
  8
DV3_Default
  6
Continuous
 62
     7
 48
25.4
100
AcDbText
 10
146.3332431943
 20
52.9344347632
 30
0.0
 40
3.2102777778
  1
²
  7
SEACAD_arial_ttf
 11
146.3332431943
 21
56.144712541
 31
0.0
100
AcDbText
 73
     3
  0
TEXT
  5
382
330
327
100
AcDbEntity
  8
DV3_Default
  6
Continuous
 62
     7
 48
25.4
100
AcDbText
 10
123.2242542508
 20
44.9601273785
 30
0.0
 40
3.5
  1
S1246
  7
SEACAD_arial_ttf
 11
123.2242542508
 21
48.4601273785
 31
0.0
100
AcDbText
 73
     3
  0
TEXT
  5
383
330
327
100
AcDbEntity
  8
DV3_Default
  6
Continuous
 62
     7
 48
25.4
100
AcDbText
 10
123.439776072
 20
35.9296567269
 30
0.0
 40
3.5
  1
2.80MPa
  7
SEACAD_arial_ttf
 11
123.439776072
 21
39.4296567269
 31
0.0
100
AcDbText
 73
     3
  0
TEXT
  5
384
330
327
100
AcDbEntity
  8
DV3_Default
  6
Continuous
 62
     7
 48
25.4
100
AcDbText
 10
123.612406215
 20
27.9124576639
 30
0.0
 40
3.5
  1
HB06B1
  7
SEACAD_arial_ttf
 11
123.612406215
 21
31.4124576639
 31
0.0
100
AcDbText
 73
     3
  0
ARC
  5
385
330
327
100
AcDbEntity
  8
DV3_Default
  6
Continuous
 62
     7
 48
25.4
100
AcDbCircle
 10
296.8239302605
 20
279.6456219864
 30
0.0
 40
237.3459868825478
100
AcDbArc
 50
280.3491307407
 51
298.0279798877
  0
ARC
  5
386
330
327
100
AcDbEntity
  8
DV3_Default
  6
Continuous
 62
     7
 48
25.4
100
AcDbCircle
 10
278.748959307
 20
-61.3266470152
 30
0.0
 40
123.4490616124557
100
AcDbArc
 50
60.5405409288
 51
94.6607690135
  0
ARC
  5
387
330
327
100
AcDbEntity
  8
DV3_Default
  6
Continuous
 62
     7
 48
25.4
100
AcDbCircle
 10
267.8363826509
 20
-81.4876402552
 30
0.0
 40
154.4322264072815
100
AcDbArc
 50
57.3801601164
 51
89.6729203624
  0
ARC
  5
388
330
327
100
AcDbEntity
  8
DV3_Default
  6
Continuous
 62
     7
 48
25.4
100
AcDbCircle
 10
273.0343691019
 20
-58.6443980232
 30
0.0
 40
140.2969218772712
100
AcDbArc
 50
51.4085987477
 51
91.7630490555
  0
ARC
  5
389
330
327
100
AcDbEntity
  8
DV3_Default
  6
Continuous
 62
     7
 48
25.4
100
AcDbCircle
 10
275.325137055
 20
-55.4786331227
 30
0.0
 40
146.6668022902813
100
AcDbArc
 50
48.637781816
 51
92.5819848571
  0
ARC
  5
38A
330
327
100
AcDbEntity
  8
DV3_Default
  6
Continuous
 62
     7
 48
25.4
100
AcDbCircle
 10
278.5020297944
 20
-48.5498195973
 30
0.0
 40
147.8622909323831
100
AcDbArc
 50
45.9985579864
 51
93.7940376437
  0
ARC
  5
38B
330
327
100
AcDbEntity
  8
DV3_Default
  6
Continuous
 62
     7
 48
25.4
100
AcDbCircle
 10
267.5387225539
 20
-70.6087724935
 30
0.0
 40
179.7765608520228
100
AcDbArc
 50
47.174764519
 51
89.5668962785
  0
ARC
  5
38C
330
327
100
AcDbEntity
  8
DV3_Default
  6
Continuous
 62
     7
 48
25.4
100
AcDbCircle
 10
272.7829986943
 20
-55.7213903527
 30
0.0
 40
172.4653191497715
100
AcDbArc
 50
44.1022900892
 51
91.3505928717
  0
ARC
  5
38D
330
327
100
AcDbEntity
  8
DV3_Default
  6
Continuous
 62
     7
 48
25.4
100
AcDbCircle
 10
267.2694700236
 20
-54.2461637177
 30
0.0
 40
182.2441667610972
100
AcDbArc
 50
41.8616049479
 51
89.54460031
  0
ARC
  5
38E
330
327
100
AcDbEntity
  8
DV3_Default
  6
Continuous
 62
     7
 48
25.4
100
AcDbCircle
 10
272.9664313686
 20
-35.3747555641
 30
0.0
 40
171.6454550374906
100
AcDbArc
 50
37.9302468779
 51
91.4184171853
  0
LINE
  5
38F
330
327
100
AcDbEntity
  8
DV3_Default
  6
Continuous
 62
     7
 48
25.4
100
AcDbLine
 10
221.5587948007
 20
152.7155591233
 30
0.0
 11
221.5587948007
 21
156.9155591233
 31
0.0
  0
LINE
  5
390
330
327
100
AcDbEntity
  8
DV3_Default
  6
Continuous
 62
     7
 48
25.4
100
AcDbLine
 10
221.5587948007
 20
152.7155591233
 30
0.0
 11
221.5587948007
 21
148.5155591233
 31
0.0
  0
LINE
  5
391
330
327
100
AcDbEntity
  8
DV3_Default
  6
Continuous
 62
     7
 48
25.4
100
AcDbLine
 10
221.5587948007
 20
148.5155591233
 30
0.0
 11
213.8587948007
 21
148.5155591233
 31
0.0
  0
LINE
  5
392
330
327
100
AcDbEntity
  8
DV3_Default
  6
Continuous
 62
     7
 48
25.4
100
AcDbLine
 10
213.8587948007
 20
148.5155591233
 30
0.0
 11
213.8587948007
 21
146.9405591233
 31
0.0
  0
LINE
  5
393
330
327
100
AcDbEntity
  8
DV3_Default
  6
Continuous
 62
     7
 48
25.4
100
AcDbLine
 10
213.5087948007
 20
146.5905591233
 30
0.0
 11
210.0087948007
 21
146.5905591233
 31
0.0
  0
LINE
  5
394
330
327
100
AcDbEntity
  8
DV3_Default
  6
Continuous
 62
     7
 48
25.4
100
AcDbLine
 10
208.6087948007
 20
147.9905591233
 30
0.0
 11
208.6087948007
 21
157.4044579904
 31
0.0
  0
LINE
  5
395
330
327
100
AcDbEntity
  8
DV3_Default
  6
Continuous
 62
     7
 48
25.4
100
AcDbLine
 10
213.8587948007
 20
158.4544579904
 30
0.0
 11
213.8587948007
 21
156.9155591233
 31
0.0
  0
LINE
  5
396
330
327
100
AcDbEntity
  8
DV3_Default
  6
Continuous
 62
     7
 48
25.4
100
AcDbLine
 10
213.8587948007
 20
156.9155591233
 30
0.0
 11
221.5587948007
 21
156.9155591233
 31
0.0
  0
LINE
  5
397
330
327
100
AcDbEntity
  8
DV3_Default
  6
CENTER2
 62
     7
 48
25.4
100
AcDbLine
 10
224.0087948007
 20
152.7155591233
 30
0.0
 11
199.1523115957
 21
152.7155591233
 31
0.0
  0
LINE
  5
398
330
327
100
AcDbEntity
  8
DV3_Default
  6
Continuous
 62
     7
 48
25.4
100
AcDbLine
 10
210.0087948007
 20
158.8044579904
 30
0.0
 11
213.5087948007
 21
158.8044579904
 31
0.0
  0
LINE
  5
399
330
327
100
AcDbEntity
  8
DV3_Default
  6
Continuous
 62
     7
 48
25.4
100
AcDbLine
 10
208.6087948007
 20
147.9905591233
 30
0.0
 11
210.0087948007
 21
146.5905591233
 31
0.0
  0
LINE
  5
39A
330
327
100
AcDbEntity
  8
DV3_Default
  6
Continuous
 62
     7
 48
25.4
100
AcDbLine
 10
210.0087948007
 20
158.8044579904
 30
0.0
 11
208.6087948007
 21
157.4044579904
 31
0.0
  0
LINE
  5
39B
330
327
100
AcDbEntity
  8
DV3_Default
  6
Continuous
 62
     7
 48
25.4
100
AcDbLine
 10
219.4587948007
 20
156.9155591233
 30
0.0
 11
219.4587948007
 21
162.430722124
 31
0.0
  0
LINE
  5
39C
330
327
100
AcDbEntity
  8
DV3_Default
  6
Continuous
 62
     7
 48
25.4
100
AcDbLine
 10
217.9739578013
 20
163.9155591233
 30
0.0
 11
210.0087948007
 21
163.9155591233
 31
0.0
  0
LINE
  5
39D
330
327
100
AcDbEntity
  8
DV3_Default
  6
Continuous
 62
     7
 48
25.4
100
AcDbLine
 10
217.9739578013
 20
163.9155591233
 30
0.0
 11
219.4587948007
 21
162.430722124
 31
0.0
  0
LINE
  5
39E
330
327
100
AcDbEntity
  8
DV3_Default
  6
Continuous
 62
     7
 48
25.4
100
AcDbLine
 10
218.6777427516
 20
163.211774173
 30
0.0
 11
218.6777427516
 21
156.9155591233
 31
0.0
  0
ARC
  5
39F
330
327
100
AcDbEntity
  8
DV3_Default
  6
Continuous
 62
     7
 48
25.4
100
AcDbCircle
 10
213.5087948007
 20
158.4544579904
 30
0.0
 40
0.35
100
AcDbArc
 50
0.0
 51
90.0
  0
ARC
  5
3A0
330
327
100
AcDbEntity
  8
DV3_Default
  6
Continuous
 62
     7
 48
25.4
100
AcDbCircle
 10
213.5087948007
 20
146.9405591233
 30
0.0
 40
0.35
100
AcDbArc
 50
270.0
 51
360.0
  0
LINE
  5
3A1
330
327
100
AcDbEntity
  8
DV3_Default
  6
Continuous
 62
     7
 48
25.4
100
AcDbLine
 10
213.8587948007
 20
156.9155591233
 30
0.0
 11
213.8587948007
 21
158.7011064036
 31
0.0
  0
LINE
  5
3A2
330
327
100
AcDbEntity
  8
DV3_Default
  6
Continuous
 62
     7
 48
25.4
100
AcDbLine
 10
213.4054432131
 20
159.1544579904
 30
0.0
 11
209.6587948007
 21
159.1544579904
 31
0.0
  0
LINE
  5
3A3
330
327
100
AcDbEntity
  8
DV3_Default
  6
Continuous
 62
     7
 48
25.4
100
AcDbLine
 10
208.2587948007
 20
157.7544579904
 30
0.0
 11
208.2587948007
 21
147.6405591233
 31
0.0
  0
LINE
  5
3A4
330
327
100
AcDbEntity
  8
DV3_Default
  6
Continuous
 62
     7
 48
25.4
100
AcDbLine
 10
209.6587948007
 20
146.2405591233
 30
0.0
 11
213.5087948007
 21
146.2405591233
 31
0.0
  0
LINE
  5
3A5
330
327
100
AcDbEntity
  8
DV3_Default
  6
Continuous
 62
     7
 48
25.4
100
AcDbLine
 10
213.8587948007
 20
146.5905591233
 30
0.0
 11
213.8587948007
 21
148.5155591233
 31
0.0
  0
ARC
  5
3A6
330
327
100
AcDbEntity
  8
DV3_Default
  6
Continuous
 62
     7
 48
25.4
100
AcDbCircle
 10
213.4054432131
 20
158.7011064029
 30
0.0
 40
0.4533515875443617
100
AcDbArc
 50
0.0000000885
 51
90.0
  0
ARC
  5
3A7
330
327
100
AcDbEntity
  8
DV3_Default
  6
Continuous
 62
     7
 48
25.4
100
AcDbCircle
 10
213.5087948007
 20
146.5905591233
 30
0.0
 40
0.35
100
AcDbArc
 50
270.0
 51
360.0
  0
LINE
  5
3A8
330
327
100
AcDbEntity
  8
DV3_Default
  6
Continuous
 62
     7
 48
25.4
100
AcDbLine
 10
208.2587948007
 20
157.7544579904
 30
0.0
 11
209.6587948007
 21
159.1544579904
 31
0.0
  0
LINE
  5
3A9
330
327
100
AcDbEntity
  8
DV3_Default
  6
Continuous
 62
     7
 48
25.4
100
AcDbLine
 10
209.6587948007
 20
146.2405591233
 30
0.0
 11
208.2587948007
 21
147.6405591233
 31
0.0
  0
LINE
  5
3AA
330
327
100
AcDbEntity
  8
DV3_Default
  6
Continuous
 62
     7
 48
25.4
100
AcDbLine
 10
219.4587948007
 20
148.5155591233
 30
0.0
 11
219.4587948007
 21
142.9155591233
 31
0.0
  0
LINE
  5
3AB
330
327
100
AcDbEntity
  8
DV3_Default
  6
Continuous
 62
     7
 48
25.4
100
AcDbLine
 10
218.0587948007
 20
141.5155591233
 30
0.0
 11
210.0087948007
 21
141.5155591233
 31
0.0
  0
LINE
  5
3AC
330
327
100
AcDbEntity
  8
DV3_Default
  6
Continuous
 62
     7
 48
25.4
100
AcDbLine
 10
219.4587948007
 20
142.9155591233
 30
0.0
 11
218.0587948007
 21
141.5155591233
 31
0.0
  0
LINE
  5
3AD
330
327
100
AcDbEntity
  8
DV3_Default
  6
Continuous
 62
     7
 48
25.4
100
AcDbLine
 10
218.6777427516
 20
148.5155591233
 30
0.0
 11
218.6777427516
 21
142.1345070743
 31
0.0
  0
LINE
  5
3AE
330
327
100
AcDbEntity
  8
DV3_Default
  6
Continuous
 62
     7
 48
25.4
100
AcDbLine
 10
217.9739578013
 20
163.9155591233
 30
0.0
 11
217.9739578013
 21
172.3155591233
 31
0.0
  0
LINE
  5
3AF
330
327
100
AcDbEntity
  8
DV3_Default
  6
Continuous
 62
     7
 48
25.4
100
AcDbLine
 10
218.0587948007
 20
141.5155591233
 30
0.0
 11
218.0587948007
 21
133.1155591233
 31
0.0
  0
LINE
  5
3B0
330
327
100
AcDbEntity
  8
DV3_Default
  6
Continuous
 62
     7
 48
25.4
100
AcDbLine
 10
268.7179722328
 20
36.6845490664
 30
0.0
 11
292.0279722328
 21
36.6845490664
 31
0.0
  0
LINE
  5
3B1
330
327
100
AcDbEntity
  8
DV3_Default
  6
Continuous
 62
     7
 48
25.4
100
AcDbLine
 10
292.0279722328
 20
36.6845490664
 30
0.0
 11
292.0279722328
 21
143.7845490664
 31
0.0
  0
LINE
  5
3B2
330
327
100
AcDbEntity
  8
DV3_Default
  6
Continuous
 62
     7
 48
25.4
100
AcDbLine
 10
292.0279722328
 20
143.7845490664
 30
0.0
 11
315.3379722328
 21
143.7845490664
 31
0.0
  0
LINE
  5
3B3
330
327
100
AcDbEntity
  8
DV3_Default
  6
Continuous
 62
     7
 48
25.4
100
AcDbLine
 10
315.3379722328
 20
143.7845490664
 30
0.0
 11
315.3379722328
 21
36.6845490664
 31
0.0
  0
LINE
  5
3B4
330
327
100
AcDbEntity
  8
DV3_Default
  6
Continuous
 62
     7
 48
25.4
100
AcDbLine
 10
315.3379722328
 20
36.6845490664
 30
0.0
 11
338.6479722328
 21
36.6845490664
 31
0.0
  0
LINE
  5
3B5
330
327
100
AcDbEntity
  8
DV3_Default
  6
Continuous
 62
     7
 48
25.4
100
AcDbLine
 10
338.6479722328
 20
36.6845490664
 30
0.0
 11
338.6479722328
 21
143.7845490664
 31
0.0
  0
LINE
  5
3B6
330
327
100
AcDbEntity
  8
DV3_Default
  6
Continuous
 62
     7
 48
25.4
100
AcDbLine
 10
338.6479722328
 20
143.7845490664
 30
0.0
 11
361.9579722328
 21
143.7845490664
 31
0.0
  0
LINE
  5
3B7
330
327
100
AcDbEntity
  8
DV3_Default
  6
Continuous
 62
     7
 48
25.4
100
AcDbLine
 10
361.9579722328
 20
143.7845490664
 30
0.0
 11
361.9579722328
 21
36.6845490664
 31
0.0
  0
LINE
  5
3B8
330
327
100
AcDbEntity
  8
DV3_Default
  6
Continuous
 62
     7
 48
25.4
100
AcDbLine
 10
361.9579722328
 20
36.6845490664
 30
0.0
 11
385.2679722328
 21
36.6845490664
 31
0.0
  0
LINE
  5
3B9
330
327
100
AcDbEntity
  8
DV3_Default
  6
Continuous
 62
     7
 48
25.4
100
AcDbLine
 10
385.2679722328
 20
36.6845490664
 30
0.0
 11
385.2679722328
 21
143.7845490664
 31
0.0
  0
LINE
  5
3BA
330
327
100
AcDbEntity
  8
DV3_Default
  6
Continuous
 62
     7
 48
25.4
100
AcDbLine
 10
268.7179722328
 20
36.6845490664
 30
0.0
 11
268.7179722328
 21
54.5345490664
 31
0.0
  0
LINE
  5
3BB
330
327
100
AcDbEntity
  8
DV3_Default
  6
Continuous
 62
     7
 48
25.4
100
AcDbLine
 10
268.7179722328
 20
54.5345490664
 30
0.0
 11
408.7179722328
 21
54.5345490664
 31
0.0
  0
LINE
  5
3BC
330
327
100
AcDbEntity
  8
DV3_Default
  6
Continuous
 62
     7
 48
25.4
100
AcDbLine
 10
408.7179722328
 20
54.5345490664
 30
0.0
 11
408.7179722328
 21
72.2445490664
 31
0.0
  0
LINE
  5
3BD
330
327
100
AcDbEntity
  8
DV3_Default
  6
Continuous
 62
     7
 48
25.4
100
AcDbLine
 10
408.7179722328
 20
72.2445490664
 30
0.0
 11
268.7179722328
 21
72.3845490664
 31
0.0
  0
LINE
  5
3BE
330
327
100
AcDbEntity
  8
DV3_Default
  6
Continuous
 62
     7
 48
25.4
100
AcDbLine
 10
268.7179722328
 20
72.3845490664
 30
0.0
 11
268.7179722328
 21
90.0945490664
 31
0.0
  0
LINE
  5
3BF
330
327
100
AcDbEntity
  8
DV3_Default
  6
Continuous
 62
     7
 48
25.4
100
AcDbLine
 10
268.7179722328
 20
90.0945490664
 30
0.0
 11
408.7179722328
 21
90.0945490664
 31
0.0
  0
LINE
  5
3C0
330
327
100
AcDbEntity
  8
DV3_Default
  6
Continuous
 62
     7
 48
25.4
100
AcDbLine
 10
408.7179722328
 20
90.0945490664
 30
0.0
 11
408.7179722328
 21
107.8045490664
 31
0.0
  0
LINE
  5
3C1
330
327
100
AcDbEntity
  8
DV3_Default
  6
Continuous
 62
     7
 48
25.4
100
AcDbLine
 10
408.7179722328
 20
107.8045490664
 30
0.0
 11
268.7179722328
 21
107.8045490664
 31
0.0
  0
LINE
  5
3C2
330
327
100
AcDbEntity
  8
DV3_Default
  6
Continuous
 62
     7
 48
25.4
100
AcDbLine
 10
268.7179722328
 20
107.8045490664
 30
0.0
 11
268.7179722328
 21
125.5145490664
 31
0.0
  0
LINE
  5
3C3
330
327
100
AcDbEntity
  8
DV3_Default
  6
Continuous
 62
     7
 48
25.4
100
AcDbLine
 10
268.7179722328
 20
125.5145490664
 30
0.0
 11
408.7179722328
 21
125.5145490664
 31
0.0
  0
TEXT
  5
3C4
330
327
100
AcDbEntity
  8
DV3_Default
  6
Continuous
 62
     7
 48
25.4
100
AcDbText
 10
403.1626696967
 20
31.0583519091
 30
0.0
 40
3.5
  1
6000
  7
SEACAD_arial_ttf
 11
403.1626696967
 21
34.5583519091
 31
0.0
100
AcDbText
 73
     3
  0
ENDBLK
  5
3C6
330
327
100
AcDbEntity
  8
0
100
AcDbBlockEnd
  0
BLOCK
  5
3D1
330
3C7
100
AcDbEntity
  8
0
100
AcDbBlockBegin
  2
GDimGGroup26
 70
     0
 71
     0
 10
0.0
 20
0.0
 30
0.0
  3
GDimGGroup26
  1

  0
HATCH
  5
3C9
330
3C7
100
AcDbEntity
  8
Default
  6
Continuous
 62
     7
 48
25.4
100
AcDbHatch
 10
0.0
 20
0.0
 30
0.0
210
0.0
220
0.0
230
1.0
  2
SOLID
 70
     1
 71
     0
 91
        1
 92
        1
 93
        3
 72
     1
 10
244.7046823661797
 20
145.5155593133104
 11
243.3713489695165
 21
145.5155593133104
 72
     1
 10
243.3713489695165
 20
145.5155593133104
 11
244.0380156678481
 21
141.5155591233206
 72
     1
 10
244.0380156678481
 20
141.5155591233206
 11
244.7046823661797
 21
145.5155593133104
 97
        0
 75
     0
 76
     1
 98
        0
  0
LWPOLYLINE
  5
3CA
330
3C7
100
AcDbEntity
  8
Default
  6
Continuous
 62
     7
 48
25.4
370
    30
100
AcDbPolyline
 90
        4
 70
     1
 43
0.00035
 10
244.7046823662
 20
145.5155593133
 10
244.0380156678
 20
141.5155591233
 10
243.3713489695
 20
145.5155593133
 10
244.7046823662
 20
145.5155593133
  0
HATCH
  5
3CB
330
3C7
100
AcDbEntity
  8
Default
  6
Continuous
 62
     7
 48
25.4
100
AcDbHatch
 10
0.0
 20
0.0
 30
0.0
210
0.0
220
0.0
230
1.0
  2
SOLID
 70
     1
 71
     0
 91
        1
 92
        1
 93
        3
 72
     1
 10
244.7046823661797
 20
159.9155581346286
 11
244.0380156678481
 21
163.9155583246184
 72
     1
 10
244.0380156678481
 20
163.9155583246184
 11
243.3713489695165
 21
159.9155581346286
 72
     1
 10
243.3713489695165
 20
159.9155581346286
 11
244.7046823661797
 21
159.9155581346286
 97
        0
 75
     0
 76
     1
 98
        0
  0
LWPOLYLINE
  5
3CC
330
3C7
100
AcDbEntity
  8
Default
  6
Continuous
 62
     7
 48
25.4
370
    30
100
AcDbPolyline
 90
        4
 70
     1
 43
0.00035
 10
244.7046823662
 20
159.9155581346
 10
244.0380156678
 20
163.9155583246
 10
243.3713489695
 20
159.9155581346
 10
244.7046823662
 20
159.9155581346
  0
LINE
  5
3CD
330
3C7
100
AcDbEntity
  8
Default
  6
Continuous
 62
     7
 48
25.4
100
AcDbLine
 10
218.0587948007
 20
141.5155591233
 30
0.0
 11
246.0380157628
 21
141.5155591233
 31
0.0
  0
LINE
  5
3CE
330
3C7
100
AcDbEntity
  8
Default
  6
Continuous
 62
     7
 48
25.4
100
AcDbLine
 10
217.9739578013
 20
163.9155591233
 30
0.0
 11
246.0380157628
 21
163.9155591233
 31
0.0
  0
LINE
  5
3CF
330
3C7
100
AcDbEntity
  8
Default
  6
Continuous
 62
     7
 48
25.4
100
AcDbLine
 10
244.0380156678
 20
141.5155591233
 30
0.0
 11
244.0380156678
 21
163.9155583246
 31
0.0
  0
TEXT
  5
3D0
330
3C7
100
AcDbEntity
  8
Default
  6
Continuous
 62
     7
 48
25.4
100
AcDbText
 10
243.0380156678
 20
149.5851239414
 30
0.0
 40
4.0
  1
32
 50
90.0
  7
SEACAD_arial_ttf
 11
239.0380156678
 21
149.5851239414
 31
0.0
100
AcDbText
 73
     3
  0
ENDBLK
  5
3D2
330
3C7
100
AcDbEntity
  8
0
100
AcDbBlockEnd
  0
BLOCK
  5
3DE
330
3D3
100
AcDbEntity
  8
0
100
AcDbBlockBegin
  2
GDimGGroup27
 70
     0
 71
     0
 10
0.0
 20
0.0
 30
0.0
  3
GDimGGroup27
  1

  0
HATCH
  5
3D5
330
3D3
100
AcDbEntity
  8
Default
  6
Continuous
 62
     7
 48
25.4
100
AcDbHatch
 10
0.0
 20
0.0
 30
0.0
210
0.0
220
0.0
230
1.0
  2
SOLID
 70
     1
 71
     0
 91
        1
 92
        1
 93
        3
 72
     1
 10
233.0146416317694
 20
144.5155589333309
 11
232.3479749334378
 21
148.5155591233207
 72
     1
 10
232.3479749334378
 20
148.5155591233207
 11
231.6813082351062
 21
144.5155589333309
 72
     1
 10
231.6813082351062
 20
144.5155589333309
 11
233.0146416317694
 21
144.5155589333309
 97
        0
 75
     0
 76
     1
 98
        0
  0
LWPOLYLINE
  5
3D6
330
3D3
100
AcDbEntity
  8
Default
  6
Continuous
 62
     7
 48
25.4
370
    30
100
AcDbPolyline
 90
        4
 70
     1
 43
0.00035
 10
233.0146416318
 20
144.5155589333
 10
232.3479749334
 20
148.5155591233
 10
231.6813082351
 20
144.5155589333
 10
233.0146416318
 20
144.5155589333
  0
HATCH
  5
3D7
330
3D3
100
AcDbEntity
  8
Default
  6
Continuous
 62
     7
 48
25.4
100
AcDbHatch
 10
0.0
 20
0.0
 30
0.0
210
0.0
220
0.0
230
1.0
  2
SOLID
 70
     1
 71
     0
 91
        1
 92
        1
 93
        3
 72
     1
 10
233.0146416317694
 20
160.9155593133104
 11
231.6813082351062
 21
160.9155593133104
 72
     1
 10
231.6813082351062
 20
160.9155593133104
 11
232.3479749334378
 21
156.9155591233206
 72
     1
 10
232.3479749334378
 20
156.9155591233206
 11
233.0146416317694
 21
160.9155593133104
 97
        0
 75
     0
 76
     1
 98
        0
  0
LWPOLYLINE
  5
3D8
330
3D3
100
AcDbEntity
  8
Default
  6
Continuous
 62
     7
 48
25.4
370
    30
100
AcDbPolyline
 90
        4
 70
     1
 43
0.00035
 10
233.0146416318
 20
160.9155593133
 10
232.3479749334
 20
156.9155591233
 10
231.6813082351
 20
160.9155593133
 10
233.0146416318
 20
160.9155593133
  0
LINE
  5
3D9
330
3D3
100
AcDbEntity
  8
Default
  6
Continuous
 62
     7
 48
25.4
100
AcDbLine
 10
221.558794759
 20
148.5155591233
 30
0.0
 11
234.3479750284
 21
148.5155591233
 31
0.0
  0
LINE
  5
3DA
330
3D3
100
AcDbEntity
  8
Default
  6
Continuous
 62
     7
 48
25.4
100
AcDbLine
 10
221.558794759
 20
156.9155591233
 30
0.0
 11
234.3479750284
 21
156.9155591233
 31
0.0
  0
LINE
  5
3DB
330
3D3
100
AcDbEntity
  8
Default
  6
Continuous
 62
     7
 48
25.4
100
AcDbLine
 10
232.3479749334
 20
114.4080453976
 30
0.0
 11
232.3479749334
 21
164.9155592038
 31
0.0
  0
TEXT
  5
3DC
330
3D3
100
AcDbEntity
  8
Default
  6
Continuous
 62
     7
 48
25.4
100
AcDbText
 10
231.3479749334
 20
115.8080459336
 30
0.0
 40
4.0
  1
12
 50
90.0
  7
SEACAD_arial_ttf
 11
227.3479749334
 21
115.8080459336
 31
0.0
100
AcDbText
 73
     3
  0
TEXT
  5
3DD
330
3D3
100
AcDbEntity
  8
Default
  6
Continuous
 62
     7
 48
25.4
100
AcDbText
 10
231.3479749334
 20
124.4689154988
 30
0.0
 40
4.0
  1
H8/h8
 50
90.0
  7
SEACAD_arial_ttf
 11
227.3479749334
 21
124.4689154988
 31
0.0
100
AcDbText
 73
     3
  0
ENDBLK
  5
3DF
330
3D3
100
AcDbEntity
  8
0
100
AcDbBlockEnd
  0
BLOCK
  5
3EA
330
3E0
100
AcDbEntity
  8
0
100
AcDbBlockBegin
  2
GDimGGroup28
 70
     0
 71
     0
 10
0.0
 20
0.0
 30
0.0
  3
GDimGGroup28
  1

  0
HATCH
  5
3E2
330
3E0
100
AcDbEntity
  8
Default
  6
Continuous
 62
     7
 48
25.4
100
AcDbHatch
 10
0.0
 20
0.0
 30
0.0
210
0.0
220
0.0
230
1.0
  2
SOLID
 70
     1
 71
     0
 91
        1
 92
        1
 93
        3
 72
     1
 10
225.5587949906809
 20
173.1753935319565
 11
221.5587948006911
 21
172.5087268336249
 72
     1
 10
221.5587948006911
 20
172.5087268336249
 11
225.5587949906809
 21
171.8420601352933
 72
     1
 10
225.5587949906809
 20
171.8420601352933
 11
225.5587949906809
 21
173.1753935319565
 97
        0
 75
     0
 76
     1
 98
        0
  0
LWPOLYLINE
  5
3E3
330
3E0
100
AcDbEntity
  8
Default
  6
Continuous
 62
     7
 48
25.4
370
    30
100
AcDbPolyline
 90
        4
 70
     1
 43
0.00035
 10
225.5587949907
 20
173.175393532
 10
221.5587948007
 20
172.5087268336
 10
225.5587949907
 20
171.8420601353
 10
225.5587949907
 20
173.175393532
  0
HATCH
  5
3E4
330
3E0
100
AcDbEntity
  8
Default
  6
Continuous
 62
     7
 48
25.4
100
AcDbHatch
 10
0.0
 20
0.0
 30
0.0
210
0.0
220
0.0
230
1.0
  2
SOLID
 70
     1
 71
     0
 91
        1
 92
        1
 93
        3
 72
     1
 10
215.4587946107013
 20
173.1753935319565
 11
215.4587946107013
 21
171.8420601352933
 72
     1
 10
215.4587946107013
 20
171.8420601352933
 11
219.4587948006911
 21
172.5087268336249
 72
     1
 10
219.4587948006911
 20
172.5087268336249
 11
215.4587946107013
 21
173.1753935319565
 97
        0
 75
     0
 76
     1
 98
        0
  0
LWPOLYLINE
  5
3E5
330
3E0
100
AcDbEntity
  8
Default
  6
Continuous
 62
     7
 48
25.4
370
    30
100
AcDbPolyline
 90
        4
 70
     1
 43
0.00035
 10
215.4587946107
 20
173.175393532
 10
219.4587948007
 20
172.5087268336
 10
215.4587946107
 20
171.8420601353
 10
215.4587946107
 20
173.175393532
  0
LINE
  5
3E6
330
3E0
100
AcDbEntity
  8
Default
  6
Continuous
 62
     7
 48
25.4
100
AcDbLine
 10
221.5587948007
 20
156.9155589736
 30
0.0
 11
221.5587948007
 21
174.5087269286
 31
0.0
  0
LINE
  5
3E7
330
3E0
100
AcDbEntity
  8
Default
  6
Continuous
 62
     7
 48
25.4
100
AcDbLine
 10
219.4587948007
 20
162.430722124
 30
0.0
 11
219.4587948007
 21
174.5087269286
 31
0.0
  0
LINE
  5
3E8
330
3E0
100
AcDbEntity
  8
Default
  6
Continuous
 62
     7
 48
25.4
100
AcDbLine
 10
228.2351529715
 20
172.5087268336
 30
0.0
 11
211.4587951941
 21
172.5087268336
 31
0.0
  0
TEXT
  5
3E9
330
3E0
100
AcDbEntity
  8
Default
  6
Continuous
 62
     7
 48
25.4
100
AcDbText
 10
223.7047183501
 20
173.5087268336
 30
0.0
 40
4.0
  1
3
  7
SEACAD_arial_ttf
 11
223.7047183501
 21
177.5087268336
 31
0.0
100
AcDbText
 73
     3
  0
ENDBLK
  5
3EB
330
3E0
100
AcDbEntity
  8
0
100
AcDbBlockEnd
  0
BLOCK
  5
3F6
330
3EC
100
AcDbEntity
  8
0
100
AcDbBlockBegin
  2
GDimGGroup29
 70
     0
 71
     0
 10
0.0
 20
0.0
 30
0.0
  3
GDimGGroup29
  1

  0
HATCH
  5
3EE
330
3EC
100
AcDbEntity
  8
Default
  6
Continuous
 62
     7
 48
25.4
100
AcDbHatch
 10
0.0
 20
0.0
 30
0.0
210
0.0
220
0.0
230
1.0
  2
SOLID
 70
     1
 71
     0
 91
        1
 92
        1
 93
        3
 72
     1
 10
223.4587949906809
 20
173.1700261716667
 11
219.4587948006911
 21
172.5033594733351
 72
     1
 10
219.4587948006911
 20
172.5033594733351
 11
223.4587949906809
 21
171.8366927750035
 72
     1
 10
223.4587949906809
 20
171.8366927750035
 11
223.4587949906809
 21
173.1700261716667
 97
        0
 75
     0
 76
     1
 98
        0
  0
LWPOLYLINE
  5
3EF
330
3EC
100
AcDbEntity
  8
Default
  6
Continuous
 62
     7
 48
25.4
370
    30
100
AcDbPolyline
 90
        4
 70
     1
 43
0.00035
 10
223.4587949907
 20
173.1700261717
 10
219.4587948007
 20
172.5033594733
 10
223.4587949907
 20
171.836692775
 10
223.4587949907
 20
173.1700261717
  0
HATCH
  5
3F0
330
3EC
100
AcDbEntity
  8
Default
  6
Continuous
 62
     7
 48
25.4
100
AcDbHatch
 10
0.0
 20
0.0
 30
0.0
210
0.0
220
0.0
230
1.0
  2
SOLID
 70
     1
 71
     0
 91
        1
 92
        1
 93
        3
 72
     1
 10
213.9739576113487
 20
173.1700261716667
 11
213.9739576113487
 21
171.8366927750035
 72
     1
 10
213.9739576113487
 20
171.8366927750035
 11
217.9739578013385
 21
172.5033594733351
 72
     1
 10
217.9739578013385
 20
172.5033594733351
 11
213.9739576113487
 21
173.1700261716667
 97
        0
 75
     0
 76
     1
 98
        0
  0
LWPOLYLINE
  5
3F1
330
3EC
100
AcDbEntity
  8
Default
  6
Continuous
 62
     7
 48
25.4
370
    30
100
AcDbPolyline
 90
        4
 70
     1
 43
0.00035
 10
213.9739576113
 20
173.1700261717
 10
217.9739578013
 20
172.5033594733
 10
213.9739576113
 20
171.836692775
 10
213.9739576113
 20
173.1700261717
  0
LINE
  5
3F2
330
3EC
100
AcDbEntity
  8
Default
  6
Continuous
 62
     7
 48
25.4
100
AcDbLine
 10
219.4587948007
 20
162.430722124
 30
0.0
 11
219.4587948007
 21
174.5033595683
 31
0.0
  0
LINE
  5
3F3
330
3EC
100
AcDbEntity
  8
Default
  6
Continuous
 62
     7
 48
25.4
100
AcDbLine
 10
217.9739578013
 20
163.9155591233
 30
0.0
 11
217.9739578013
 21
174.5033595683
 31
0.0
  0
LINE
  5
3F4
330
3EC
100
AcDbEntity
  8
Default
  6
Continuous
 62
     7
 48
25.4
100
AcDbLine
 10
227.4587951807
 20
172.5033594733
 30
0.0
 11
208.9954685626
 21
172.5033594733
 31
0.0
  0
TEXT
  5
3F5
330
3EC
100
AcDbEntity
  8
Default
  6
Continuous
 62
     7
 48
25.4
100
AcDbText
 10
210.3954686924
 20
173.5033594733
 30
0.0
 40
4.0
  1
2
  7
SEACAD_arial_ttf
 11
210.3954686924
 21
177.5033594733
 31
0.0
100
AcDbText
 73
     3
  0
ENDBLK
  5
3F7
330
3EC
100
AcDbEntity
  8
0
100
AcDbBlockEnd
  0
ENDSEC
  0
SECTION
  2
ENTITIES
  0
INSERT
  5
2C
330
1F
100
AcDbEntity
  8
Default
100
AcDbBlockReference
  2
SEANNOT_GROUP
 10
0.0
 20
0.0
 30
0.0
  0
INSERT
  5
38
330
1F
100
AcDbEntity
  8
Default
100
AcDbBlockReference
  2
SEANNOT_GROUP1
 10
0.0
 20
0.0
 30
0.0
  0
INSERT
  5
42
330
1F
100
AcDbEntity
  8
Default
100
AcDbBlockReference
  2
SEANNOT_GROUP2
 10
0.0
 20
0.0
 30
0.0
  0
INSERT
  5
4B
330
1F
100
AcDbEntity
  8
Default
100
AcDbBlockReference
  2
SEANNOT_GROUP3
 10
0.0
 20
0.0
 30
0.0
  0
INSERT
  5
55
330
1F
100
AcDbEntity
  8
Default
100
AcDbBlockReference
  2
SEANNOT_GROUP4
 10
0.0
 20
0.0
 30
0.0
  0
INSERT
  5
5E
330
1F
100
AcDbEntity
  8
Default
100
AcDbBlockReference
  2
SEANNOT_GROUP5
 10
0.0
 20
0.0
 30
0.0
  0
INSERT
  5
67
330
1F
100
AcDbEntity
  8
Default
100
AcDbBlockReference
  2
SE
 10
0.0
 20
0.0
 30
0.0
  0
INSERT
  5
10A
330
1F
100
AcDbEntity
  8
Default
100
AcDbBlockReference
  2
GDimGGroup
 10
0.0
 20
0.0
 30
0.0
  0
INSERT
  5
116
330
1F
100
AcDbEntity
  8
Default
100
AcDbBlockReference
  2
SE1
 10
0.0
 20
0.0
 30
0.0
  0
INSERT
  5
1F5
330
1F
100
AcDbEntity
  8
Default
100
AcDbBlockReference
  2
GDimGGroup1
 10
0.0
 20
0.0
 30
0.0
  0
INSERT
  5
201
330
1F
100
AcDbEntity
  8
Default
100
AcDbBlockReference
  2
GDimGGroup2
 10
0.0
 20
0.0
 30
0.0
  0
INSERT
  5
20D
330
1F
100
AcDbEntity
  8
Default
100
AcDbBlockReference
  2
GDimGGroup3
 10
0.0
 20
0.0
 30
0.0
  0
INSERT
  5
219
330
1F
100
AcDbEntity
  8
Default
100
AcDbBlockReference
  2
GDimGGroup4
 10
0.0
 20
0.0
 30
0.0
  0
INSERT
  5
225
330
1F
100
AcDbEntity
  8
Default
100
AcDbBlockReference
  2
GDimGGroup5
 10
0.0
 20
0.0
 30
0.0
  0
INSERT
  5
231
330
1F
100
AcDbEntity
  8
Default
100
AcDbBlockReference
  2
GDimGGroup6
 10
0.0
 20
0.0
 30
0.0
  0
INSERT
  5
23C
330
1F
100
AcDbEntity
  8
Default
100
AcDbBlockReference
  2
GDimGGroup7
 10
0.0
 20
0.0
 30
0.0
  0
INSERT
  5
248
330
1F
100
AcDbEntity
  8
Default
100
AcDbBlockReference
  2
GDimGGroup8
 10
0.0
 20
0.0
 30
0.0
  0
INSERT
  5
254
330
1F
100
AcDbEntity
  8
Default
100
AcDbBlockReference
  2
GDimGGroup9
 10
0.0
 20
0.0
 30
0.0
  0
INSERT
  5
261
330
1F
100
AcDbEntity
  8
Default
100
AcDbBlockReference
  2
GDimGGroup10
 10
0.0
 20
0.0
 30
0.0
  0
INSERT
  5
26C
330
1F
100
AcDbEntity
  8
Default
100
AcDbBlockReference
  2
GDimGGroup11
 10
0.0
 20
0.0
 30
0.0
  0
INSERT
  5
279
330
1F
100
AcDbEntity
  8
Default
100
AcDbBlockReference
  2
GDimGGroup12
 10
0.0
 20
0.0
 30
0.0
  0
INSERT
  5
284
330
1F
100
AcDbEntity
  8
Default
100
AcDbBlockReference
  2
GDimGGroup13
 10
0.0
 20
0.0
 30
0.0
  0
INSERT
  5
291
330
1F
100
AcDbEntity
  8
Default
100
AcDbBlockReference
  2
GDimGGroup14
 10
0.0
 20
0.0
 30
0.0
  0
INSERT
  5
29C
330
1F
100
AcDbEntity
  8
Default
100
AcDbBlockReference
  2
GDimGGroup15
 10
0.0
 20
0.0
 30
0.0
  0
INSERT
  5
2AA
330
1F
100
AcDbEntity
  8
Default
100
AcDbBlockReference
  2
GDimGGroup16
 10
0.0
 20
0.0
 30
0.0
  0
INSERT
  5
2B7
330
1F
100
AcDbEntity
  8
Default
100
AcDbBlockReference
  2
GDimGGroup17
 10
0.0
 20
0.0
 30
0.0
  0
INSERT
  5
2C3
330
1F
100
AcDbEntity
  8
Default
100
AcDbBlockReference
  2
GDimGGroup18
 10
0.0
 20
0.0
 30
0.0
  0
INSERT
  5
2CF
330
1F
100
AcDbEntity
  8
Default
100
AcDbBlockReference
  2
GDimGGroup19
 10
0.0
 20
0.0
 30
0.0
  0
INSERT
  5
2DB
330
1F
100
AcDbEntity
  8
Default
100
AcDbBlockReference
  2
GDimGGroup20
 10
0.0
 20
0.0
 30
0.0
  0
INSERT
  5
2E9
330
1F
100
AcDbEntity
  8
Default
100
AcDbBlockReference
  2
GDimGGroup21
 10
0.0
 20
0.0
 30
0.0
  0
INSERT
  5
2F6
330
1F
100
AcDbEntity
  8
Default
100
AcDbBlockReference
  2
GDimGGroup22
 10
0.0
 20
0.0
 30
0.0
  0
INSERT
  5
300
330
1F
100
AcDbEntity
  8
Default
100
AcDbBlockReference
  2
GDimGGroup23
 10
0.0
 20
0.0
 30
0.0
  0
INSERT
  5
30C
330
1F
100
AcDbEntity
  8
Default
100
AcDbBlockReference
  2
GDimGGroup24
 10
0.0
 20
0.0
 30
0.0
  0
INSERT
  5
31A
330
1F
100
AcDbEntity
  8
Default
100
AcDbBlockReference
  2
GDimGGroup25
 10
0.0
 20
0.0
 30
0.0
  0
INSERT
  5
328
330
1F
100
AcDbEntity
  8
Default
100
AcDbBlockReference
  2
SE2
 10
0.0
 20
0.0
 30
0.0
  0
INSERT
  5
3C8
330
1F
100
AcDbEntity
  8
Default
100
AcDbBlockReference
  2
GDimGGroup26
 10
0.0
 20
0.0
 30
0.0
  0
INSERT
  5
3D4
330
1F
100
AcDbEntity
  8
Default
100
AcDbBlockReference
  2
GDimGGroup27
 10
0.0
 20
0.0
 30
0.0
  0
INSERT
  5
3E1
330
1F
100
AcDbEntity
  8
Default
100
AcDbBlockReference
  2
GDimGGroup28
 10
0.0
 20
0.0
 30
0.0
  0
INSERT
  5
3ED
330
1F
100
AcDbEntity
  8
Default
100
AcDbBlockReference
  2
GDimGGroup29
 10
0.0
 20
0.0
 30
0.0
  0
LINE
  5
3F9
330
1F
100
AcDbEntity
  8
BORDER
  6
Continuous
 62
     7
 48
25.4
100
AcDbLine
 10
6.2292620399
 20
410.0
 30
0.0
 11
586.2292620399
 21
410.0
 31
0.0
  0
LINE
  5
3FA
330
1F
100
AcDbEntity
  8
BORDER
  6
Continuous
 62
     7
 48
25.4
100
AcDbLine
 10
6.2292620399
 20
410.0
 30
0.0
 11
6.2292620399
 21
10.0
 31
0.0
  0
LINE
  5
3FB
330
1F
100
AcDbEntity
  8
BORDER
  6
Continuous
 62
     7
 48
25.4
100
AcDbLine
 10
6.2292620399
 20
10.0
 30
0.0
 11
586.2292620399
 21
10.0
 31
0.0
  0
LINE
  5
3FC
330
1F
100
AcDbEntity
  8
BORDER
  6
Continuous
 62
     7
 48
25.4
100
AcDbLine
 10
586.2292620399
 20
10.0
 30
0.0
 11
586.2292620399
 21
410.0
 31
0.0
  0
LINE
  5
3FD
330
1F
100
AcDbEntity
  8
Default
  6
Continuous
 62
     7
 48
25.4
100
AcDbLine
 10
3.7292620399
 20
412.5
 30
0.0
 11
588.7292620399
 21
412.5
 31
0.0
  0
LINE
  5
3FE
330
1F
100
AcDbEntity
  8
Default
  6
Continuous
 62
     7
 48
25.4
100
AcDbLine
 10
588.7292620399
 20
412.5
 30
0.0
 11
588.7292620399
 21
7.5
 31
0.0
  0
LINE
  5
3FF
330
1F
100
AcDbEntity
  8
Default
  6
Continuous
 62
     7
 48
25.4
100
AcDbLine
 10
588.7292620399
 20
7.5
 30
0.0
 11
3.7292620399
 21
7.5
 31
0.0
  0
LINE
  5
400
330
1F
100
AcDbEntity
  8
Default
  6
Continuous
 62
     7
 48
25.4
100
AcDbLine
 10
3.7292620399
 20
7.5
 30
0.0
 11
3.7292620399
 21
412.5
 31
0.0
  0
TEXT
  5
401
330
1F
100
AcDbEntity
  8
Default
  6
Continuous
 62
     7
 48
25.4
100
AcDbText
 10
473.5242219525
 20
28.1561611714
 30
0.0
 40
5.0
  1
TITLE :
  7
SEACAD_arial_ttf
 11
473.5242219525
 21
33.1561611714
 31
0.0
100
AcDbText
 73
     3
  0
TEXT
  5
402
330
1F
100
AcDbEntity
  8
Default
  6
Continuous
 62
     7
 48
25.4
100
AcDbText
 10
473.4498030642
 20
40.2710242694
 30
0.0
 40
5.0
  1
KITAGAWA EUROPE LIMITED
  7
SEACAD_arial_ttf
 11
473.4498030642
 21
45.2710242694
 31
0.0
100
AcDbText
 73
     3
  0
TEXT
  5
403
330
1F
100
AcDbEntity
  8
Default
  6
Continuous
 62
     7
 48
25.4
100
AcDbText
 10
474.4044215056
 20
15.7611952147
 30
0.0
 40
5.0
  1
www.kitagawaeurope.com
  7
SEACAD_arial_ttf
 11
474.4044215056
 21
20.7611952147
 31
0.0
100
AcDbText
 73
     3
  0
TEXT
  5
404
330
1F
100
AcDbEntity
  8
Default
  6
Continuous
 62
     7
 48
25.4
100
AcDbText
 10
497.8463064412
 20
27.8559210467
 30
0.0
 40
5.0
  1
B206A5 POWER CHUCK
  7
SEACAD_arial_ttf
 11
497.8463064412
 21
32.8559210467
 31
0.0
100
AcDbText
 73
     3
  0
LINE
  5
405
330
1F
100
AcDbEntity
  8
Default
  6
Continuous
 62
     7
 48
25.4
100
AcDbLine
 10
471.5030858285
 20
50.0
 30
0.0
 11
586.2292620399
 21
50.0
 31
0.0
  0
LINE
  5
406
330
1F
100
AcDbEntity
  8
Default
  6
Continuous
 62
     7
 48
25.4
100
AcDbLine
 10
471.5030858285
 20
36.7
 30
0.0
 11
586.2292620399
 21
36.7
 31
0.0
  0
LINE
  5
407
330
1F
100
AcDbEntity
  8
Default
  6
Continuous
 62
     7
 48
25.4
100
AcDbLine
 10
586.2292620399
 20
23.4
 30
0.0
 11
471.5030858285
 21
23.4
 31
0.0
  0
LINE
  5
408
330
1F
100
AcDbEntity
  8
Default
  6
Continuous
 62
     7
 48
25.4
100
AcDbLine
 10
471.5030858285
 20
50.0
 30
0.0
 11
471.5030858285
 21
10.0
 31
0.0
  0
ENDSEC
  0
SECTION
  2
OBJECTS
  0
DICTIONARY
  5
C
330
0
100
AcDbDictionary
281
     1
  3
ACAD_GROUP
350
D
  3
ACAD_LAYOUT
350
1A
  3
ACAD_MLINESTYLE
350
17
  3
ACAD_PLOTSETTINGS
350
19
  3
ACAD_PLOTSTYLENAME
350
E
  0
DICTIONARY
  5
D
102
{ACAD_REACTORS
330
C
102
}
330
C
100
AcDbDictionary
281
     1
  0
DICTIONARY
  5
1A
102
{ACAD_REACTORS
330
C
102
}
330
C
100
AcDbDictionary
281
     1
  3
Layout1
350
1E
  3
Model
350
22
  0
DICTIONARY
  5
17
102
{ACAD_REACTORS
330
C
102
}
330
C
100
AcDbDictionary
281
     1
  3
Standard
350
18
  0
DICTIONARY
  5
19
102
{ACAD_REACTORS
330
C
102
}
330
C
100
AcDbDictionary
281
     1
  0
ACDBDICTIONARYWDFLT
  5
E
102
{ACAD_REACTORS
330
C
102
}
330
C
100
AcDbDictionary
281
     1
  3
Normal
350
F
100
AcDbDictionaryWithDefault
340
F
  0
LAYOUT
  5
1E
102
{ACAD_REACTORS
330
1A
102
}
330
1A
100
AcDbPlotSettings
  1

  2

  4

  6

 40
0.0
 41
0.0
 42
0.0
 43
0.0
 44
0.0
 45
0.0
 46
0.0
 47
0.0
 48
0.0
 49
0.0
140
0.0
141
0.0
142
1.0
143
1.0
 70
   688
 72
     0
 73
     0
 74
     5
  7

 75
    16
147
1.0
148
0.0
149
0.0
100
AcDbLayout
  1
Layout1
 70
     1
 71
     1
 10
0.0
 20
0.0
 11
594.0
 21
420.0
 12
0.0
 22
0.0
 32
0.0
 14
0.0
 24
0.0
 34
0.0
 15
594.0
 25
420.0
 35
0.0
146
0.0
 13
0.0
 23
0.0
 33
0.0
 16
1.0
 26
0.0
 36
0.0
 17
0.0
 27
1.0
 37
0.0
 76
     0
330
1B
  0
LAYOUT
  5
22
102
{ACAD_REACTORS
330
1A
102
}
330
1A
100
AcDbPlotSettings
  1

  2

  4

  6

 40
0.0
 41
0.0
 42
0.0
 43
0.0
 44
0.0
 45
0.0
 46
0.0
 47
0.0
 48
0.0
 49
0.0
140
0.0
141
0.0
142
1.0
143
1.0
 70
  1712
 72
     0
 73
     0
 74
     0
  7

 75
     0
147
1.0
148
0.0
149
0.0
100
AcDbLayout
  1
Model
 70
     1
 71
     0
 10
0.0
 20
0.0
 11
594.0
 21
420.0
 12
0.0
 22
0.0
 32
0.0
 14
0.0
 24
0.0
 34
0.0
 15
594.0
 25
420.0
 35
0.0
146
0.0
 13
0.0
 23
0.0
 33
0.0
 16
1.0
 26
0.0
 36
0.0
 17
0.0
 27
1.0
 37
0.0
 76
     0
330
1F
  0
MLINESTYLE
  5
18
102
{ACAD_REACTORS
330
17
102
}
330
17
100
AcDbMlineStyle
  2
Standard
 70
     0
  3

 62
   256
 51
90.0
 52
90.0
 71
     2
 49
0.5
 62
   256
  6
BYLAYER
 49
-0.5
 62
   256
  6
BYLAYER
  0
ACDBPLACEHOLDER
  5
F
102
{ACAD_REACTORS
330
E
102
}
330
E
  0
ENDSEC
  0
EOF
