  0
SECTION
  2
HEADER
  9
$ACADVER
  1
AC1015
  9
$ACADMAINTVER
 70
     6
  9
$DWGCODEPAGE
  3
ANSI_1252
  9
$INSBASE
 10
0.0
 20
0.0
 30
0.0
  9
$EXTMIN
 10
0.0
 20
0.0
 30
0.0
  9
$EXTMAX
 10
594.0
 20
420.0
 30
0.0
  9
$LIMMIN
 10
0.0
 20
0.0
  9
$LIMMAX
 10
594.0
 20
420.0
  9
$ORTHOMODE
 70
     0
  9
$REGENMODE
 70
     1
  9
$FILLMODE
 70
     1
  9
$QTEXTMODE
 70
     0
  9
$MIRRTEXT
 70
     1
  9
$LTSCALE
 40
1.0
  9
$ATTMODE
 70
     1
  9
$TEXTSIZE
 40
0.2
  9
$TRACEWID
 40
0.05
  9
$TEXTSTYLE
  7
Standard
  9
$CLAYER
  8
0
  9
$CELTYPE
  6
ByLayer
  9
$CECOLOR
 62
   256
  9
$CELTSCALE
 40
25.4
  9
$DISPSILH
 70
     0
  9
$DIMSCALE
 40
1.0
  9
$DIMASZ
 40
0.18
  9
$DIMEXO
 40
0.0625
  9
$DIMDLI
 40
0.38
  9
$DIMRND
 40
0.0
  9
$DIMDLE
 40
0.0
  9
$DIMEXE
 40
0.18
  9
$DIMTP
 40
0.0
  9
$DIMTM
 40
0.0
  9
$DIMTXT
 40
0.18
  9
$DIMCEN
 40
0.09
  9
$DIMTSZ
 40
0.0
  9
$DIMTOL
 70
     0
  9
$DIMLIM
 70
     0
  9
$DIMTIH
 70
     1
  9
$DIMTOH
 70
     1
  9
$DIMSE1
 70
     0
  9
$DIMSE2
 70
     0
  9
$DIMTAD
 70
     0
  9
$DIMZIN
 70
     0
  9
$DIMBLK
  1

  9
$DIMASO
 70
     1
  9
$DIMSHO
 70
     1
  9
$DIMPOST
  1

  9
$DIMAPOST
  1

  9
$DIMALT
 70
     0
  9
$DIMALTD
 70
     2
  9
$DIMALTF
 40
25.4
  9
$DIMLFAC
 40
1.0
  9
$DIMTOFL
 70
     0
  9
$DIMTVP
 40
0.0
  9
$DIMTIX
 70
     0
  9
$DIMSOXD
 70
     0
  9
$DIMSAH
 70
     0
  9
$DIMBLK1
  1

  9
$DIMBLK2
  1

  9
$DIMSTYLE
  2
Standard
  9
$DIMCLRD
 70
     0
  9
$DIMCLRE
 70
     0
  9
$DIMCLRT
 70
     0
  9
$DIMTFAC
 40
1.0
  9
$DIMGAP
 40
0.09
  9
$DIMJUST
 70
     0
  9
$DIMSD1
 70
     0
  9
$DIMSD2
 70
     0
  9
$DIMTOLJ
 70
     1
  9
$DIMTZIN
 70
     0
  9
$DIMALTZ
 70
     0
  9
$DIMALTTZ
 70
     0
  9
$DIMUPT
 70
     0
  9
$DIMDEC
 70
     4
  9
$DIMTDEC
 70
     4
  9
$DIMALTU
 70
     2
  9
$DIMALTTD
 70
     2
  9
$DIMTXSTY
  7
Standard
  9
$DIMAUNIT
 70
     0
  9
$DIMADEC
 70
     0
  9
$DIMALTRND
 40
0.0
  9
$DIMAZIN
 70
     0
  9
$DIMDSEP
 70
    46
  9
$DIMATFIT
 70
     3
  9
$DIMFRAC
 70
     0
  9
$DIMLDRBLK
  1

  9
$DIMLUNIT
 70
     2
  9
$DIMLWD
 70
    -2
  9
$DIMLWE
 70
    -2
  9
$DIMTMOVE
 70
     0
  9
$LUNITS
 70
     2
  9
$LUPREC
 70
     4
  9
$SKETCHINC
 40
0.1
  9
$FILLETRAD
 40
0.5
  9
$AUNITS
 70
     0
  9
$AUPREC
 70
     0
  9
$MENU
  1
.
  9
$ELEVATION
 40
0.0
  9
$PELEVATION
 40
0.0
  9
$THICKNESS
 40
0.0
  9
$LIMCHECK
 70
     0
  9
$CHAMFERA
 40
0.5
  9
$CHAMFERB
 40
0.5
  9
$CHAMFERC
 40
1.0
  9
$CHAMFERD
 40
0.0
  9
$SKPOLY
 70
     0
  9
$TDCREATE
 40
2454876.373244005
  9
$TDUCREATE
 40
2454876.373244005
  9
$TDUPDATE
 40
2454876.373244016
  9
$TDUUPDATE
 40
2454876.373244016
  9
$TDINDWG
 40
0.0000000116
  9
$TDUSRTIMER
 40
0.0000000116
  9
$USRTIMER
 70
     1
  9
$ANGBASE
 50
0.0
  9
$ANGDIR
 70
     0
  9
$PDMODE
 70
     0
  9
$PDSIZE
 40
0.0
  9
$PLINEWID
 40
0.0
  9
$SPLFRAME
 70
     0
  9
$SPLINETYPE
 70
     6
  9
$SPLINESEGS
 70
     8
  9
$HANDSEED
  5
3F2
  9
$SURFTAB1
 70
     6
  9
$SURFTAB2
 70
     6
  9
$SURFTYPE
 70
     6
  9
$SURFU
 70
     6
  9
$SURFV
 70
     6
  9
$UCSBASE
  2

  9
$UCSNAME
  2

  9
$UCSORG
 10
0.0
 20
0.0
 30
0.0
  9
$UCSXDIR
 10
1.0
 20
0.0
 30
0.0
  9
$UCSYDIR
 10
0.0
 20
1.0
 30
0.0
  9
$UCSORTHOREF
  2

  9
$UCSORTHOVIEW
 70
     0
  9
$UCSORGTOP
 10
0.0
 20
0.0
 30
0.0
  9
$UCSORGBOTTOM
 10
0.0
 20
0.0
 30
0.0
  9
$UCSORGLEFT
 10
0.0
 20
0.0
 30
0.0
  9
$UCSORGRIGHT
 10
0.0
 20
0.0
 30
0.0
  9
$UCSORGFRONT
 10
0.0
 20
0.0
 30
0.0
  9
$UCSORGBACK
 10
0.0
 20
0.0
 30
0.0
  9
$PUCSBASE
  2

  9
$PUCSNAME
  2

  9
$PUCSORG
 10
0.0
 20
0.0
 30
0.0
  9
$PUCSXDIR
 10
1.0
 20
0.0
 30
0.0
  9
$PUCSYDIR
 10
0.0
 20
1.0
 30
0.0
  9
$PUCSORTHOREF
  2

  9
$PUCSORTHOVIEW
 70
     0
  9
$PUCSORGTOP
 10
0.0
 20
0.0
 30
0.0
  9
$PUCSORGBOTTOM
 10
0.0
 20
0.0
 30
0.0
  9
$PUCSORGLEFT
 10
0.0
 20
0.0
 30
0.0
  9
$PUCSORGRIGHT
 10
0.0
 20
0.0
 30
0.0
  9
$PUCSORGFRONT
 10
0.0
 20
0.0
 30
0.0
  9
$PUCSORGBACK
 10
0.0
 20
0.0
 30
0.0
  9
$USERI1
 70
     0
  9
$USERI2
 70
     0
  9
$USERI3
 70
     0
  9
$USERI4
 70
     0
  9
$USERI5
 70
     0
  9
$USERR1
 40
0.0
  9
$USERR2
 40
0.0
  9
$USERR3
 40
0.0
  9
$USERR4
 40
0.0
  9
$USERR5
 40
0.0
  9
$WORLDVIEW
 70
     1
  9
$SHADEDGE
 70
     3
  9
$SHADEDIF
 70
    70
  9
$TILEMODE
 70
     1
  9
$MAXACTVP
 70
    64
  9
$PINSBASE
 10
0.0
 20
0.0
 30
0.0
  9
$PLIMCHECK
 70
     0
  9
$PEXTMIN
 10
0.0
 20
0.0
 30
0.0
  9
$PEXTMAX
 10
594.0
 20
420.0
 30
0.0
  9
$PLIMMIN
 10
0.0
 20
0.0
  9
$PLIMMAX
 10
594.0
 20
420.0
  9
$UNITMODE
 70
     0
  9
$VISRETAIN
 70
     1
  9
$PLINEGEN
 70
     0
  9
$PSLTSCALE
 70
     1
  9
$TREEDEPTH
 70
  3020
  9
$CMLSTYLE
  2
Standard
  9
$CMLJUST
 70
     0
  9
$CMLSCALE
 40
1.0
  9
$PROXYGRAPHICS
 70
     1
  9
$MEASUREMENT
 70
     1
  9
$CELWEIGHT
370
    -1
  9
$ENDCAPS
280
     0
  9
$JOINSTYLE
280
     0
  9
$LWDISPLAY
290
     0
  9
$INSUNITS
 70
     1
  9
$HYPERLINKBASE
  1

  9
$STYLESHEET
  1

  9
$XEDIT
290
     1
  9
$CEPSNTYPE
380
     0
  9
$PSTYLEMODE
290
     1
  9
$FINGERPRINTGUID
  2
{34EE1F9C-88E8-4A34-8623-F31BA9ED448F}
  9
$VERSIONGUID
  2
{FAEB1C32-E019-11D5-929B-00C0DF256EC4}
  9
$EXTNAMES
290
     1
  9
$PSVPSCALE
 40
0.0
  9
$OLESTARTUP
290
     0
  0
ENDSEC
  0
SECTION
  2
CLASSES
  0
CLASS
  1
ACDBDICTIONARYWDFLT
  2
AcDbDictionaryWithDefault
  3
ObjectDBX Classes
 90
        0
280
     0
281
     0
  0
CLASS
  1
ACDBPLACEHOLDER
  2
AcDbPlaceHolder
  3
ObjectDBX Classes
 90
        0
280
     0
281
     0
  0
CLASS
  1
LAYOUT
  2
AcDbLayout
  3
ObjectDBX Classes
 90
        0
280
     0
281
     0
  0
ENDSEC
  0
SECTION
  2
TABLES
  0
TABLE
  2
VPORT
  5
8
330
0
100
AcDbSymbolTable
 70
     1
  0
VPORT
  5
29
330
8
100
AcDbSymbolTableRecord
100
AcDbViewportTableRecord
  2
*Active
 70
     0
 10
0.0
 20
0.0
 11
1.0
 21
1.0
 12
10.4299065421
 22
4.5
 13
0.0
 23
0.0
 14
0.5
 24
0.5
 15
0.5
 25
0.5
 16
0.0
 26
0.0
 36
1.0
 17
0.0
 27
0.0
 37
0.0
 40
9.0
 41
1.9729729729
 42
50.0
 43
0.0
 44
0.0
 50
0.0
 51
0.0
 71
     0
 72
   100
 73
     1
 74
     3
 75
     0
 76
     0
 77
     0
 78
     0
281
     0
 65
     1
110
0.0
120
0.0
130
0.0
111
1.0
121
0.0
131
0.0
112
0.0
122
1.0
132
0.0
 79
     0
146
0.0
  0
ENDTAB
  0
TABLE
  2
LTYPE
  5
5
330
0
100
AcDbSymbolTable
 70
     2
  0
LTYPE
  5
14
330
5
100
AcDbSymbolTableRecord
100
AcDbLinetypeTableRecord
  2
ByBlock
 70
     0
  3

 72
    65
 73
     0
 40
0.0
  0
LTYPE
  5
15
330
5
100
AcDbSymbolTableRecord
100
AcDbLinetypeTableRecord
  2
ByLayer
 70
     0
  3

 72
    65
 73
     0
 40
0.0
  0
LTYPE
  5
16
330
5
100
AcDbSymbolTableRecord
100
AcDbLinetypeTableRecord
  2
Continuous
 70
     0
  3
Solid line
 72
    65
 73
     0
 40
0.0
  0
LTYPE
  5
AA
330
5
100
AcDbSymbolTableRecord
100
AcDbLinetypeTableRecord
  2
CENTER2
 70
     0
  3
___ _ ___ _ ___ _ ___ _ ___ _ ___ _ ___ _ ___ _
 72
    65
 73
     4
 40
1.125
 49
0.75
 74
     4
 75
     0
340
0
 46
0.0
 50
0.0
 44
0.0
 45
0.0
 49
-0.125
 74
     4
 75
     0
340
0
 46
0.0
 50
0.0
 44
0.0
 45
0.0
 49
0.125
 74
     4
 75
     0
340
0
 46
0.0
 50
0.0
 44
0.0
 45
0.0
 49
-0.125
 74
     4
 75
     0
340
0
 46
0.0
 50
0.0
 44
0.0
 45
0.0
  0
ENDTAB
  0
TABLE
  2
LAYER
  5
2
330
0
100
AcDbSymbolTable
 70
     6
  0
LAYER
  5
10
330
2
100
AcDbSymbolTableRecord
100
AcDbLayerTableRecord
  2
0
 70
     0
 62
     7
  6
Continuous
370
    -3
390
F
  0
LAYER
  5
2A
330
2
100
AcDbSymbolTableRecord
100
AcDbLayerTableRecord
  2
Default
 70
     0
 62
     7
  6
Continuous
370
    -3
390
F
  0
LAYER
  5
68
330
2
100
AcDbSymbolTableRecord
100
AcDbLayerTableRecord
  2
DV1_Default
 70
     0
 62
     7
  6
Continuous
370
    -3
390
F
  0
LAYER
  5
155
330
2
100
AcDbSymbolTableRecord
100
AcDbLayerTableRecord
  2
DV2_Default
 70
     0
 62
     7
  6
Continuous
370
    -3
390
F
  0
LAYER
  5
1DE
330
2
100
AcDbSymbolTableRecord
100
AcDbLayerTableRecord
  2
DV3_Default
 70
     0
 62
     7
  6
Continuous
370
    -3
390
F
  0
LAYER
  5
3E1
330
2
100
AcDbSymbolTableRecord
100
AcDbLayerTableRecord
  2
BORDER
 70
     0
 62
     7
  6
Continuous
370
    -3
390
F
  0
ENDTAB
  0
TABLE
  2
STYLE
  5
3
330
0
100
AcDbSymbolTable
 70
     3
  0
STYLE
  5
11
330
3
100
AcDbSymbolTableRecord
100
AcDbTextStyleTableRecord
  2
Standard
 70
     0
 40
0.0
 41
1.0
 50
0.0
 71
     0
 42
0.2
  3
txt
  4

  0
STYLE
  5
31
330
3
100
AcDbSymbolTableRecord
100
AcDbTextStyleTableRecord
  2
SEACAD_arial_ttf
 70
     0
 40
0.2
 41
1.0
 50
0.0
 71
     0
 42
0.2
  3
arial.ttf
  4

  0
STYLE
  5
45
330
3
100
AcDbSymbolTableRecord
100
AcDbTextStyleTableRecord
  2
SEACAD_semeca1_ttf
 70
     0
 40
0.2
 41
1.0
 50
0.0
 71
     0
 42
0.2
  3
semeca1.ttf
  4

  0
ENDTAB
  0
TABLE
  2
VIEW
  5
6
330
0
100
AcDbSymbolTable
 70
     0
  0
ENDTAB
  0
TABLE
  2
UCS
  5
7
330
0
100
AcDbSymbolTable
 70
     0
  0
ENDTAB
  0
TABLE
  2
APPID
  5
9
330
0
100
AcDbSymbolTable
 70
     1
  0
APPID
  5
12
330
9
100
AcDbSymbolTableRecord
100
AcDbRegAppTableRecord
  2
ACAD
 70
     0
  0
ENDTAB
  0
TABLE
  2
DIMSTYLE
  5
A
330
0
100
AcDbSymbolTable
 70
     1
100
AcDbDimStyleTable
  0
DIMSTYLE
105
27
330
A
100
AcDbSymbolTableRecord
100
AcDbDimStyleTableRecord
  2
Standard
 70
     0
340
11
  0
ENDTAB
  0
TABLE
  2
BLOCK_RECORD
  5
1
330
0
100
AcDbSymbolTable
 70
    40
  0
BLOCK_RECORD
  5
1F
330
1
100
AcDbSymbolTableRecord
100
AcDbBlockTableRecord
  2
*Model_Space
340
22
  0
BLOCK_RECORD
  5
1B
330
1
100
AcDbSymbolTableRecord
100
AcDbBlockTableRecord
  2
*Paper_Space
340
1E
  0
BLOCK_RECORD
  5
2B
330
1
100
AcDbSymbolTableRecord
100
AcDbBlockTableRecord
  2
SEANNOT_GROUP
340
0
102
{BLKREFS
331
2C
102
}
  0
BLOCK_RECORD
  5
35
330
1
100
AcDbSymbolTableRecord
100
AcDbBlockTableRecord
  2
SEANNOT_GROUP1
340
0
102
{BLKREFS
331
36
102
}
  0
BLOCK_RECORD
  5
3F
330
1
100
AcDbSymbolTableRecord
100
AcDbBlockTableRecord
  2
SEANNOT_GROUP2
340
0
102
{BLKREFS
331
40
102
}
  0
BLOCK_RECORD
  5
4A
330
1
100
AcDbSymbolTableRecord
100
AcDbBlockTableRecord
  2
SEANNOT_GROUP3
340
0
102
{BLKREFS
331
4B
102
}
  0
BLOCK_RECORD
  5
53
330
1
100
AcDbSymbolTableRecord
100
AcDbBlockTableRecord
  2
SEANNOT_GROUP4
340
0
102
{BLKREFS
331
54
102
}
  0
BLOCK_RECORD
  5
5C
330
1
100
AcDbSymbolTableRecord
100
AcDbBlockTableRecord
  2
SEANNOT_GROUP5
340
0
102
{BLKREFS
331
5D
102
}
  0
BLOCK_RECORD
  5
66
330
1
100
AcDbSymbolTableRecord
100
AcDbBlockTableRecord
  2
SE
340
0
102
{BLKREFS
331
67
102
}
  0
BLOCK_RECORD
  5
153
330
1
100
AcDbSymbolTableRecord
100
AcDbBlockTableRecord
  2
SE1
340
0
102
{BLKREFS
331
154
102
}
  0
BLOCK_RECORD
  5
1DC
330
1
100
AcDbSymbolTableRecord
100
AcDbBlockTableRecord
  2
SE2
340
0
102
{BLKREFS
331
1DD
102
}
  0
BLOCK_RECORD
  5
271
330
1
100
AcDbSymbolTableRecord
100
AcDbBlockTableRecord
  2
GDimGGroup
340
0
102
{BLKREFS
331
272
102
}
  0
BLOCK_RECORD
  5
27E
330
1
100
AcDbSymbolTableRecord
100
AcDbBlockTableRecord
  2
GDimGGroup1
340
0
102
{BLKREFS
331
27F
102
}
  0
BLOCK_RECORD
  5
28A
330
1
100
AcDbSymbolTableRecord
100
AcDbBlockTableRecord
  2
GDimGGroup2
340
0
102
{BLKREFS
331
28B
102
}
  0
BLOCK_RECORD
  5
296
330
1
100
AcDbSymbolTableRecord
100
AcDbBlockTableRecord
  2
GDimGGroup3
340
0
102
{BLKREFS
331
297
102
}
  0
BLOCK_RECORD
  5
2A2
330
1
100
AcDbSymbolTableRecord
100
AcDbBlockTableRecord
  2
GDimGGroup4
340
0
102
{BLKREFS
331
2A3
102
}
  0
BLOCK_RECORD
  5
2AD
330
1
100
AcDbSymbolTableRecord
100
AcDbBlockTableRecord
  2
GDimGGroup5
340
0
102
{BLKREFS
331
2AE
102
}
  0
BLOCK_RECORD
  5
2BA
330
1
100
AcDbSymbolTableRecord
100
AcDbBlockTableRecord
  2
GDimGGroup6
340
0
102
{BLKREFS
331
2BB
102
}
  0
BLOCK_RECORD
  5
2C5
330
1
100
AcDbSymbolTableRecord
100
AcDbBlockTableRecord
  2
GDimGGroup7
340
0
102
{BLKREFS
331
2C6
102
}
  0
BLOCK_RECORD
  5
2D0
330
1
100
AcDbSymbolTableRecord
100
AcDbBlockTableRecord
  2
GDimGGroup8
340
0
102
{BLKREFS
331
2D1
102
}
  0
BLOCK_RECORD
  5
2DD
330
1
100
AcDbSymbolTableRecord
100
AcDbBlockTableRecord
  2
GDimGGroup9
340
0
102
{BLKREFS
331
2DE
102
}
  0
BLOCK_RECORD
  5
2EA
330
1
100
AcDbSymbolTableRecord
100
AcDbBlockTableRecord
  2
GDimGGroup10
340
0
102
{BLKREFS
331
2EB
102
}
  0
BLOCK_RECORD
  5
2F5
330
1
100
AcDbSymbolTableRecord
100
AcDbBlockTableRecord
  2
GDimGGroup11
340
0
102
{BLKREFS
331
2F6
102
}
  0
BLOCK_RECORD
  5
301
330
1
100
AcDbSymbolTableRecord
100
AcDbBlockTableRecord
  2
GDimGGroup12
340
0
102
{BLKREFS
331
302
102
}
  0
BLOCK_RECORD
  5
30D
330
1
100
AcDbSymbolTableRecord
100
AcDbBlockTableRecord
  2
GDimGGroup13
340
0
102
{BLKREFS
331
30E
102
}
  0
BLOCK_RECORD
  5
319
330
1
100
AcDbSymbolTableRecord
100
AcDbBlockTableRecord
  2
GDimGGroup14
340
0
102
{BLKREFS
331
31A
102
}
  0
BLOCK_RECORD
  5
325
330
1
100
AcDbSymbolTableRecord
100
AcDbBlockTableRecord
  2
GDimGGroup15
340
0
102
{BLKREFS
331
326
102
}
  0
BLOCK_RECORD
  5
333
330
1
100
AcDbSymbolTableRecord
100
AcDbBlockTableRecord
  2
GDimGGroup16
340
0
102
{BLKREFS
331
334
102
}
  0
BLOCK_RECORD
  5
341
330
1
100
AcDbSymbolTableRecord
100
AcDbBlockTableRecord
  2
GDimGGroup17
340
0
102
{BLKREFS
331
342
102
}
  0
BLOCK_RECORD
  5
34D
330
1
100
AcDbSymbolTableRecord
100
AcDbBlockTableRecord
  2
GDimGGroup18
340
0
102
{BLKREFS
331
34E
102
}
  0
BLOCK_RECORD
  5
359
330
1
100
AcDbSymbolTableRecord
100
AcDbBlockTableRecord
  2
GDimGGroup19
340
0
102
{BLKREFS
331
35A
102
}
  0
BLOCK_RECORD
  5
365
330
1
100
AcDbSymbolTableRecord
100
AcDbBlockTableRecord
  2
GDimGGroup20
340
0
102
{BLKREFS
331
366
102
}
  0
BLOCK_RECORD
  5
370
330
1
100
AcDbSymbolTableRecord
100
AcDbBlockTableRecord
  2
GDimGGroup21
340
0
102
{BLKREFS
331
371
102
}
  0
BLOCK_RECORD
  5
37C
330
1
100
AcDbSymbolTableRecord
100
AcDbBlockTableRecord
  2
GDimGGroup22
340
0
102
{BLKREFS
331
37D
102
}
  0
BLOCK_RECORD
  5
388
330
1
100
AcDbSymbolTableRecord
100
AcDbBlockTableRecord
  2
GDimGGroup23
340
0
102
{BLKREFS
331
389
102
}
  0
BLOCK_RECORD
  5
394
330
1
100
AcDbSymbolTableRecord
100
AcDbBlockTableRecord
  2
GDimGGroup24
340
0
102
{BLKREFS
331
395
102
}
  0
BLOCK_RECORD
  5
3A0
330
1
100
AcDbSymbolTableRecord
100
AcDbBlockTableRecord
  2
GDimGGroup25
340
0
102
{BLKREFS
331
3A1
102
}
  0
BLOCK_RECORD
  5
3AD
330
1
100
AcDbSymbolTableRecord
100
AcDbBlockTableRecord
  2
GDimGGroup26
340
0
102
{BLKREFS
331
3AE
102
}
  0
BLOCK_RECORD
  5
3BB
330
1
100
AcDbSymbolTableRecord
100
AcDbBlockTableRecord
  2
GDimGGroup27
340
0
102
{BLKREFS
331
3BC
102
}
  0
BLOCK_RECORD
  5
3C8
330
1
100
AcDbSymbolTableRecord
100
AcDbBlockTableRecord
  2
GDimGGroup28
340
0
102
{BLKREFS
331
3C9
102
}
  0
BLOCK_RECORD
  5
3D3
330
1
100
AcDbSymbolTableRecord
100
AcDbBlockTableRecord
  2
GDimGGroup29
340
0
102
{BLKREFS
331
3D4
102
}
  0
ENDTAB
  0
ENDSEC
  0
SECTION
  2
BLOCKS
  0
BLOCK
  5
20
330
1F
100
AcDbEntity
  8
0
100
AcDbBlockBegin
  2
*Model_Space
 70
     0
 71
     0
 10
0.0
 20
0.0
 30
0.0
  3
*Model_Space
  1

  0
ENDBLK
  5
21
330
1F
100
AcDbEntity
  8
0
100
AcDbBlockEnd
  0
BLOCK
  5
1C
330
1B
100
AcDbEntity
 67
     1
  8
0
100
AcDbBlockBegin
  2
*Paper_Space
 70
     0
 71
     0
 10
0.0
 20
0.0
 30
0.0
  3
*Paper_Space
  1

  0
ENDBLK
  5
1D
330
1B
100
AcDbEntity
 67
     1
  8
0
100
AcDbBlockEnd
  0
BLOCK
  5
33
330
2B
100
AcDbEntity
  8
0
100
AcDbBlockBegin
  2
SEANNOT_GROUP
 70
     0
 71
     0
 10
0.0
 20
0.0
 30
0.0
  3
SEANNOT_GROUP
  1

  0
LWPOLYLINE
  5
2D
330
2B
100
AcDbEntity
  8
Default
  6
Continuous
 62
     7
 48
25.4
100
AcDbPolyline
 90
        2
 70
     0
 43
0.0
 10
169.7848039899
 20
395.4077407052
 10
155.7976777611
 20
368.7961170785
  0
HATCH
  5
2E
330
2B
100
AcDbEntity
  8
Default
  6
Continuous
 62
     7
 48
25.4
100
AcDbHatch
 10
0.0
 20
0.0
 30
0.0
210
0.0
220
0.0
230
1.0
  2
SOLID
 70
     1
 71
     0
 91
        1
 92
        1
 93
        3
 72
     1
 10
157.0685655805756
 20
372.6469988160383
 11
155.7976777610549
 21
368.7961170784648
 72
     1
 10
155.7976777610549
 20
368.7961170784648
 11
158.248803559274
 21
372.0266632130816
 72
     1
 10
158.248803559274
 20
372.0266632130816
 11
157.0685655805756
 21
372.6469988160383
 97
        0
 75
     0
 76
     1
 98
        0
  0
LWPOLYLINE
  5
2F
330
2B
100
AcDbEntity
  8
Default
  6
Continuous
 62
     7
 48
25.4
370
    20
100
AcDbPolyline
 90
        4
 70
     1
 43
0.00025
 10
157.0685655806
 20
372.646998816
 10
155.7976777611
 20
368.7961170785
 10
158.2488035593
 20
372.0266632131
 10
157.0685655806
 20
372.646998816
  0
LINE
  5
30
330
2B
100
AcDbEntity
  8
Default
  6
Continuous
 62
     7
 48
25.4
100
AcDbLine
 10
169.7848039899
 20
395.4077407052
 30
0.0
 11
182.4804561638
 21
395.4077407052
 31
0.0
  0
TEXT
  5
32
330
2B
100
AcDbEntity
  8
Default
  6
Continuous
 62
     7
 48
25.4
100
AcDbText
 10
169.7848039899
 20
396.4077407052
 30
0.0
 40
4.0
  1
3-M8
  7
SEACAD_arial_ttf
 11
169.7848039899
 21
400.4077407052
 31
0.0
100
AcDbText
 73
     3
  0
ENDBLK
  5
34
330
2B
100
AcDbEntity
  8
0
100
AcDbBlockEnd
  0
BLOCK
  5
3D
330
35
100
AcDbEntity
  8
0
100
AcDbBlockBegin
  2
SEANNOT_GROUP1
 70
     0
 71
     0
 10
0.0
 20
0.0
 30
0.0
  3
SEANNOT_GROUP1
  1

  0
LWPOLYLINE
  5
37
330
35
100
AcDbEntity
  8
Default
  6
Continuous
 62
     7
 48
25.4
100
AcDbPolyline
 90
        2
 70
     0
 43
0.0
 10
254.2793398568
 20
398.2739840148
 10
220.4911812871
 20
382.3002721624
  0
HATCH
  5
38
330
35
100
AcDbEntity
  8
Default
  6
Continuous
 62
     7
 48
25.4
100
AcDbHatch
 10
0.0
 20
0.0
 30
0.0
210
0.0
220
0.0
230
1.0
  2
SOLID
 70
     1
 71
     0
 91
        1
 92
        1
 93
        3
 72
     1
 10
223.8224876842483
 20
384.6125964681265
 11
220.4911812871032
 21
382.3002721623848
 72
     1
 10
220.4911812871033
 20
382.3002721623848
 11
224.3923600862647
 21
383.407182268742
 72
     1
 10
224.3923600862647
 20
383.407182268742
 11
223.8224876842483
 21
384.6125964681264
 97
        0
 75
     0
 76
     1
 98
        0
  0
LWPOLYLINE
  5
39
330
35
100
AcDbEntity
  8
Default
  6
Continuous
 62
     7
 48
25.4
370
    20
100
AcDbPolyline
 90
        4
 70
     1
 43
0.00025
 10
223.8224876842
 20
384.6125964681
 10
220.4911812871
 20
382.3002721624
 10
224.3923600863
 20
383.4071822687
 10
223.8224876842
 20
384.6125964681
  0
LINE
  5
3A
330
35
100
AcDbEntity
  8
Default
  6
Continuous
 62
     7
 48
25.4
100
AcDbLine
 10
254.2793398568
 20
398.2739840148
 30
0.0
 11
326.1199195669
 21
398.2739840148
 31
0.0
  0
TEXT
  5
3B
330
35
100
AcDbEntity
  8
Default
  6
Continuous
 62
     7
 48
25.4
100
AcDbText
 10
254.2793398568
 20
399.2739840148
 30
0.0
 40
4.0
  1
SERRATION PITCH 1.5X60
  7
SEACAD_arial_ttf
 11
254.2793398568
 21
403.2739840148
 31
0.0
100
AcDbText
 73
     3
  0
TEXT
  5
3C
330
35
100
AcDbEntity
  8
Default
  6
Continuous
 62
     7
 48
25.4
100
AcDbText
 10
324.4532529002
 20
399.2739840148
 30
0.0
 40
4.0
  1
°
  7
SEACAD_arial_ttf
 11
324.4532529002
 21
403.2739840148
 31
0.0
100
AcDbText
 73
     3
  0
ENDBLK
  5
3E
330
35
100
AcDbEntity
  8
0
100
AcDbBlockEnd
  0
BLOCK
  5
48
330
3F
100
AcDbEntity
  8
0
100
AcDbBlockBegin
  2
SEANNOT_GROUP2
 70
     0
 71
     0
 10
0.0
 20
0.0
 30
0.0
  3
SEANNOT_GROUP2
  1

  0
LWPOLYLINE
  5
41
330
3F
100
AcDbEntity
  8
Default
  6
Continuous
 62
     7
 48
25.4
100
AcDbPolyline
 90
        2
 70
     0
 43
0.0
 10
240.4713139616
 20
260.9008385977
 10
240.4713139616
 20
239.4772219931
  0
HATCH
  5
42
330
3F
100
AcDbEntity
  8
Default
  6
Continuous
 62
     7
 48
25.4
100
AcDbHatch
 10
0.0
 20
0.0
 30
0.0
210
0.0
220
0.0
230
1.0
  2
SOLID
 70
     1
 71
     0
 91
        1
 92
        1
 93
        3
 72
     1
 10
239.8046472632557
 20
243.4772221831173
 11
240.4713139615873
 21
239.4772219931275
 72
     1
 10
240.4713139615873
 20
239.4772219931275
 11
241.137980659919
 21
243.4772221831173
 72
     1
 10
241.137980659919
 20
243.4772221831173
 11
239.8046472632557
 21
243.4772221831173
 97
        0
 75
     0
 76
     1
 98
        0
  0
LWPOLYLINE
  5
43
330
3F
100
AcDbEntity
  8
Default
  6
Continuous
 62
     7
 48
25.4
370
    20
100
AcDbPolyline
 90
        4
 70
     1
 43
0.00025
 10
239.8046472633
 20
243.4772221831
 10
240.4713139616
 20
239.4772219931
 10
241.1379806599
 20
243.4772221831
 10
239.8046472633
 20
243.4772221831
  0
LINE
  5
44
330
3F
100
AcDbEntity
  8
Default
  6
Continuous
 62
     7
 48
25.4
100
AcDbLine
 10
225.6833234388
 20
239.4772219931
 30
0.0
 11
242.4713139616
 21
239.4772219931
 31
0.0
  0
TEXT
  5
46
330
3F
100
AcDbEntity
  8
Default
  6
Continuous
 62
     7
 48
25.4
100
AcDbText
 10
241.8713139616
 20
258.9008385977
 30
0.0
 40
4.0
  1
O
  7
SEACAD_semeca1_ttf
 11
241.8713139616
 21
262.9008385977
 31
0.0
100
AcDbText
 73
     3
  0
TEXT
  5
47
330
3F
100
AcDbEntity
  8
Default
  6
Continuous
 62
     7
 48
25.4
100
AcDbText
 10
246.4327174704
 20
258.9008385977
 30
0.0
 40
4.0
  1
171.4
  7
SEACAD_arial_ttf
 11
246.4327174704
 21
262.9008385977
 31
0.0
100
AcDbText
 73
     3
  0
ENDBLK
  5
49
330
3F
100
AcDbEntity
  8
0
100
AcDbBlockEnd
  0
BLOCK
  5
51
330
4A
100
AcDbEntity
  8
0
100
AcDbBlockBegin
  2
SEANNOT_GROUP3
 70
     0
 71
     0
 10
0.0
 20
0.0
 30
0.0
  3
SEANNOT_GROUP3
  1

  0
LWPOLYLINE
  5
4C
330
4A
100
AcDbEntity
  8
Default
  6
Continuous
 62
     7
 48
25.4
100
AcDbPolyline
 90
        2
 70
     0
 43
0.0
 10
137.2328227702
 20
338.9818924368
 10
164.2414891736
 20
329.2172219931
  0
HATCH
  5
4D
330
4A
100
AcDbEntity
  8
Default
  6
Continuous
 62
     7
 48
25.4
100
AcDbHatch
 10
0.0
 20
0.0
 30
0.0
210
0.0
220
0.0
230
1.0
  2
SOLID
 70
     1
 71
     0
 91
        1
 92
        1
 93
        3
 72
     1
 10
160.2531205207848
 20
329.9502714429337
 11
164.2414891735953
 21
329.2172219931274
 72
     1
 10
164.2414891735953
 20
329.2172219931274
 11
160.7064537830361
 21
331.2041721168287
 72
     1
 10
160.7064537830361
 20
331.2041721168287
 11
160.2531205207848
 21
329.9502714429337
 97
        0
 75
     0
 76
     1
 98
        0
  0
LWPOLYLINE
  5
4E
330
4A
100
AcDbEntity
  8
Default
  6
Continuous
 62
     7
 48
25.4
370
    20
100
AcDbPolyline
 90
        4
 70
     1
 43
0.00025
 10
160.2531205208
 20
329.9502714429
 10
164.2414891736
 20
329.2172219931
 10
160.706453783
 20
331.2041721168
 10
160.2531205208
 20
329.9502714429
  0
LINE
  5
4F
330
4A
100
AcDbEntity
  8
Default
  6
Continuous
 62
     7
 48
25.4
100
AcDbLine
 10
137.2328227702
 20
338.9818924368
 30
0.0
 11
101.4936923354
 21
338.9818924368
 31
0.0
  0
TEXT
  5
50
330
4A
100
AcDbEntity
  8
Default
  6
Continuous
 62
     7
 48
25.4
100
AcDbText
 10
101.4936923354
 20
339.9818924368
 30
0.0
 40
4.0
  1
MAX M85X2.0
  7
SEACAD_arial_ttf
 11
101.4936923354
 21
343.9818924368
 31
0.0
100
AcDbText
 73
     3
  0
ENDBLK
  5
52
330
4A
100
AcDbEntity
  8
0
100
AcDbBlockEnd
  0
BLOCK
  5
5A
330
53
100
AcDbEntity
  8
0
100
AcDbBlockBegin
  2
SEANNOT_GROUP4
 70
     0
 71
     0
 10
0.0
 20
0.0
 30
0.0
  3
SEANNOT_GROUP4
  1

  0
LWPOLYLINE
  5
55
330
53
100
AcDbEntity
  8
Default
  6
Continuous
 62
     7
 48
25.4
100
AcDbPolyline
 90
        2
 70
     0
 43
0.0
 10
109.1695295306
 20
201.9375694029
 10
134.422091139
 20
233.891903639
  0
HATCH
  5
56
330
53
100
AcDbEntity
  8
Default
  6
Continuous
 62
     7
 48
25.4
100
AcDbHatch
 10
0.0
 20
0.0
 30
0.0
210
0.0
220
0.0
230
1.0
  2
SOLID
 70
     1
 71
     0
 91
        1
 92
        1
 93
        3
 72
     1
 10
132.4650265139898
 20
230.3402358532791
 11
134.4220911389934
 21
233.8919036390021
 72
     1
 10
134.4220911389934
 20
233.8919036390021
 11
131.418921536188
 21
231.166941557914
 72
     1
 10
131.418921536188
 20
231.166941557914
 11
132.4650265139898
 21
230.3402358532791
 97
        0
 75
     0
 76
     1
 98
        0
  0
LWPOLYLINE
  5
57
330
53
100
AcDbEntity
  8
Default
  6
Continuous
 62
     7
 48
25.4
370
    20
100
AcDbPolyline
 90
        4
 70
     1
 43
0.00025
 10
132.465026514
 20
230.3402358533
 10
134.422091139
 20
233.891903639
 10
131.4189215362
 20
231.1669415579
 10
132.465026514
 20
230.3402358533
  0
LINE
  5
58
330
53
100
AcDbEntity
  8
Default
  6
Continuous
 62
     7
 48
25.4
100
AcDbLine
 10
109.1695295306
 20
201.9375694029
 30
0.0
 11
93.3434425741
 21
201.9375694029
 31
0.0
  0
TEXT
  5
59
330
53
100
AcDbEntity
  8
Default
  6
Continuous
 62
     7
 48
25.4
100
AcDbText
 10
93.3434425741
 20
202.9375694029
 30
0.0
 40
4.0
  1
6-M16
  7
SEACAD_arial_ttf
 11
93.3434425741
 21
206.9375694029
 31
0.0
100
AcDbText
 73
     3
  0
ENDBLK
  5
5B
330
53
100
AcDbEntity
  8
0
100
AcDbBlockEnd
  0
BLOCK
  5
64
330
5C
100
AcDbEntity
  8
0
100
AcDbBlockBegin
  2
SEANNOT_GROUP5
 70
     0
 71
     0
 10
0.0
 20
0.0
 30
0.0
  3
SEANNOT_GROUP5
  1

  0
LWPOLYLINE
  5
5E
330
5C
100
AcDbEntity
  8
Default
  6
Continuous
 62
     7
 48
25.4
100
AcDbPolyline
 90
        2
 70
     0
 43
0.0
 10
129.7532120405
 20
355.1459656259
 10
129.7532120405
 20
365.9961170785
  0
HATCH
  5
5F
330
5C
100
AcDbEntity
  8
Default
  6
Continuous
 62
     7
 48
25.4
100
AcDbHatch
 10
0.0
 20
0.0
 30
0.0
210
0.0
220
0.0
230
1.0
  2
SOLID
 70
     1
 71
     0
 91
        1
 92
        1
 93
        3
 72
     1
 10
130.4198787388644
 20
361.996116888475
 11
129.7532120405328
 21
365.9961170784648
 72
     1
 10
129.7532120405328
 20
365.9961170784648
 11
129.0865453422011
 21
361.996116888475
 72
     1
 10
129.0865453422011
 20
361.996116888475
 11
130.4198787388644
 21
361.996116888475
 97
        0
 75
     0
 76
     1
 98
        0
  0
LWPOLYLINE
  5
60
330
5C
100
AcDbEntity
  8
Default
  6
Continuous
 62
     7
 48
25.4
370
    20
100
AcDbPolyline
 90
        4
 70
     1
 43
0.00025
 10
130.4198787389
 20
361.9961168885
 10
129.7532120405
 20
365.9961170785
 10
129.0865453422
 20
361.9961168885
 10
130.4198787389
 20
361.9961168885
  0
LINE
  5
61
330
5C
100
AcDbEntity
  8
Default
  6
Continuous
 62
     7
 48
25.4
100
AcDbLine
 10
134.9995169386
 20
365.9961170785
 30
0.0
 11
127.7532120405
 21
365.9961170785
 31
0.0
  0
TEXT
  5
62
330
5C
100
AcDbEntity
  8
Default
  6
Continuous
 62
     7
 48
25.4
100
AcDbText
 10
114.4005041839
 20
353.1459656259
 30
0.0
 40
4.0
  1
O
  7
SEACAD_semeca1_ttf
 11
114.4005041839
 21
357.1459656259
 31
0.0
100
AcDbText
 73
     3
  0
TEXT
  5
63
330
5C
100
AcDbEntity
  8
Default
  6
Continuous
 62
     7
 48
25.4
100
AcDbText
 10
118.9619076927
 20
353.1459656259
 30
0.0
 40
4.0
  1
190
  7
SEACAD_arial_ttf
 11
118.9619076927
 21
357.1459656259
 31
0.0
100
AcDbText
 73
     3
  0
ENDBLK
  5
65
330
5C
100
AcDbEntity
  8
0
100
AcDbBlockEnd
  0
BLOCK
  5
151
330
66
100
AcDbEntity
  8
0
100
AcDbBlockBegin
  2
SE
 70
     0
 71
     0
 10
0.0
 20
0.0
 30
0.0
  3
SE
  1

  0
LINE
  5
69
330
66
100
AcDbEntity
  8
DV1_Default
  6
Continuous
 62
     7
 48
25.4
100
AcDbLine
 10
218.0411812871
 20
388.3672219931
 30
0.0
 11
150.8411812871
 21
388.3672219931
 31
0.0
  0
LINE
  5
6A
330
66
100
AcDbEntity
  8
DV1_Default
  6
Continuous
 62
     7
 48
25.4
100
AcDbLine
 10
219.4411812871
 20
386.9672219931
 30
0.0
 11
219.4411812871
 21
211.9672219931
 31
0.0
  0
LINE
  5
6B
330
66
100
AcDbEntity
  8
DV1_Default
  6
Continuous
 62
     7
 48
25.4
100
AcDbLine
 10
218.0411812871
 20
210.5672219931
 30
0.0
 11
150.8411812871
 21
210.5672219931
 31
0.0
  0
LINE
  5
6C
330
66
100
AcDbEntity
  8
DV1_Default
  6
Continuous
 62
     7
 48
25.4
100
AcDbLine
 10
149.4411812871
 20
211.9672219931
 30
0.0
 11
149.4411812871
 21
222.4672219931
 31
0.0
  0
LINE
  5
6D
330
66
100
AcDbEntity
  8
DV1_Default
  6
Continuous
 62
     7
 48
25.4
100
AcDbLine
 10
219.4411812871
 20
299.4975679459
 30
0.0
 11
219.4411812871
 21
325.7475679459
 31
0.0
  0
LINE
  5
6E
330
66
100
AcDbEntity
  8
DV1_Default
  6
Continuous
 62
     7
 48
25.4
100
AcDbLine
 10
158.8959023825
 20
299.4672219931
 30
0.0
 11
158.8959023825
 21
331.6672219931
 31
0.0
  0
LINE
  5
6F
330
66
100
AcDbEntity
  8
DV1_Default
  6
Continuous
 62
     7
 48
25.4
100
AcDbLine
 10
159.5959023825
 20
332.3672219931
 30
0.0
 11
171.4959023825
 21
332.3672219931
 31
0.0
  0
LINE
  5
70
330
66
100
AcDbEntity
  8
DV1_Default
  6
Continuous
 62
     7
 48
25.4
100
AcDbLine
 10
171.4959023825
 20
332.3672219931
 30
0.0
 11
171.4959023825
 21
335.1672219931
 31
0.0
  0
LINE
  5
71
330
66
100
AcDbEntity
  8
DV1_Default
  6
Continuous
 62
     7
 48
25.4
100
AcDbLine
 10
171.4959023825
 20
335.1672219931
 30
0.0
 11
178.0269912957
 21
333.4172219931
 31
0.0
  0
LINE
  5
72
330
66
100
AcDbEntity
  8
DV1_Default
  6
Continuous
 62
     7
 48
25.4
100
AcDbLine
 10
158.8959023825
 20
329.2172219931
 30
0.0
 11
173.5959023825
 21
329.2172219931
 31
0.0
  0
LINE
  5
73
330
66
100
AcDbEntity
  8
DV1_Default
  6
Continuous
 62
     7
 48
25.4
100
AcDbLine
 10
173.5959023825
 20
299.4672219931
 30
0.0
 11
173.5959023825
 21
329.9172219931
 31
0.0
  0
LINE
  5
74
330
66
100
AcDbEntity
  8
DV1_Default
  6
Continuous
 62
     7
 48
25.4
100
AcDbLine
 10
173.5959023825
 20
329.9172219931
 30
0.0
 11
176.3959023825
 21
329.9172219931
 31
0.0
  0
LINE
  5
75
330
66
100
AcDbEntity
  8
DV1_Default
  6
Continuous
 62
     7
 48
25.4
100
AcDbLine
 10
176.3959023825
 20
329.9172219931
 30
0.0
 11
176.3959023825
 21
299.4672219931
 31
0.0
  0
LINE
  5
76
330
66
100
AcDbEntity
  8
DV1_Default
  6
Continuous
 62
     7
 48
25.4
100
AcDbLine
 10
158.8959023825
 20
328.5172219931
 30
0.0
 11
173.5959023825
 21
328.5172219931
 31
0.0
  0
LINE
  5
77
330
66
100
AcDbEntity
  8
DV1_Default
  6
Continuous
 62
     7
 48
25.4
100
AcDbLine
 10
158.8959023825
 20
315.2172219931
 30
0.0
 11
173.5959023825
 21
315.2172219931
 31
0.0
  0
LINE
  5
78
330
66
100
AcDbEntity
  8
DV1_Default
  6
Continuous
 62
     7
 48
25.4
100
AcDbLine
 10
178.0269912957
 20
333.4172219931
 30
0.0
 11
178.0269912957
 21
327.5489641876
 31
0.0
  0
LINE
  5
79
330
66
100
AcDbEntity
  8
DV1_Default
  6
Continuous
 62
     7
 48
25.4
100
AcDbLine
 10
178.0269912957
 20
327.5489641876
 30
0.0
 11
180.8269912957
 21
327.5489641876
 31
0.0
  0
LINE
  5
7A
330
66
100
AcDbEntity
  8
DV1_Default
  6
Continuous
 62
     7
 48
25.4
100
AcDbLine
 10
180.8269912957
 20
327.5489641876
 30
0.0
 11
180.8269912957
 21
326.8489641876
 31
0.0
  0
LINE
  5
7B
330
66
100
AcDbEntity
  8
DV1_Default
  6
Continuous
 62
     7
 48
25.4
100
AcDbLine
 10
180.8269912957
 20
326.8489641876
 30
0.0
 11
214.808507466
 21
326.8489641876
 31
0.0
  0
LINE
  5
7C
330
66
100
AcDbEntity
  8
DV1_Default
  6
Continuous
 62
     7
 48
25.4
100
AcDbLine
 10
214.808507466
 20
326.8489641876
 30
0.0
 11
214.808507466
 21
335.1672166316
 31
0.0
  0
LINE
  5
7D
330
66
100
AcDbEntity
  8
DV1_Default
  6
Continuous
 62
     7
 48
25.4
100
AcDbLine
 10
178.0269912957
 20
327.5489641876
 30
0.0
 11
178.0269912957
 21
326.8489641876
 31
0.0
  0
LINE
  5
7E
330
66
100
AcDbEntity
  8
DV1_Default
  6
Continuous
 62
     7
 48
25.4
100
AcDbLine
 10
178.0269912957
 20
326.8489641876
 30
0.0
 11
180.4769912957
 21
326.8489641876
 31
0.0
  0
LINE
  5
7F
330
66
100
AcDbEntity
  8
DV1_Default
  6
Continuous
 62
     7
 48
25.4
100
AcDbLine
 10
181.5269912957
 20
326.8489641876
 30
0.0
 11
181.5269912957
 21
299.4672219931
 31
0.0
  0
LINE
  5
80
330
66
100
AcDbEntity
  8
DV1_Default
  6
Continuous
 62
     7
 48
25.4
100
AcDbLine
 10
219.4411812871
 20
325.7475679459
 30
0.0
 11
182.4903074166
 21
325.7475679459
 31
0.0
  0
LINE
  5
81
330
66
100
AcDbEntity
  8
DV1_Default
  6
Continuous
 62
     7
 48
25.4
100
AcDbLine
 10
180.4769912957
 20
326.8489641876
 30
0.0
 11
180.4769912957
 21
299.4672219931
 31
0.0
  0
LINE
  5
82
330
66
100
AcDbEntity
  8
DV1_Default
  6
Continuous
 62
     7
 48
25.4
100
AcDbLine
 10
181.5269912957
 20
326.7108840668
 30
0.0
 11
182.4903074166
 21
325.7475679459
 31
0.0
  0
LINE
  5
83
330
66
100
AcDbEntity
  8
DV1_Default
  6
Continuous
 62
     7
 48
25.4
100
AcDbLine
 10
182.4903074166
 20
325.7475679459
 30
0.0
 11
182.4903074166
 21
299.4672219931
 31
0.0
  0
LINE
  5
84
330
66
100
AcDbEntity
  8
DV1_Default
  6
Continuous
 62
     7
 48
25.4
100
AcDbLine
 10
178.6997210912
 20
326.8489641876
 30
0.0
 11
178.6997210912
 21
325.4489641876
 31
0.0
  0
LINE
  5
85
330
66
100
AcDbEntity
  8
DV1_Default
  6
Continuous
 62
     7
 48
25.4
100
AcDbLine
 10
176.3958546147
 20
325.4489772999
 30
0.0
 11
180.476943528
 21
325.4489772999
 31
0.0
  0
LINE
  5
86
330
66
100
AcDbEntity
  8
DV1_Default
  6
Continuous
 62
     7
 48
25.4
100
AcDbLine
 10
219.4411812871
 20
335.1672166316
 30
0.0
 11
214.808507466
 21
335.1672166316
 31
0.0
  0
LINE
  5
87
330
66
100
AcDbEntity
  8
DV1_Default
  6
Continuous
 62
     7
 48
25.4
100
AcDbLine
 10
214.808507466
 20
330.9953137453
 30
0.0
 11
215.508507466
 21
330.9953137453
 31
0.0
  0
LINE
  5
88
330
66
100
AcDbEntity
  8
DV1_Default
  6
Continuous
 62
     7
 48
25.4
100
AcDbLine
 10
215.508507466
 20
330.9953137453
 30
0.0
 11
219.4411812871
 21
328.724783456
 31
0.0
  0
LINE
  5
89
330
66
100
AcDbEntity
  8
DV1_Default
  6
Continuous
 62
     7
 48
25.4
100
AcDbLine
 10
158.8959023825
 20
331.6672219931
 30
0.0
 11
159.5959023825
 21
332.3672219931
 31
0.0
  0
LINE
  5
8A
330
66
100
AcDbEntity
  8
DV1_Default
  6
Continuous
 62
     7
 48
25.4
100
AcDbLine
 10
152.9459023825
 20
245.4272195576
 30
0.0
 11
152.9459023825
 21
299.4672219931
 31
0.0
  0
LINE
  5
8B
330
66
100
AcDbEntity
  8
DV1_Default
  6
Continuous
 62
     7
 48
25.4
100
AcDbLine
 10
149.4411812871
 20
376.4672219931
 30
0.0
 11
149.4411812871
 21
386.9672219931
 31
0.0
  0
LINE
  5
8C
330
66
100
AcDbEntity
  8
DV1_Default
  6
Continuous
 62
     7
 48
25.4
100
AcDbLine
 10
165.545054269
 20
332.3672219931
 30
0.0
 11
165.545054269
 21
349.6179119085
 31
0.0
  0
SPLINE
  5
8D
330
66
100
AcDbEntity
  8
DV1_Default
  6
Continuous
 62
     7
 48
25.4
100
AcDbSpline
210
0.0
220
0.0
230
1.0
 70
     8
 71
     3
 72
    16
 73
    12
 74
     0
 42
0.0000000001
 43
0.0000000001
 40
0.0
 40
0.0
 40
0.0
 40
0.0
 40
0.2996202270780546
 40
0.5611262920690557
 40
0.6186809087211949
 40
0.7120385262191443
 40
0.8212407333063133
 40
0.9107335869129496
 40
0.9296176698278028
 40
0.9956438630518225
 40
1.0
 40
1.0
 40
1.0
 40
1.0
 10
149.4404756891823
 20
384.5451414195194
 30
0.0
 10
158.6976930063216
 20
381.7196154116468
 30
0.0
 10
185.1497480815371
 20
375.1279718497623
 30
0.0
 10
162.1395411962689
 20
354.3797359686679
 30
0.0
 10
170.7612099110945
 20
346.95413720535
 30
0.0
 10
167.0009943815253
 20
338.9682734819781
 30
0.0
 10
177.3087111122792
 20
337.8634537787544
 30
0.0
 10
178.8245257434798
 20
330.6535403171457
 30
0.0
 10
183.340192180494
 20
328.4949382602628
 30
0.0
 10
185.9972564078423
 20
328.0546042375215
 30
0.0
 10
187.4978338351318
 20
326.924805983422
 30
0.0
 10
187.596911009462
 20
326.8489641870762
 30
0.0
  0
LINE
  5
8E
330
66
100
AcDbEntity
  8
DV1_Default
  6
Continuous
 62
     7
 48
25.4
100
AcDbLine
 10
219.4411812871
 20
299.4368760403
 30
0.0
 11
219.4411812871
 21
273.1868760403
 31
0.0
  0
LINE
  5
8F
330
66
100
AcDbEntity
  8
DV1_Default
  6
Continuous
 62
     7
 48
25.4
100
AcDbLine
 10
158.8959023825
 20
299.4672219931
 30
0.0
 11
158.8959023825
 21
267.2672219931
 31
0.0
  0
LINE
  5
90
330
66
100
AcDbEntity
  8
DV1_Default
  6
Continuous
 62
     7
 48
25.4
100
AcDbLine
 10
159.5959023825
 20
266.5672219931
 30
0.0
 11
171.4959023825
 21
266.5672219931
 31
0.0
  0
LINE
  5
91
330
66
100
AcDbEntity
  8
DV1_Default
  6
Continuous
 62
     7
 48
25.4
100
AcDbLine
 10
171.4959023825
 20
266.5672219931
 30
0.0
 11
171.4959023825
 21
263.7672219931
 31
0.0
  0
LINE
  5
92
330
66
100
AcDbEntity
  8
DV1_Default
  6
Continuous
 62
     7
 48
25.4
100
AcDbLine
 10
171.4959023825
 20
263.7672219931
 30
0.0
 11
178.0269912957
 21
265.5172219931
 31
0.0
  0
LINE
  5
93
330
66
100
AcDbEntity
  8
DV1_Default
  6
Continuous
 62
     7
 48
25.4
100
AcDbLine
 10
158.8959023825
 20
269.7172219931
 30
0.0
 11
173.5959023825
 21
269.7172219931
 31
0.0
  0
LINE
  5
94
330
66
100
AcDbEntity
  8
DV1_Default
  6
Continuous
 62
     7
 48
25.4
100
AcDbLine
 10
173.5959023825
 20
299.4672219931
 30
0.0
 11
173.5959023825
 21
269.0172219931
 31
0.0
  0
LINE
  5
95
330
66
100
AcDbEntity
  8
DV1_Default
  6
Continuous
 62
     7
 48
25.4
100
AcDbLine
 10
173.5959023825
 20
269.0172219931
 30
0.0
 11
176.3959023825
 21
269.0172219931
 31
0.0
  0
LINE
  5
96
330
66
100
AcDbEntity
  8
DV1_Default
  6
Continuous
 62
     7
 48
25.4
100
AcDbLine
 10
176.3959023825
 20
269.0172219931
 30
0.0
 11
176.3959023825
 21
299.4672219931
 31
0.0
  0
LINE
  5
97
330
66
100
AcDbEntity
  8
DV1_Default
  6
Continuous
 62
     7
 48
25.4
100
AcDbLine
 10
158.8959023825
 20
270.4172219931
 30
0.0
 11
173.5959023825
 21
270.4172219931
 31
0.0
  0
LINE
  5
98
330
66
100
AcDbEntity
  8
DV1_Default
  6
Continuous
 62
     7
 48
25.4
100
AcDbLine
 10
158.8959023825
 20
283.7172219931
 30
0.0
 11
173.5959023825
 21
283.7172219931
 31
0.0
  0
LINE
  5
99
330
66
100
AcDbEntity
  8
DV1_Default
  6
Continuous
 62
     7
 48
25.4
100
AcDbLine
 10
178.0269912957
 20
265.5172219931
 30
0.0
 11
178.0269912957
 21
271.3854797986
 31
0.0
  0
LINE
  5
9A
330
66
100
AcDbEntity
  8
DV1_Default
  6
Continuous
 62
     7
 48
25.4
100
AcDbLine
 10
178.0269912957
 20
271.3854797986
 30
0.0
 11
180.8269912957
 21
271.3854797986
 31
0.0
  0
LINE
  5
9B
330
66
100
AcDbEntity
  8
DV1_Default
  6
Continuous
 62
     7
 48
25.4
100
AcDbLine
 10
180.8269912957
 20
271.3854797986
 30
0.0
 11
180.8269912957
 21
272.0854797986
 31
0.0
  0
LINE
  5
9C
330
66
100
AcDbEntity
  8
DV1_Default
  6
Continuous
 62
     7
 48
25.4
100
AcDbLine
 10
180.8269912957
 20
272.0854797986
 30
0.0
 11
214.808507466
 21
272.0854797986
 31
0.0
  0
LINE
  5
9D
330
66
100
AcDbEntity
  8
DV1_Default
  6
Continuous
 62
     7
 48
25.4
100
AcDbLine
 10
214.808507466
 20
272.0854797986
 30
0.0
 11
214.808507466
 21
269.604639607
 31
0.0
  0
LINE
  5
9E
330
66
100
AcDbEntity
  8
DV1_Default
  6
Continuous
 62
     7
 48
25.4
100
AcDbLine
 10
178.0269912957
 20
271.3854797986
 30
0.0
 11
178.0269912957
 21
272.0854797986
 31
0.0
  0
LINE
  5
9F
330
66
100
AcDbEntity
  8
DV1_Default
  6
Continuous
 62
     7
 48
25.4
100
AcDbLine
 10
178.0269912957
 20
272.0854797986
 30
0.0
 11
180.4769912957
 21
272.0854797986
 31
0.0
  0
LINE
  5
A0
330
66
100
AcDbEntity
  8
DV1_Default
  6
Continuous
 62
     7
 48
25.4
100
AcDbLine
 10
181.5269912957
 20
272.0854797986
 30
0.0
 11
181.5269912957
 21
299.4672219931
 31
0.0
  0
LINE
  5
A1
330
66
100
AcDbEntity
  8
DV1_Default
  6
Continuous
 62
     7
 48
25.4
100
AcDbLine
 10
219.4411812871
 20
273.1868760403
 30
0.0
 11
182.4903074166
 21
273.1868760403
 31
0.0
  0
LINE
  5
A2
330
66
100
AcDbEntity
  8
DV1_Default
  6
Continuous
 62
     7
 48
25.4
100
AcDbLine
 10
180.4769912957
 20
272.0854797986
 30
0.0
 11
180.4769912957
 21
299.4672219931
 31
0.0
  0
LINE
  5
A3
330
66
100
AcDbEntity
  8
DV1_Default
  6
Continuous
 62
     7
 48
25.4
100
AcDbLine
 10
181.5269912957
 20
272.2235599194
 30
0.0
 11
182.4903074166
 21
273.1868760403
 31
0.0
  0
LINE
  5
A4
330
66
100
AcDbEntity
  8
DV1_Default
  6
Continuous
 62
     7
 48
25.4
100
AcDbLine
 10
182.4903074166
 20
273.1868760403
 30
0.0
 11
182.4903074166
 21
299.4672219931
 31
0.0
  0
LINE
  5
A5
330
66
100
AcDbEntity
  8
DV1_Default
  6
Continuous
 62
     7
 48
25.4
100
AcDbLine
 10
178.6997210912
 20
272.0854797986
 30
0.0
 11
178.6997210912
 21
273.4854797986
 31
0.0
  0
LINE
  5
A6
330
66
100
AcDbEntity
  8
DV1_Default
  6
Continuous
 62
     7
 48
25.4
100
AcDbLine
 10
176.3958546147
 20
273.4854666864
 30
0.0
 11
180.476943528
 21
273.4854666864
 31
0.0
  0
LINE
  5
A7
330
66
100
AcDbEntity
  8
DV1_Default
  6
Continuous
 62
     7
 48
25.4
100
AcDbLine
 10
219.4411812871
 20
263.7672273546
 30
0.0
 11
214.808507466
 21
263.7672273546
 31
0.0
  0
LINE
  5
A8
330
66
100
AcDbEntity
  8
DV1_Default
  6
Continuous
 62
     7
 48
25.4
100
AcDbLine
 10
158.8959023825
 20
267.2672219931
 30
0.0
 11
159.5959023825
 21
266.5672219931
 31
0.0
  0
LINE
  5
A9
330
66
100
AcDbEntity
  8
DV1_Default
  6
Continuous
 62
     7
 48
25.4
100
AcDbLine
 10
165.545054269
 20
266.5672219931
 30
0.0
 11
165.545054269
 21
252.1470723312
 31
0.0
  0
LINE
  5
AB
330
66
100
AcDbEntity
  8
DV1_Default
  6
CENTER2
 62
     7
 48
25.4
100
AcDbLine
 10
225.6833234388
 20
239.4772219931
 30
0.0
 11
116.7068512105
 21
239.4772219931
 31
0.0
  0
LINE
  5
AC
330
66
100
AcDbEntity
  8
DV1_Default
  6
Continuous
 62
     7
 48
25.4
100
AcDbLine
 10
219.4411812871
 20
248.2794639552
 30
0.0
 11
207.5411812871
 21
248.2794639552
 31
0.0
  0
LINE
  5
AD
330
66
100
AcDbEntity
  8
DV1_Default
  6
Continuous
 62
     7
 48
25.4
100
AcDbLine
 10
207.5411812871
 20
248.2794639552
 30
0.0
 11
207.5411812871
 21
239.4772219931
 31
0.0
  0
LINE
  5
AE
330
66
100
AcDbEntity
  8
DV1_Default
  6
Continuous
 62
     7
 48
25.4
100
AcDbLine
 10
207.5411812871
 20
245.4272195576
 30
0.0
 11
152.9459023825
 21
245.4272195576
 31
0.0
  0
LINE
  5
AF
330
66
100
AcDbEntity
  8
DV1_Default
  6
Continuous
 62
     7
 48
25.4
100
AcDbLine
 10
207.5411812871
 20
245.4272195576
 30
0.0
 11
207.5411812871
 21
245.0772195576
 31
0.0
  0
LINE
  5
B0
330
66
100
AcDbEntity
  8
DV1_Default
  6
Continuous
 62
     7
 48
25.4
100
AcDbLine
 10
152.9459023825
 20
222.4672219931
 30
0.0
 11
152.9459023825
 21
233.5272244287
 31
0.0
  0
LINE
  5
B1
330
66
100
AcDbEntity
  8
DV1_Default
  6
Continuous
 62
     7
 48
25.4
100
AcDbLine
 10
161.8886774685
 20
245.0772195576
 30
0.0
 11
161.8886774685
 21
239.4772219931
 31
0.0
  0
LINE
  5
B2
330
66
100
AcDbEntity
  8
DV1_Default
  6
Continuous
 62
     7
 48
25.4
100
AcDbLine
 10
165.545054269
 20
266.5672219931
 30
0.0
 11
165.545054269
 21
250.7289499644
 31
0.0
  0
LINE
  5
B3
330
66
100
AcDbEntity
  8
DV1_Default
  6
Continuous
 62
     7
 48
25.4
100
AcDbLine
 10
197.924893829
 20
272.0854797986
 30
0.0
 11
197.924893829
 21
246.8545811525
 31
0.0
  0
LINE
  5
B4
330
66
100
AcDbEntity
  8
DV1_Default
  6
Continuous
 62
     7
 48
25.4
100
AcDbLine
 10
197.924893829
 20
246.8545811525
 30
0.0
 11
152.9459023825
 21
246.8545811525
 31
0.0
  0
LINE
  5
B5
330
66
100
AcDbEntity
  8
DV1_Default
  6
Continuous
 62
     7
 48
25.4
100
AcDbLine
 10
197.924893829
 20
272.0854797986
 30
0.0
 11
197.574893829
 21
272.0854797986
 31
0.0
  0
LINE
  5
B6
330
66
100
AcDbEntity
  8
DV1_Default
  6
Continuous
 62
     7
 48
25.4
100
AcDbLine
 10
197.574893829
 20
272.0854797986
 30
0.0
 11
197.574893829
 21
246.8545811525
 31
0.0
  0
LINE
  5
B7
330
66
100
AcDbEntity
  8
DV1_Default
  6
Continuous
 62
     7
 48
25.4
100
AcDbLine
 10
197.574893829
 20
272.0854797986
 30
0.0
 11
196.874893829
 21
272.0854797986
 31
0.0
  0
LINE
  5
B8
330
66
100
AcDbEntity
  8
DV1_Default
  6
Continuous
 62
     7
 48
25.4
100
AcDbLine
 10
196.874893829
 20
272.0854797986
 30
0.0
 11
196.874893829
 21
254.1417388083
 31
0.0
  0
LINE
  5
B9
330
66
100
AcDbEntity
  8
DV1_Default
  6
Continuous
 62
     7
 48
25.4
100
AcDbLine
 10
196.874893829
 20
254.1417388083
 30
0.0
 11
197.574893829
 21
252.929303243
 31
0.0
  0
LINE
  5
BA
330
66
100
AcDbEntity
  8
DV1_Default
  6
CENTER2
 62
     7
 48
25.4
100
AcDbLine
 10
121.2087041028
 20
299.4961170785
 30
0.0
 11
257.5569555764
 21
299.4961170785
 31
0.0
  0
LINE
  5
BB
330
66
100
AcDbEntity
  8
DV1_Default
  6
Continuous
 62
     7
 48
25.4
100
AcDbLine
 10
167.8091038978
 20
349.6179119085
 30
0.0
 11
152.9459023825
 21
349.6179119085
 31
0.0
  0
LINE
  5
BC
330
66
100
AcDbEntity
  8
DV1_Default
  6
Continuous
 62
     7
 48
25.4
100
AcDbLine
 10
178.0269912957
 20
255.3066838467
 30
0.0
 11
178.0269912957
 21
250.7289499644
 31
0.0
  0
LINE
  5
BD
330
66
100
AcDbEntity
  8
DV1_Default
  6
Continuous
 62
     7
 48
25.4
100
AcDbLine
 10
171.4959023825
 20
263.7672219931
 30
0.0
 11
178.0269912957
 21
263.7672219931
 31
0.0
  0
LINE
  5
BE
330
66
100
AcDbEntity
  8
DV1_Default
  6
Continuous
 62
     7
 48
25.4
100
AcDbLine
 10
165.545054269
 20
257.847866233
 30
0.0
 11
165.545054269
 21
262.747866233
 31
0.0
  0
LINE
  5
BF
330
66
100
AcDbEntity
  8
DV1_Default
  6
Continuous
 62
     7
 48
25.4
100
AcDbLine
 10
178.0269912957
 20
265.5172219931
 30
0.0
 11
178.0269912957
 21
260.2066838467
 31
0.0
  0
LINE
  5
C0
330
66
100
AcDbEntity
  8
DV1_Default
  6
Continuous
 62
     7
 48
25.4
100
AcDbLine
 10
184.6993049316
 20
260.5566838467
 30
0.0
 11
184.6993049316
 21
254.9566838467
 31
0.0
  0
LINE
  5
C1
330
66
100
AcDbEntity
  8
DV1_Default
  6
Continuous
 62
     7
 48
25.4
100
AcDbLine
 10
197.924893829
 20
270.9195092664
 30
0.0
 11
214.808507466
 21
270.9195092664
 31
0.0
  0
LINE
  5
C2
330
66
100
AcDbEntity
  8
DV1_Default
  6
Continuous
 62
     7
 48
25.4
100
AcDbLine
 10
214.808507466
 20
266.0941037538
 30
0.0
 11
214.808507466
 21
263.7672273546
 31
0.0
  0
LINE
  5
C3
330
66
100
AcDbEntity
  8
DV1_Default
  6
Continuous
 62
     7
 48
25.4
100
AcDbLine
 10
207.5411812871
 20
247.9294639552
 30
0.0
 11
218.7411812871
 21
247.9294639552
 31
0.0
  0
LINE
  5
C4
330
66
100
AcDbEntity
  8
DV1_Default
  6
Continuous
 62
     7
 48
25.4
100
AcDbLine
 10
219.0911812871
 20
247.5794639552
 30
0.0
 11
219.0911812871
 21
239.4772219931
 31
0.0
  0
LINE
  5
C5
330
66
100
AcDbEntity
  8
DV1_Default
  6
Continuous
 62
     7
 48
25.4
100
AcDbLine
 10
218.7411812871
 20
247.9294639552
 30
0.0
 11
219.0911812871
 21
247.5794639552
 31
0.0
  0
LINE
  5
C6
330
66
100
AcDbEntity
  8
DV1_Default
  6
Continuous
 62
     7
 48
25.4
100
AcDbLine
 10
218.7411812871
 20
247.9294639552
 30
0.0
 11
218.7411812871
 21
239.4772219931
 31
0.0
  0
LINE
  5
C7
330
66
100
AcDbEntity
  8
DV1_Default
  6
Continuous
 62
     7
 48
25.4
100
AcDbLine
 10
219.4411812871
 20
230.674980031
 30
0.0
 11
207.5411812871
 21
230.674980031
 31
0.0
  0
LINE
  5
C8
330
66
100
AcDbEntity
  8
DV1_Default
  6
Continuous
 62
     7
 48
25.4
100
AcDbLine
 10
207.5411812871
 20
230.674980031
 30
0.0
 11
207.5411812871
 21
239.4772219931
 31
0.0
  0
LINE
  5
C9
330
66
100
AcDbEntity
  8
DV1_Default
  6
Continuous
 62
     7
 48
25.4
100
AcDbLine
 10
207.5411812871
 20
233.5272244287
 30
0.0
 11
152.9459023825
 21
233.5272244287
 31
0.0
  0
LINE
  5
CA
330
66
100
AcDbEntity
  8
DV1_Default
  6
Continuous
 62
     7
 48
25.4
100
AcDbLine
 10
207.5411812871
 20
233.5272244287
 30
0.0
 11
207.5411812871
 21
233.8772244287
 31
0.0
  0
LINE
  5
CB
330
66
100
AcDbEntity
  8
DV1_Default
  6
Continuous
 62
     7
 48
25.4
100
AcDbLine
 10
161.8886774685
 20
233.8772244287
 30
0.0
 11
161.8886774685
 21
239.4772219931
 31
0.0
  0
LINE
  5
CC
330
66
100
AcDbEntity
  8
DV1_Default
  6
Continuous
 62
     7
 48
25.4
100
AcDbLine
 10
207.5411812871
 20
231.024980031
 30
0.0
 11
218.7411812871
 21
231.024980031
 31
0.0
  0
LINE
  5
CD
330
66
100
AcDbEntity
  8
DV1_Default
  6
Continuous
 62
     7
 48
25.4
100
AcDbLine
 10
219.0911812871
 20
231.374980031
 30
0.0
 11
219.0911812871
 21
239.4772219931
 31
0.0
  0
LINE
  5
CE
330
66
100
AcDbEntity
  8
DV1_Default
  6
Continuous
 62
     7
 48
25.4
100
AcDbLine
 10
218.7411812871
 20
231.024980031
 30
0.0
 11
219.0911812871
 21
231.374980031
 31
0.0
  0
LINE
  5
CF
330
66
100
AcDbEntity
  8
DV1_Default
  6
Continuous
 62
     7
 48
25.4
100
AcDbLine
 10
218.7411812871
 20
231.024980031
 30
0.0
 11
218.7411812871
 21
239.4772219931
 31
0.0
  0
LINE
  5
D0
330
66
100
AcDbEntity
  8
DV1_Default
  6
Continuous
 62
     7
 48
25.4
100
AcDbLine
 10
165.545054269
 20
250.7289499644
 30
0.0
 11
178.0269912957
 21
250.7289499644
 31
0.0
  0
LINE
  5
D1
330
66
100
AcDbEntity
  8
DV1_Default
  6
CENTER2
 62
     7
 48
25.4
100
AcDbLine
 10
163.095054269
 20
257.847866233
 30
0.0
 11
188.2587218207
 21
257.847866233
 31
0.0
  0
LINE
  5
D2
330
66
100
AcDbEntity
  8
DV1_Default
  6
Continuous
 62
     7
 48
25.4
100
AcDbLine
 10
171.8026581608
 20
246.8545811525
 30
0.0
 11
171.8026581608
 21
250.7289499644
 31
0.0
  0
LINE
  5
D3
330
66
100
AcDbEntity
  8
DV1_Default
  6
Continuous
 62
     7
 48
25.4
100
AcDbLine
 10
171.8734425847
 20
263.4089934445
 30
0.0
 11
165.545054269
 21
263.4089934445
 31
0.0
  0
LINE
  5
D4
330
66
100
AcDbEntity
  8
DV1_Default
  6
Continuous
 62
     7
 48
25.4
100
AcDbLine
 10
171.8734425847
 20
252.2089934445
 30
0.0
 11
165.545054269
 21
252.2089934445
 31
0.0
  0
LINE
  5
D5
330
66
100
AcDbEntity
  8
DV1_Default
  6
Continuous
 62
     7
 48
25.4
100
AcDbLine
 10
165.545054269
 20
263.4089934445
 30
0.0
 11
165.545054269
 21
263.0589934445
 31
0.0
  0
LINE
  5
D6
330
66
100
AcDbEntity
  8
DV1_Default
  6
Continuous
 62
     7
 48
25.4
100
AcDbLine
 10
166.245054269
 20
263.0589934445
 30
0.0
 11
171.8734425847
 21
263.0589934445
 31
0.0
  0
LINE
  5
D7
330
66
100
AcDbEntity
  8
DV1_Default
  6
Continuous
 62
     7
 48
25.4
100
AcDbLine
 10
171.8734425847
 20
252.5589934445
 30
0.0
 11
166.245054269
 21
252.5589934445
 31
0.0
  0
LINE
  5
D8
330
66
100
AcDbEntity
  8
DV1_Default
  6
Continuous
 62
     7
 48
25.4
100
AcDbLine
 10
165.895054269
 20
252.9089934445
 30
0.0
 11
165.895054269
 21
262.7089934445
 31
0.0
  0
LINE
  5
D9
330
66
100
AcDbEntity
  8
DV1_Default
  6
Continuous
 62
     7
 48
25.4
100
AcDbLine
 10
166.245054269
 20
252.5589934445
 30
0.0
 11
165.895054269
 21
252.9089934445
 31
0.0
  0
LINE
  5
DA
330
66
100
AcDbEntity
  8
DV1_Default
  6
Continuous
 62
     7
 48
25.4
100
AcDbLine
 10
165.895054269
 20
262.7089934445
 30
0.0
 11
166.245054269
 21
263.0589934445
 31
0.0
  0
LINE
  5
DB
330
66
100
AcDbEntity
  8
DV1_Default
  6
Continuous
 62
     7
 48
25.4
100
AcDbLine
 10
166.245054269
 20
263.0589934445
 30
0.0
 11
166.245054269
 21
252.5589934445
 31
0.0
  0
LINE
  5
DC
330
66
100
AcDbEntity
  8
DV1_Default
  6
Continuous
 62
     7
 48
25.4
100
AcDbLine
 10
219.4411812871
 20
270.6221408726
 30
0.0
 11
216.8167641611
 21
270.6221408726
 31
0.0
  0
LINE
  5
DD
330
66
100
AcDbEntity
  8
DV1_Default
  6
Continuous
 62
     7
 48
25.4
100
AcDbLine
 10
216.8167641611
 20
265.0221408726
 30
0.0
 11
219.4411812871
 21
265.0221408726
 31
0.0
  0
LINE
  5
DE
330
66
100
AcDbEntity
  8
DV1_Default
  6
Continuous
 62
     7
 48
25.4
100
AcDbLine
 10
210.34263272
 20
269.604639607
 30
0.0
 11
210.34263272
 21
266.104639607
 31
0.0
  0
LINE
  5
DF
330
66
100
AcDbEntity
  8
DV1_Default
  6
CENTER2
 62
     7
 48
25.4
100
AcDbLine
 10
207.89263272
 20
267.854639607
 30
0.0
 11
224.0453034585
 21
267.854639607
 31
0.0
  0
ARC
  5
E0
330
66
100
AcDbEntity
  8
DV1_Default
  6
Continuous
 62
     7
 48
25.4
100
AcDbCircle
 10
216.6397430521
 20
267.8193472234
 30
0.0
 40
2.746920125371761
100
AcDbArc
 50
273.6949002533
 51
86.3050997467
  0
LINE
  5
E1
330
66
100
AcDbEntity
  8
DV1_Default
  6
Continuous
 62
     7
 48
25.4
100
AcDbLine
 10
220.4911812871
 20
389.0672219931
 30
0.0
 11
249.5411812871
 21
389.0672219931
 31
0.0
  0
LINE
  5
E2
330
66
100
AcDbEntity
  8
DV1_Default
  6
Continuous
 62
     7
 48
25.4
100
AcDbLine
 10
249.5411812871
 20
389.0672219931
 30
0.0
 11
249.5411812871
 21
312.0672219931
 31
0.0
  0
LINE
  5
E3
330
66
100
AcDbEntity
  8
DV1_Default
  6
Continuous
 62
     7
 48
25.4
100
AcDbLine
 10
249.5411812871
 20
312.0672219931
 30
0.0
 11
221.8911812871
 21
312.0672219931
 31
0.0
  0
LINE
  5
E4
330
66
100
AcDbEntity
  8
DV1_Default
  6
Continuous
 62
     7
 48
25.4
100
AcDbLine
 10
220.1411812871
 20
325.696458964
 30
0.0
 11
220.1411812871
 21
388.7172219931
 31
0.0
  0
LINE
  5
E5
330
66
100
AcDbEntity
  8
DV1_Default
  6
Continuous
 62
     7
 48
25.4
100
AcDbLine
 10
221.8911812871
 20
312.0672219931
 30
0.0
 11
223.6411812871
 21
312.0672219931
 31
0.0
  0
LINE
  5
E6
330
66
100
AcDbEntity
  8
DV1_Default
  6
Continuous
 62
     7
 48
25.4
100
AcDbLine
 10
223.6411812871
 20
312.0672219931
 30
0.0
 11
223.6411812871
 21
342.458902376
 31
0.0
  0
LINE
  5
E7
330
66
100
AcDbEntity
  8
DV1_Default
  6
Continuous
 62
     7
 48
25.4
100
AcDbLine
 10
223.6411812871
 20
312.0672219931
 30
0.0
 11
221.8911812871
 21
312.0672219931
 31
0.0
  0
LINE
  5
E8
330
66
100
AcDbEntity
  8
DV1_Default
  6
Continuous
 62
     7
 48
25.4
100
AcDbLine
 10
221.8911812871
 20
312.0672219931
 30
0.0
 11
221.8911812871
 21
325.2668865244
 31
0.0
  0
ARC
  5
E9
330
66
100
AcDbEntity
  8
DV1_Default
  6
Continuous
 62
     7
 48
25.4
100
AcDbCircle
 10
221.4324126611
 20
327.1773236686
 30
0.0
 40
1.96474902581835
100
AcDbArc
 50
228.9133883584
 51
283.5032112507
  0
LINE
  5
EA
330
66
100
AcDbEntity
  8
DV1_Default
  6
Continuous
 62
     7
 48
25.4
100
AcDbLine
 10
249.5411812871
 20
361.4172219931
 30
0.0
 11
230.6411812871
 21
361.4172219931
 31
0.0
  0
LINE
  5
EB
330
66
100
AcDbEntity
  8
DV1_Default
  6
Continuous
 62
     7
 48
25.4
100
AcDbLine
 10
230.6411812871
 20
361.4172219931
 30
0.0
 11
230.6411812871
 21
374.7172219931
 31
0.0
  0
LINE
  5
EC
330
66
100
AcDbEntity
  8
DV1_Default
  6
Continuous
 62
     7
 48
25.4
100
AcDbLine
 10
230.6411812871
 20
374.7172219931
 30
0.0
 11
249.5411812871
 21
374.7172219931
 31
0.0
  0
LINE
  5
ED
330
66
100
AcDbEntity
  8
DV1_Default
  6
Continuous
 62
     7
 48
25.4
100
AcDbLine
 10
230.6411812871
 20
372.6753841269
 30
0.0
 11
223.6411812871
 21
372.6753841269
 31
0.0
  0
LINE
  5
EE
330
66
100
AcDbEntity
  8
DV1_Default
  6
Continuous
 62
     7
 48
25.4
100
AcDbLine
 10
230.6411812871
 20
363.5753841269
 30
0.0
 11
223.6411812871
 21
363.5753841269
 31
0.0
  0
LINE
  5
EF
330
66
100
AcDbEntity
  8
DV1_Default
  6
Continuous
 62
     7
 48
25.4
100
AcDbLine
 10
220.4911812871
 20
375.0827873361
 30
0.0
 11
222.9411812871
 21
375.0827873361
 31
0.0
  0
LINE
  5
F0
330
66
100
AcDbEntity
  8
DV1_Default
  6
Continuous
 62
     7
 48
25.4
100
AcDbLine
 10
222.9411812871
 20
375.0827873361
 30
0.0
 11
222.9411812871
 21
357.5671432514
 31
0.0
  0
LINE
  5
F1
330
66
100
AcDbEntity
  8
DV1_Default
  6
Continuous
 62
     7
 48
25.4
100
AcDbLine
 10
230.6411812871
 20
372.2224715146
 30
0.0
 11
222.9411812871
 21
372.2224715146
 31
0.0
  0
LINE
  5
F2
330
66
100
AcDbEntity
  8
DV1_Default
  6
Continuous
 62
     7
 48
25.4
100
AcDbLine
 10
230.6411812871
 20
371.635740064
 30
0.0
 11
222.9411812871
 21
371.635740064
 31
0.0
  0
LINE
  5
F3
330
66
100
AcDbEntity
  8
DV1_Default
  6
Continuous
 62
     7
 48
25.4
100
AcDbLine
 10
230.6411812871
 20
364.0082312066
 30
0.0
 11
222.9411812871
 21
364.0082312066
 31
0.0
  0
LINE
  5
F4
330
66
100
AcDbEntity
  8
DV1_Default
  6
Continuous
 62
     7
 48
25.4
100
AcDbLine
 10
230.6411812871
 20
364.633709957
 30
0.0
 11
222.9411812871
 21
364.633709957
 31
0.0
  0
LINE
  5
F5
330
66
100
AcDbEntity
  8
DV1_Default
  6
Continuous
 62
     7
 48
25.4
100
AcDbLine
 10
223.6411812871
 20
372.6753841269
 30
0.0
 11
223.6411812871
 21
389.0672219931
 31
0.0
  0
LINE
  5
F6
330
66
100
AcDbEntity
  8
DV1_Default
  6
Continuous
 62
     7
 48
25.4
100
AcDbLine
 10
230.6411812871
 20
374.7172219931
 30
0.0
 11
230.6411812871
 21
374.3672219931
 31
0.0
  0
LINE
  5
F7
330
66
100
AcDbEntity
  8
DV1_Default
  6
Continuous
 62
     7
 48
25.4
100
AcDbLine
 10
230.6411812871
 20
374.3672219931
 30
0.0
 11
238.6911812871
 21
374.3672219931
 31
0.0
  0
LINE
  5
F8
330
66
100
AcDbEntity
  8
DV1_Default
  6
Continuous
 62
     7
 48
25.4
100
AcDbLine
 10
239.0411812871
 20
374.0172219931
 30
0.0
 11
239.0411812871
 21
362.117550327
 31
0.0
  0
LINE
  5
F9
330
66
100
AcDbEntity
  8
DV1_Default
  6
Continuous
 62
     7
 48
25.4
100
AcDbLine
 10
238.6911812871
 20
361.767550327
 30
0.0
 11
230.6411812871
 21
361.767550327
 31
0.0
  0
LINE
  5
FA
330
66
100
AcDbEntity
  8
DV1_Default
  6
Continuous
 62
     7
 48
25.4
100
AcDbLine
 10
238.6911812871
 20
374.3672219931
 30
0.0
 11
239.0411812871
 21
374.0172219931
 31
0.0
  0
LINE
  5
FB
330
66
100
AcDbEntity
  8
DV1_Default
  6
Continuous
 62
     7
 48
25.4
100
AcDbLine
 10
238.6911812871
 20
361.767550327
 30
0.0
 11
239.0411812871
 21
362.117550327
 31
0.0
  0
LINE
  5
FC
330
66
100
AcDbEntity
  8
DV1_Default
  6
Continuous
 62
     7
 48
25.4
100
AcDbLine
 10
238.6911812871
 20
374.3672219931
 30
0.0
 11
238.6911812871
 21
361.767550327
 31
0.0
  0
LINE
  5
FD
330
66
100
AcDbEntity
  8
DV1_Default
  6
Continuous
 62
     7
 48
25.4
100
AcDbLine
 10
220.1411812871
 20
388.7172219931
 30
0.0
 11
220.4911812871
 21
389.0672219931
 31
0.0
  0
LINE
  5
FE
330
66
100
AcDbEntity
  8
DV1_Default
  6
Continuous
 62
     7
 48
25.4
100
AcDbLine
 10
220.4911812871
 20
389.0672219931
 30
0.0
 11
220.4911812871
 21
325.452701323
 31
0.0
  0
LINE
  5
FF
330
66
100
AcDbEntity
  8
DV1_Default
  6
Continuous
 62
     7
 48
25.4
100
AcDbLine
 10
249.5411812871
 20
353.7170645097
 30
0.0
 11
230.6411812871
 21
353.7170645097
 31
0.0
  0
LINE
  5
100
330
66
100
AcDbEntity
  8
DV1_Default
  6
Continuous
 62
     7
 48
25.4
100
AcDbLine
 10
230.6411812871
 20
353.7170645097
 30
0.0
 11
230.6411812871
 21
340.4170645097
 31
0.0
  0
LINE
  5
101
330
66
100
AcDbEntity
  8
DV1_Default
  6
Continuous
 62
     7
 48
25.4
100
AcDbLine
 10
230.6411812871
 20
340.4170645097
 30
0.0
 11
249.5411812871
 21
340.4170645097
 31
0.0
  0
LINE
  5
102
330
66
100
AcDbEntity
  8
DV1_Default
  6
Continuous
 62
     7
 48
25.4
100
AcDbLine
 10
230.6411812871
 20
342.458902376
 30
0.0
 11
223.6411812871
 21
342.458902376
 31
0.0
  0
LINE
  5
103
330
66
100
AcDbEntity
  8
DV1_Default
  6
Continuous
 62
     7
 48
25.4
100
AcDbLine
 10
230.6411812871
 20
351.558902376
 30
0.0
 11
223.6411812871
 21
351.558902376
 31
0.0
  0
LINE
  5
104
330
66
100
AcDbEntity
  8
DV1_Default
  6
Continuous
 62
     7
 48
25.4
100
AcDbLine
 10
220.4911812871
 20
340.0514991667
 30
0.0
 11
222.9411812871
 21
340.0514991667
 31
0.0
  0
LINE
  5
105
330
66
100
AcDbEntity
  8
DV1_Default
  6
Continuous
 62
     7
 48
25.4
100
AcDbLine
 10
222.9411812871
 20
340.0514991667
 30
0.0
 11
222.9411812871
 21
357.5671432514
 31
0.0
  0
LINE
  5
106
330
66
100
AcDbEntity
  8
DV1_Default
  6
Continuous
 62
     7
 48
25.4
100
AcDbLine
 10
230.6411812871
 20
342.9118149883
 30
0.0
 11
222.9411812871
 21
342.9118149883
 31
0.0
  0
LINE
  5
107
330
66
100
AcDbEntity
  8
DV1_Default
  6
Continuous
 62
     7
 48
25.4
100
AcDbLine
 10
230.6411812871
 20
343.4985464388
 30
0.0
 11
222.9411812871
 21
343.4985464388
 31
0.0
  0
LINE
  5
108
330
66
100
AcDbEntity
  8
DV1_Default
  6
Continuous
 62
     7
 48
25.4
100
AcDbLine
 10
230.6411812871
 20
351.1260552962
 30
0.0
 11
222.9411812871
 21
351.1260552962
 31
0.0
  0
LINE
  5
109
330
66
100
AcDbEntity
  8
DV1_Default
  6
Continuous
 62
     7
 48
25.4
100
AcDbLine
 10
230.6411812871
 20
350.5005765459
 30
0.0
 11
222.9411812871
 21
350.5005765459
 31
0.0
  0
LINE
  5
10A
330
66
100
AcDbEntity
  8
DV1_Default
  6
Continuous
 62
     7
 48
25.4
100
AcDbLine
 10
230.6411812871
 20
340.4170645097
 30
0.0
 11
230.6411812871
 21
340.7670645097
 31
0.0
  0
LINE
  5
10B
330
66
100
AcDbEntity
  8
DV1_Default
  6
Continuous
 62
     7
 48
25.4
100
AcDbLine
 10
230.6411812871
 20
340.7670645097
 30
0.0
 11
238.6911812871
 21
340.7670645097
 31
0.0
  0
LINE
  5
10C
330
66
100
AcDbEntity
  8
DV1_Default
  6
Continuous
 62
     7
 48
25.4
100
AcDbLine
 10
239.0411812871
 20
341.1170645097
 30
0.0
 11
239.0411812871
 21
353.0167361759
 31
0.0
  0
LINE
  5
10D
330
66
100
AcDbEntity
  8
DV1_Default
  6
Continuous
 62
     7
 48
25.4
100
AcDbLine
 10
238.6911812871
 20
353.3667361759
 30
0.0
 11
230.6411812871
 21
353.3667361759
 31
0.0
  0
LINE
  5
10E
330
66
100
AcDbEntity
  8
DV1_Default
  6
Continuous
 62
     7
 48
25.4
100
AcDbLine
 10
238.6911812871
 20
340.7670645097
 30
0.0
 11
239.0411812871
 21
341.1170645097
 31
0.0
  0
LINE
  5
10F
330
66
100
AcDbEntity
  8
DV1_Default
  6
Continuous
 62
     7
 48
25.4
100
AcDbLine
 10
238.6911812871
 20
353.3667361759
 30
0.0
 11
239.0411812871
 21
353.0167361759
 31
0.0
  0
LINE
  5
110
330
66
100
AcDbEntity
  8
DV1_Default
  6
Continuous
 62
     7
 48
25.4
100
AcDbLine
 10
238.6911812871
 20
340.7670645097
 30
0.0
 11
238.6911812871
 21
353.3667361759
 31
0.0
  0
LINE
  5
111
330
66
100
AcDbEntity
  8
DV1_Default
  6
Continuous
 62
     7
 48
25.4
100
AcDbLine
 10
223.6411812871
 20
351.558902376
 30
0.0
 11
223.6411812871
 21
363.5753841269
 31
0.0
  0
LINE
  5
112
330
66
100
AcDbEntity
  8
DV1_Default
  6
Continuous
 62
     7
 48
25.4
100
AcDbLine
 10
149.4411812871
 20
386.9672219931
 30
0.0
 11
150.8411812871
 21
388.3672219931
 31
0.0
  0
LINE
  5
113
330
66
100
AcDbEntity
  8
DV1_Default
  6
Continuous
 62
     7
 48
25.4
100
AcDbLine
 10
149.4411812871
 20
211.9672219931
 30
0.0
 11
150.8411812871
 21
210.5672219931
 31
0.0
  0
LINE
  5
114
330
66
100
AcDbEntity
  8
DV1_Default
  6
Continuous
 62
     7
 48
25.4
100
AcDbLine
 10
218.0411812871
 20
210.5672219931
 30
0.0
 11
219.4411812871
 21
211.9672219931
 31
0.0
  0
LINE
  5
115
330
66
100
AcDbEntity
  8
DV1_Default
  6
Continuous
 62
     7
 48
25.4
100
AcDbLine
 10
218.0411812871
 20
388.3672219931
 30
0.0
 11
219.4411812871
 21
386.9672219931
 31
0.0
  0
ARC
  5
116
330
66
100
AcDbEntity
  8
DV1_Default
  6
Continuous
 62
     7
 48
25.4
100
AcDbCircle
 10
222.0788886963
 20
385.6416177977
 30
0.0
 40
3.635113639322379
100
AcDbArc
 50
122.2119514682
 51
149.7873286887
  0
LINE
  5
117
330
66
100
AcDbEntity
  8
DV1_Default
  6
Continuous
 62
     7
 48
25.4
100
AcDbLine
 10
249.5411812871
 20
374.7172219931
 30
0.0
 11
249.5411812871
 21
361.4172219931
 31
0.0
  0
LINE
  5
118
330
66
100
AcDbEntity
  8
DV1_Default
  6
CENTER2
 62
     7
 48
25.4
100
AcDbLine
 10
251.9911812871
 20
368.0672219931
 30
0.0
 11
214.0957340009
 21
368.0672219931
 31
0.0
  0
LINE
  5
119
330
66
100
AcDbEntity
  8
DV1_Default
  6
Continuous
 62
     7
 48
25.4
100
AcDbLine
 10
249.5411812871
 20
353.7170645097
 30
0.0
 11
249.5411812871
 21
340.4170645097
 31
0.0
  0
LINE
  5
11A
330
66
100
AcDbEntity
  8
DV1_Default
  6
CENTER2
 62
     7
 48
25.4
100
AcDbLine
 10
251.9911812871
 20
347.0670645097
 30
0.0
 11
213.7164194133
 21
347.0670645097
 31
0.0
  0
LINE
  5
11B
330
66
100
AcDbEntity
  8
DV1_Default
  6
Continuous
 62
     7
 48
25.4
100
AcDbLine
 10
140.3459023825
 20
370.5461170785
 30
0.0
 11
145.9459023825
 21
370.5461170785
 31
0.0
  0
LINE
  5
11C
330
66
100
AcDbEntity
  8
DV1_Default
  6
Continuous
 62
     7
 48
25.4
100
AcDbLine
 10
145.9459023825
 20
370.5461170785
 30
0.0
 11
145.9459023825
 21
361.4461170785
 31
0.0
  0
LINE
  5
11D
330
66
100
AcDbEntity
  8
DV1_Default
  6
Continuous
 62
     7
 48
25.4
100
AcDbLine
 10
145.9459023825
 20
361.4461170785
 30
0.0
 11
140.3459023825
 21
361.4461170785
 31
0.0
  0
LINE
  5
11E
330
66
100
AcDbEntity
  8
DV1_Default
  6
Continuous
 62
     7
 48
25.4
100
AcDbLine
 10
145.9459023825
 20
365.9961170785
 30
0.0
 11
145.9459023825
 21
368.7961170785
 31
0.0
  0
LINE
  5
11F
330
66
100
AcDbEntity
  8
DV1_Default
  6
Continuous
 62
     7
 48
25.4
100
AcDbLine
 10
145.9459023825
 20
368.7961170785
 30
0.0
 11
160.0239386102
 21
368.7961170785
 31
0.0
  0
LINE
  5
120
330
66
100
AcDbEntity
  8
DV1_Default
  6
Continuous
 62
     7
 48
25.4
100
AcDbLine
 10
160.0239386102
 20
363.1961170785
 30
0.0
 11
145.9459023825
 21
363.1961170785
 31
0.0
  0
LINE
  5
121
330
66
100
AcDbEntity
  8
DV1_Default
  6
Continuous
 62
     7
 48
25.4
100
AcDbLine
 10
145.9459023825
 20
368.5330499862
 30
0.0
 11
160.0239386102
 21
368.5330499862
 31
0.0
  0
LINE
  5
122
330
66
100
AcDbEntity
  8
DV1_Default
  6
Continuous
 62
     7
 48
25.4
100
AcDbLine
 10
145.9459023825
 20
363.4623049151
 30
0.0
 11
160.0239386102
 21
363.4623049151
 31
0.0
  0
LINE
  5
123
330
66
100
AcDbEntity
  8
DV1_Default
  6
Continuous
 62
     7
 48
25.4
100
AcDbLine
 10
145.9459023825
 20
369.1116389555
 30
0.0
 11
152.9459023825
 21
369.1116389555
 31
0.0
  0
LINE
  5
124
330
66
100
AcDbEntity
  8
DV1_Default
  6
Continuous
 62
     7
 48
25.4
100
AcDbLine
 10
145.9459023825
 20
362.9165237563
 30
0.0
 11
152.9459023825
 21
362.9165237563
 31
0.0
  0
LINE
  5
125
330
66
100
AcDbEntity
  8
DV1_Default
  6
Continuous
 62
     7
 48
25.4
100
AcDbLine
 10
152.9459023825
 20
376.4672219931
 30
0.0
 11
152.9459023825
 21
368.7961170785
 31
0.0
  0
LINE
  5
126
330
66
100
AcDbEntity
  8
DV1_Default
  6
Continuous
 62
     7
 48
25.4
100
AcDbLine
 10
152.9459023825
 20
299.4672219931
 30
0.0
 11
152.9459023825
 21
363.1961170785
 31
0.0
  0
LINE
  5
127
330
66
100
AcDbEntity
  8
DV1_Default
  6
Continuous
 62
     7
 48
25.4
100
AcDbLine
 10
145.9459023825
 20
370.5461170785
 30
0.0
 11
145.9459023825
 21
370.1961170785
 31
0.0
  0
LINE
  5
128
330
66
100
AcDbEntity
  8
DV1_Default
  6
Continuous
 62
     7
 48
25.4
100
AcDbLine
 10
145.9459023825
 20
370.1961170785
 30
0.0
 11
141.0459023825
 21
370.1961170785
 31
0.0
  0
LINE
  5
129
330
66
100
AcDbEntity
  8
DV1_Default
  6
Continuous
 62
     7
 48
25.4
100
AcDbLine
 10
140.6959023825
 20
369.8461170785
 30
0.0
 11
140.6959023825
 21
362.1461170785
 31
0.0
  0
LINE
  5
12A
330
66
100
AcDbEntity
  8
DV1_Default
  6
Continuous
 62
     7
 48
25.4
100
AcDbLine
 10
141.0459023825
 20
361.7961170785
 30
0.0
 11
145.9459023825
 21
361.7961170785
 31
0.0
  0
LINE
  5
12B
330
66
100
AcDbEntity
  8
DV1_Default
  6
Continuous
 62
     7
 48
25.4
100
AcDbLine
 10
140.6959023825
 20
369.8461170785
 30
0.0
 11
141.0459023825
 21
370.1961170785
 31
0.0
  0
LINE
  5
12C
330
66
100
AcDbEntity
  8
DV1_Default
  6
Continuous
 62
     7
 48
25.4
100
AcDbLine
 10
141.0459023825
 20
361.7961170785
 30
0.0
 11
140.6959023825
 21
362.1461170785
 31
0.0
  0
LINE
  5
12D
330
66
100
AcDbEntity
  8
DV1_Default
  6
Continuous
 62
     7
 48
25.4
100
AcDbLine
 10
141.0459023825
 20
370.1961170785
 30
0.0
 11
141.0459023825
 21
361.7961170785
 31
0.0
  0
LINE
  5
12E
330
66
100
AcDbEntity
  8
DV1_Default
  6
Continuous
 62
     7
 48
25.4
100
AcDbLine
 10
207.5411812871
 20
245.0772195576
 30
0.0
 11
140.3459023825
 21
245.0772195576
 31
0.0
  0
LINE
  5
12F
330
66
100
AcDbEntity
  8
DV1_Default
  6
Continuous
 62
     7
 48
25.4
100
AcDbLine
 10
140.3459023825
 20
233.8772244287
 30
0.0
 11
207.5411812871
 21
233.8772244287
 31
0.0
  0
LINE
  5
130
330
66
100
AcDbEntity
  8
DV1_Default
  6
Continuous
 62
     7
 48
25.4
100
AcDbLine
 10
152.9459023825
 20
222.4672219931
 30
0.0
 11
141.0459023825
 21
222.4672219931
 31
0.0
  0
LINE
  5
131
330
66
100
AcDbEntity
  8
DV1_Default
  6
Continuous
 62
     7
 48
25.4
100
AcDbLine
 10
141.0459023825
 20
376.4672219931
 30
0.0
 11
152.9459023825
 21
376.4672219931
 31
0.0
  0
LINE
  5
132
330
66
100
AcDbEntity
  8
DV1_Default
  6
Continuous
 62
     7
 48
25.4
100
AcDbLine
 10
140.3459023825
 20
375.7672219931
 30
0.0
 11
140.3459023825
 21
245.0772195576
 31
0.0
  0
LINE
  5
133
330
66
100
AcDbEntity
  8
DV1_Default
  6
Continuous
 62
     7
 48
25.4
100
AcDbLine
 10
160.0239386102
 20
368.7961170785
 30
0.0
 11
160.0239386102
 21
363.1961170785
 31
0.0
  0
LINE
  5
134
330
66
100
AcDbEntity
  8
DV1_Default
  6
CENTER2
 62
     7
 48
25.4
100
AcDbLine
 10
162.4739386102
 20
365.9961170785
 30
0.0
 11
134.9995169386
 21
365.9961170785
 31
0.0
  0
LINE
  5
135
330
66
100
AcDbEntity
  8
DV1_Default
  6
Continuous
 62
     7
 48
25.4
100
AcDbLine
 10
141.0459023825
 20
222.4672219931
 30
0.0
 11
140.3459023825
 21
223.1672219931
 31
0.0
  0
LINE
  5
136
330
66
100
AcDbEntity
  8
DV1_Default
  6
Continuous
 62
     7
 48
25.4
100
AcDbLine
 10
140.3459023825
 20
375.7672219931
 30
0.0
 11
141.0459023825
 21
376.4672219931
 31
0.0
  0
LINE
  5
137
330
66
100
AcDbEntity
  8
DV1_Default
  6
Continuous
 62
     7
 48
25.4
100
AcDbLine
 10
140.3459023825
 20
299.4961170785
 30
0.0
 11
140.3459023825
 21
348.3977670785
 31
0.0
  0
LINE
  5
138
330
66
100
AcDbEntity
  8
DV1_Default
  6
Continuous
 62
     7
 48
25.4
100
AcDbLine
 10
140.3459023825
 20
348.3977670785
 30
0.0
 11
149.4459023825
 21
347.2804275742
 31
0.0
  0
LINE
  5
139
330
66
100
AcDbEntity
  8
DV1_Default
  6
Continuous
 62
     7
 48
25.4
100
AcDbLine
 10
149.4459023825
 20
347.2804275742
 30
0.0
 11
152.9459023825
 21
347.2804275742
 31
0.0
  0
LINE
  5
13A
330
66
100
AcDbEntity
  8
DV1_Default
  6
Continuous
 62
     7
 48
25.4
100
AcDbLine
 10
140.3459023825
 20
250.5944670785
 30
0.0
 11
149.4459023825
 21
251.7118065827
 31
0.0
  0
LINE
  5
13B
330
66
100
AcDbEntity
  8
DV1_Default
  6
Continuous
 62
     7
 48
25.4
100
AcDbLine
 10
149.4459023825
 20
251.7118065827
 30
0.0
 11
152.9459023825
 21
251.7118065827
 31
0.0
  0
LINE
  5
13C
330
66
100
AcDbEntity
  8
DV1_Default
  6
Continuous
 62
     7
 48
25.4
100
AcDbLine
 10
149.4459023825
 20
347.2804275742
 30
0.0
 11
149.4459023825
 21
251.7118065827
 31
0.0
  0
LINE
  5
13D
330
66
100
AcDbEntity
  8
DV1_Default
  6
Continuous
 62
     7
 48
25.4
100
AcDbLine
 10
140.3459023825
 20
233.891903639
 30
0.0
 11
140.3459023825
 21
223.1672219931
 31
0.0
  0
LINE
  5
13E
330
66
100
AcDbEntity
  8
DV1_Default
  6
Continuous
 62
     7
 48
25.4
100
AcDbLine
 10
171.8734425847
 20
263.4089934445
 30
0.0
 11
171.8734425847
 21
252.2089934445
 31
0.0
  0
LINE
  5
13F
330
66
100
AcDbEntity
  8
DV1_Default
  6
Continuous
 62
     7
 48
25.4
100
AcDbLine
 10
171.8734425847
 20
260.2066838467
 30
0.0
 11
184.6993049316
 21
260.2066838467
 31
0.0
  0
LINE
  5
140
330
66
100
AcDbEntity
  8
DV1_Default
  6
Continuous
 62
     7
 48
25.4
100
AcDbLine
 10
171.8734425847
 20
260.5566838467
 30
0.0
 11
184.6993049316
 21
260.5566838467
 31
0.0
  0
LINE
  5
141
330
66
100
AcDbEntity
  8
DV1_Default
  6
Continuous
 62
     7
 48
25.4
100
AcDbLine
 10
171.8734425847
 20
260.9066838467
 30
0.0
 11
178.0269912957
 21
260.9066838467
 31
0.0
  0
LINE
  5
142
330
66
100
AcDbEntity
  8
DV1_Default
  6
Continuous
 62
     7
 48
25.4
100
AcDbLine
 10
171.8734425847
 20
255.3066838467
 30
0.0
 11
184.6993049316
 21
255.3066838467
 31
0.0
  0
LINE
  5
143
330
66
100
AcDbEntity
  8
DV1_Default
  6
Continuous
 62
     7
 48
25.4
100
AcDbLine
 10
171.8734425847
 20
254.9566838467
 30
0.0
 11
184.6993049316
 21
254.9566838467
 31
0.0
  0
LINE
  5
144
330
66
100
AcDbEntity
  8
DV1_Default
  6
Continuous
 62
     7
 48
25.4
100
AcDbLine
 10
171.8734425847
 20
254.6066838467
 30
0.0
 11
178.0269912957
 21
254.6066838467
 31
0.0
  0
LINE
  5
145
330
66
100
AcDbEntity
  8
DV1_Default
  6
Continuous
 62
     7
 48
25.4
100
AcDbLine
 10
216.8167641611
 20
270.6221408726
 30
0.0
 11
216.8167641611
 21
265.0221408726
 31
0.0
  0
LINE
  5
146
330
66
100
AcDbEntity
  8
DV1_Default
  6
Continuous
 62
     7
 48
25.4
100
AcDbLine
 10
216.8167641611
 20
265.8734342982
 30
0.0
 11
214.808507466
 21
265.8734342982
 31
0.0
  0
LINE
  5
147
330
66
100
AcDbEntity
  8
DV1_Default
  6
Continuous
 62
     7
 48
25.4
100
AcDbLine
 10
216.8167641611
 20
266.104639607
 30
0.0
 11
210.34263272
 21
266.104639607
 31
0.0
  0
LINE
  5
148
330
66
100
AcDbEntity
  8
DV1_Default
  6
Continuous
 62
     7
 48
25.4
100
AcDbLine
 10
216.8206719029
 20
266.3609231326
 30
0.0
 11
210.3465404618
 21
266.3609231326
 31
0.0
  0
LINE
  5
149
330
66
100
AcDbEntity
  8
DV1_Default
  6
Continuous
 62
     7
 48
25.4
100
AcDbLine
 10
216.8167641611
 20
269.270833121
 30
0.0
 11
210.34263272
 21
269.270833121
 31
0.0
  0
LINE
  5
14A
330
66
100
AcDbEntity
  8
DV1_Default
  6
Continuous
 62
     7
 48
25.4
100
AcDbLine
 10
216.8167641611
 20
269.604639607
 30
0.0
 11
210.34263272
 21
269.604639607
 31
0.0
  0
LINE
  5
14B
330
66
100
AcDbEntity
  8
DV1_Default
  6
Continuous
 62
     7
 48
25.4
100
AcDbLine
 10
216.8165568529
 20
269.8648793111
 30
0.0
 11
214.8083001578
 21
269.8648793111
 31
0.0
  0
LINE
  5
14C
330
66
100
AcDbEntity
  8
DV1_Default
  6
Continuous
 62
     7
 48
25.4
100
AcDbLine
 10
140.3459023825
 20
233.891903639
 30
0.0
 11
123.5459023825
 21
233.891903639
 31
0.0
  0
LINE
  5
14D
330
66
100
AcDbEntity
  8
DV1_Default
  6
Continuous
 62
     7
 48
25.4
100
AcDbLine
 10
123.5459023825
 20
233.891903639
 30
0.0
 11
123.5459023825
 21
245.0772195576
 31
0.0
  0
LINE
  5
14E
330
66
100
AcDbEntity
  8
DV1_Default
  6
Continuous
 62
     7
 48
25.4
100
AcDbLine
 10
123.5459023825
 20
245.0772195576
 30
0.0
 11
140.3459023825
 21
245.0772195576
 31
0.0
  0
LINE
  5
14F
330
66
100
AcDbEntity
  8
DV1_Default
  6
Continuous
 62
     7
 48
25.4
100
AcDbLine
 10
123.5459023825
 20
244.1157010306
 30
0.0
 11
161.8886774685
 21
244.1157010306
 31
0.0
  0
LINE
  5
150
330
66
100
AcDbEntity
  8
DV1_Default
  6
Continuous
 62
     7
 48
25.4
100
AcDbLine
 10
123.5459023825
 20
234.7863109227
 30
0.0
 11
161.9142693238
 21
234.7863109227
 31
0.0
  0
ENDBLK
  5
152
330
66
100
AcDbEntity
  8
0
100
AcDbBlockEnd
  0
BLOCK
  5
1DA
330
153
100
AcDbEntity
  8
0
100
AcDbBlockBegin
  2
SE1
 70
     0
 71
     0
 10
0.0
 20
0.0
 30
0.0
  3
SE1
  1

  0
LINE
  5
156
330
153
100
AcDbEntity
  8
DV2_Default
  6
Continuous
 62
     7
 48
25.4
100
AcDbLine
 10
433.117475959
 20
267.3415114087
 30
0.0
 11
432.417475959
 21
266.1290758434
 31
0.0
  0
LINE
  5
157
330
153
100
AcDbEntity
  8
DV2_Default
  6
Continuous
 62
     7
 48
25.4
100
AcDbLine
 10
432.417475959
 20
266.1290758434
 30
0.0
 11
433.117475959
 21
264.9166402781
 31
0.0
  0
LINE
  5
158
330
153
100
AcDbEntity
  8
DV2_Default
  6
Continuous
 62
     7
 48
25.4
100
AcDbLine
 10
433.117475959
 20
264.9166402781
 30
0.0
 11
434.517475959
 21
264.9166402781
 31
0.0
  0
LINE
  5
159
330
153
100
AcDbEntity
  8
DV2_Default
  6
Continuous
 62
     7
 48
25.4
100
AcDbLine
 10
434.517475959
 20
264.9166402781
 30
0.0
 11
435.217475959
 21
266.1290758434
 31
0.0
  0
LINE
  5
15A
330
153
100
AcDbEntity
  8
DV2_Default
  6
Continuous
 62
     7
 48
25.4
100
AcDbLine
 10
435.217475959
 20
266.1290758434
 30
0.0
 11
434.517475959
 21
267.3415114087
 31
0.0
  0
LINE
  5
15B
330
153
100
AcDbEntity
  8
DV2_Default
  6
Continuous
 62
     7
 48
25.4
100
AcDbLine
 10
433.117475959
 20
267.3415114087
 30
0.0
 11
434.517475959
 21
267.3415114087
 31
0.0
  0
LINE
  5
15C
330
153
100
AcDbEntity
  8
DV2_Default
  6
Continuous
 62
     7
 48
25.4
100
AcDbLine
 10
433.8161382168
 20
210.3834871741
 30
0.0
 11
428.2161382168
 21
210.3834871741
 31
0.0
  0
LINE
  5
15D
330
153
100
AcDbEntity
  8
DV2_Default
  6
Continuous
 62
     7
 48
25.4
100
AcDbLine
 10
510.5854699379
 20
254.7062815088
 30
0.0
 11
503.2354699379
 21
241.9757080732
 31
0.0
  0
LINE
  5
15E
330
153
100
AcDbEntity
  8
DV2_Default
  6
Continuous
 62
     7
 48
25.4
100
AcDbLine
 10
503.2354699379
 20
241.9757080732
 30
0.0
 11
454.278574219
 21
270.2409849951
 31
0.0
  0
LINE
  5
15F
330
153
100
AcDbEntity
  8
DV2_Default
  6
Continuous
 62
     7
 48
25.4
100
AcDbLine
 10
468.978574219
 20
295.7021318664
 30
0.0
 11
517.9354699379
 21
267.4368549444
 31
0.0
  0
LINE
  5
160
330
153
100
AcDbEntity
  8
DV2_Default
  6
Continuous
 62
     7
 48
25.4
100
AcDbLine
 10
517.9354699379
 20
267.4368549444
 30
0.0
 11
510.5854699379
 21
254.7062815088
 31
0.0
  0
LINE
  5
161
330
153
100
AcDbEntity
  8
DV2_Default
  6
Continuous
 62
     7
 48
25.4
100
AcDbLine
 10
517.9354699379
 20
267.4368549444
 30
0.0
 11
520.1089106321
 21
277.6620894759
 31
0.0
  0
LINE
  5
162
330
153
100
AcDbEntity
  8
DV2_Default
  6
Continuous
 62
     7
 48
25.4
100
AcDbLine
 10
503.2354699379
 20
241.9757080732
 30
0.0
 11
495.4668774211
 21
234.9808359525
 31
0.0
  0
LINE
  5
163
330
153
100
AcDbEntity
  8
DV2_Default
  6
Continuous
 62
     7
 48
25.4
100
AcDbLine
 10
510.5854699379
 20
254.7062815088
 30
0.0
 11
507.7854699379
 21
249.8565392476
 31
0.0
  0
LINE
  5
164
330
153
100
AcDbEntity
  8
DV2_Default
  6
Continuous
 62
     7
 48
25.4
100
AcDbLine
 10
507.7854699379
 20
249.8565392476
 30
0.0
 11
461.1067006739
 21
276.8065392476
 31
0.0
  0
LINE
  5
165
330
153
100
AcDbEntity
  8
DV2_Default
  6
Continuous
 62
     7
 48
25.4
100
AcDbLine
 10
461.1067006739
 20
276.8065392476
 30
0.0
 11
456.5567006739
 21
268.9257080732
 31
0.0
  0
LINE
  5
166
330
153
100
AcDbEntity
  8
DV2_Default
  6
Continuous
 62
     7
 48
25.4
100
AcDbLine
 10
513.3854699379
 20
259.55602377
 30
0.0
 11
466.7067006739
 21
286.50602377
 31
0.0
  0
LINE
  5
167
330
153
100
AcDbEntity
  8
DV2_Default
  6
Continuous
 62
     7
 48
25.4
100
AcDbLine
 10
466.7067006739
 20
286.50602377
 30
0.0
 11
471.2567006739
 21
294.3868549444
 31
0.0
  0
ARC
  5
168
330
153
100
AcDbEntity
  8
DV2_Default
  6
Continuous
 62
     7
 48
25.4
100
AcDbCircle
 10
467.9506659674
 20
279.321497058
 30
0.0
 40
5.599999999999994
100
AcDbArc
 50
60.0
 51
240.0
  0
ARC
  5
169
330
153
100
AcDbEntity
  8
DV2_Default
  6
Continuous
 62
     7
 48
25.4
100
AcDbCircle
 10
469.8617027005
 20
278.2181594857
 30
0.0
 40
6.506942592812056
100
AcDbArc
 50
90.6138174333
 51
209.3861825667
  0
LINE
  5
16A
330
153
100
AcDbEntity
  8
DV2_Default
  6
Continuous
 62
     7
 48
25.4
100
AcDbLine
 10
470.9161381405
 20
299.0314558669
 30
0.0
 11
452.3640770179
 21
266.8983434174
 31
0.0
  0
LINE
  5
16B
330
153
100
AcDbEntity
  8
DV2_Default
  6
Continuous
 62
     7
 48
25.4
100
AcDbLine
 10
470.7183993757
 20
302.8544021513
 30
0.0
 11
448.9544390359
 21
265.1581170688
 31
0.0
  0
LINE
  5
16C
330
153
100
AcDbEntity
  8
DV2_Default
  6
Continuous
 62
     7
 48
25.4
100
AcDbLine
 10
357.0468064958
 20
254.7062815088
 30
0.0
 11
349.6968064958
 21
267.4368549444
 31
0.0
  0
LINE
  5
16D
330
153
100
AcDbEntity
  8
DV2_Default
  6
Continuous
 62
     7
 48
25.4
100
AcDbLine
 10
349.6968064958
 20
267.4368549444
 30
0.0
 11
398.6537022146
 21
295.7021318664
 31
0.0
  0
LINE
  5
16E
330
153
100
AcDbEntity
  8
DV2_Default
  6
Continuous
 62
     7
 48
25.4
100
AcDbLine
 10
413.3537022146
 20
270.2409849951
 30
0.0
 11
364.3968064958
 21
241.9757080732
 31
0.0
  0
LINE
  5
16F
330
153
100
AcDbEntity
  8
DV2_Default
  6
Continuous
 62
     7
 48
25.4
100
AcDbLine
 10
364.3968064958
 20
241.9757080732
 30
0.0
 11
357.0468064958
 21
254.7062815088
 31
0.0
  0
LINE
  5
170
330
153
100
AcDbEntity
  8
DV2_Default
  6
Continuous
 62
     7
 48
25.4
100
AcDbLine
 10
364.3968064958
 20
241.9757080732
 30
0.0
 11
372.1653990126
 21
234.9808359525
 31
0.0
  0
LINE
  5
171
330
153
100
AcDbEntity
  8
DV2_Default
  6
Continuous
 62
     7
 48
25.4
100
AcDbLine
 10
349.6968064958
 20
267.4368549444
 30
0.0
 11
347.5233658015
 21
277.6620894759
 31
0.0
  0
LINE
  5
172
330
153
100
AcDbEntity
  8
DV2_Default
  6
Continuous
 62
     7
 48
25.4
100
AcDbLine
 10
357.0468064958
 20
254.7062815088
 30
0.0
 11
354.2468064958
 21
259.55602377
 31
0.0
  0
LINE
  5
173
330
153
100
AcDbEntity
  8
DV2_Default
  6
Continuous
 62
     7
 48
25.4
100
AcDbLine
 10
354.2468064958
 20
259.55602377
 30
0.0
 11
400.9255757598
 21
286.50602377
 31
0.0
  0
LINE
  5
174
330
153
100
AcDbEntity
  8
DV2_Default
  6
Continuous
 62
     7
 48
25.4
100
AcDbLine
 10
400.9255757598
 20
286.50602377
 30
0.0
 11
396.3755757598
 21
294.3868549444
 31
0.0
  0
LINE
  5
175
330
153
100
AcDbEntity
  8
DV2_Default
  6
Continuous
 62
     7
 48
25.4
100
AcDbLine
 10
359.8468064958
 20
249.8565392476
 30
0.0
 11
406.5255757598
 21
276.8065392476
 31
0.0
  0
LINE
  5
176
330
153
100
AcDbEntity
  8
DV2_Default
  6
Continuous
 62
     7
 48
25.4
100
AcDbLine
 10
406.5255757598
 20
276.8065392476
 30
0.0
 11
411.0755757598
 21
268.9257080732
 31
0.0
  0
ARC
  5
177
330
153
100
AcDbEntity
  8
DV2_Default
  6
Continuous
 62
     7
 48
25.4
100
AcDbCircle
 10
399.6816104663
 20
279.321497058
 30
0.0
 40
5.599999999999994
100
AcDbArc
 50
300.0
 51
120.0
  0
ARC
  5
178
330
153
100
AcDbEntity
  8
DV2_Default
  6
Continuous
 62
     7
 48
25.4
100
AcDbCircle
 10
397.7705737332
 20
278.2181594857
 30
0.0
 40
6.506942592812056
100
AcDbArc
 50
330.6138174333
 51
89.3861825667
  0
LINE
  5
179
330
153
100
AcDbEntity
  8
DV2_Default
  6
Continuous
 62
     7
 48
25.4
100
AcDbLine
 10
415.2681994158
 20
266.8983434174
 30
0.0
 11
396.7161382932
 21
299.0314558669
 31
0.0
  0
LINE
  5
17A
330
153
100
AcDbEntity
  8
DV2_Default
  6
Continuous
 62
     7
 48
25.4
100
AcDbLine
 10
418.6778373978
 20
265.1581170688
 30
0.0
 11
396.913877058
 21
302.8544021513
 31
0.0
  0
LINE
  5
17B
330
153
100
AcDbEntity
  8
DV2_Default
  6
Continuous
 62
     7
 48
25.4
100
AcDbLine
 10
448.555517367
 20
387.6565982983
 30
0.0
 11
448.555517367
 21
331.1801206665
 31
0.0
  0
LINE
  5
17C
330
153
100
AcDbEntity
  8
DV2_Default
  6
Continuous
 62
     7
 48
25.4
100
AcDbLine
 10
419.1554732442
 20
331.1801206665
 30
0.0
 11
419.1554732442
 21
387.6925978175
 31
0.0
  0
LINE
  5
17D
330
153
100
AcDbEntity
  8
DV2_Default
  6
Continuous
 62
     7
 48
25.4
100
AcDbLine
 10
419.2246934061
 20
387.6925978175
 30
0.0
 11
409.2787121552
 21
384.474411584
 31
0.0
  0
LINE
  5
17E
330
153
100
AcDbEntity
  8
DV2_Default
  6
Continuous
 62
     7
 48
25.4
100
AcDbLine
 10
448.6246713658
 20
387.6565982983
 30
0.0
 11
458.5627416307
 21
384.4140645535
 31
0.0
  0
LINE
  5
17F
330
153
100
AcDbEntity
  8
DV2_Default
  6
Continuous
 62
     7
 48
25.4
100
AcDbLine
 10
415.3034313164
 20
331.1801206665
 30
0.0
 11
419.8161382168
 21
331.1801206665
 31
0.0
  0
LINE
  5
180
330
153
100
AcDbEntity
  8
DV2_Default
  6
Continuous
 62
     7
 48
25.4
100
AcDbLine
 10
412.0889842718
 20
329.1013351773
 30
0.0
 11
419.8161382168
 21
329.1013351773
 31
0.0
  0
ARC
  5
181
330
153
100
AcDbEntity
  8
DV2_Default
  6
CENTER2
 62
     7
 48
25.4
100
AcDbCircle
 10
433.8161382168
 20
299.0290758434
 30
0.0
 40
32.9
100
AcDbArc
 50
25.1222906181
 51
34.8777093819
  0
ARC
  5
182
330
153
100
AcDbEntity
  8
DV2_Default
  6
Continuous
 62
     7
 48
25.4
100
AcDbCircle
 10
433.8161382168
 20
299.0290758434
 30
0.0
 40
37.09999999999999
100
AcDbArc
 50
353.342484405
 51
66.5873584171
  0
ARC
  5
183
330
153
100
AcDbEntity
  8
DV2_Default
  6
Continuous
 62
     7
 48
25.4
100
AcDbCircle
 10
433.8161382168
 20
299.0290758434
 30
0.0
 40
37.09999999999999
100
AcDbArc
 50
113.2723272271
 51
186.657515595
  0
ARC
  5
184
330
153
100
AcDbEntity
  8
DV2_Default
  6
CENTER2
 62
     7
 48
25.4
100
AcDbCircle
 10
433.8161382168
 20
299.0290758434
 30
0.0
 40
32.9
100
AcDbArc
 50
145.1222906181
 51
154.8777093819
  0
ARC
  5
185
330
153
100
AcDbEntity
  8
DV2_Default
  6
CENTER2
 62
     7
 48
25.4
100
AcDbCircle
 10
433.8161382168
 20
299.0290758434
 30
0.0
 40
32.9
100
AcDbArc
 50
265.1222906181
 51
274.8777093819
  0
ARC
  5
186
330
153
100
AcDbEntity
  8
DV2_Default
  6
Continuous
 62
     7
 48
25.4
100
AcDbCircle
 10
433.8161382168
 20
299.0290758434
 30
0.0
 40
37.09999999999999
100
AcDbArc
 50
233.342484405
 51
306.657515595
  0
CIRCLE
  5
187
330
153
100
AcDbEntity
  8
DV2_Default
  6
Continuous
 62
     7
 48
25.4
100
AcDbCircle
 10
433.8161382168
 20
266.1290758434
 30
0.0
 40
3.5
  0
CIRCLE
  5
188
330
153
100
AcDbEntity
  8
DV2_Default
  6
Continuous
 62
     7
 48
25.4
100
AcDbCircle
 10
433.8161382168
 20
266.1290758434
 30
0.0
 40
3.15
  0
LINE
  5
189
330
153
100
AcDbEntity
  8
DV2_Default
  6
Continuous
 62
     7
 48
25.4
100
AcDbLine
 10
461.6077051303
 20
314.2677987968
 30
0.0
 11
463.0077051303
 21
314.2677987968
 31
0.0
  0
LINE
  5
18A
330
153
100
AcDbEntity
  8
DV2_Default
  6
Continuous
 62
     7
 48
25.4
100
AcDbLine
 10
463.0077051303
 20
314.2677987968
 30
0.0
 11
463.7077051303
 21
315.4802343621
 31
0.0
  0
LINE
  5
18B
330
153
100
AcDbEntity
  8
DV2_Default
  6
Continuous
 62
     7
 48
25.4
100
AcDbLine
 10
463.7077051303
 20
315.4802343621
 30
0.0
 11
463.0077051303
 21
316.6926699274
 31
0.0
  0
LINE
  5
18C
330
153
100
AcDbEntity
  8
DV2_Default
  6
Continuous
 62
     7
 48
25.4
100
AcDbLine
 10
463.0077051303
 20
316.6926699274
 30
0.0
 11
461.6077051303
 21
316.6926699274
 31
0.0
  0
LINE
  5
18D
330
153
100
AcDbEntity
  8
DV2_Default
  6
Continuous
 62
     7
 48
25.4
100
AcDbLine
 10
461.6077051303
 20
316.6926699274
 30
0.0
 11
460.9077051303
 21
315.4802343621
 31
0.0
  0
LINE
  5
18E
330
153
100
AcDbEntity
  8
DV2_Default
  6
Continuous
 62
     7
 48
25.4
100
AcDbLine
 10
461.6077051303
 20
314.2677987968
 30
0.0
 11
460.9077051303
 21
315.4802343621
 31
0.0
  0
CIRCLE
  5
18F
330
153
100
AcDbEntity
  8
DV2_Default
  6
Continuous
 62
     7
 48
25.4
100
AcDbCircle
 10
462.3083740013
 20
315.4790758434
 30
0.0
 40
3.5
  0
CIRCLE
  5
190
330
153
100
AcDbEntity
  8
DV2_Default
  6
Continuous
 62
     7
 48
25.4
100
AcDbCircle
 10
462.3083740013
 20
315.4790758434
 30
0.0
 40
3.15
  0
LINE
  5
191
330
153
100
AcDbEntity
  8
DV2_Default
  6
Continuous
 62
     7
 48
25.4
100
AcDbLine
 10
406.7232335613
 20
315.4779173248
 30
0.0
 11
406.0232335613
 21
316.6903528901
 31
0.0
  0
LINE
  5
192
330
153
100
AcDbEntity
  8
DV2_Default
  6
Continuous
 62
     7
 48
25.4
100
AcDbLine
 10
406.0232335613
 20
316.6903528901
 30
0.0
 11
404.6232335613
 21
316.6903528901
 31
0.0
  0
LINE
  5
193
330
153
100
AcDbEntity
  8
DV2_Default
  6
Continuous
 62
     7
 48
25.4
100
AcDbLine
 10
404.6232335613
 20
316.6903528901
 30
0.0
 11
403.9232335613
 21
315.4779173248
 31
0.0
  0
LINE
  5
194
330
153
100
AcDbEntity
  8
DV2_Default
  6
Continuous
 62
     7
 48
25.4
100
AcDbLine
 10
403.9232335613
 20
315.4779173248
 30
0.0
 11
404.6232335613
 21
314.2654817595
 31
0.0
  0
LINE
  5
195
330
153
100
AcDbEntity
  8
DV2_Default
  6
Continuous
 62
     7
 48
25.4
100
AcDbLine
 10
404.6232335613
 20
314.2654817595
 30
0.0
 11
406.0232335613
 21
314.2654817595
 31
0.0
  0
LINE
  5
196
330
153
100
AcDbEntity
  8
DV2_Default
  6
Continuous
 62
     7
 48
25.4
100
AcDbLine
 10
406.7232335613
 20
315.4779173248
 30
0.0
 11
406.0232335613
 21
314.2654817595
 31
0.0
  0
CIRCLE
  5
197
330
153
100
AcDbEntity
  8
DV2_Default
  6
Continuous
 62
     7
 48
25.4
100
AcDbCircle
 10
405.3239024323
 20
315.4790758434
 30
0.0
 40
3.5
  0
CIRCLE
  5
198
330
153
100
AcDbEntity
  8
DV2_Default
  6
Continuous
 62
     7
 48
25.4
100
AcDbCircle
 10
405.3239024323
 20
315.4790758434
 30
0.0
 40
3.15
  0
ARC
  5
199
330
153
100
AcDbEntity
  8
DV2_Default
  6
Continuous
 62
     7
 48
25.4
100
AcDbCircle
 10
433.8161382168
 20
299.0290758434
 30
0.0
 40
88.89999999999999
100
AcDbArc
 50
339.517818872
 51
80.4564461673
  0
ARC
  5
19A
330
153
100
AcDbEntity
  8
DV2_Default
  6
Continuous
 62
     7
 48
25.4
100
AcDbCircle
 10
433.8161382168
 20
299.0290758434
 30
0.0
 40
88.89999999999999
100
AcDbArc
 50
219.517818872
 51
320.482181128
  0
ARC
  5
19B
330
153
100
AcDbEntity
  8
DV2_Default
  6
Continuous
 62
     7
 48
25.4
100
AcDbCircle
 10
433.8161382168
 20
299.0290758434
 30
0.0
 40
88.89999999999999
100
AcDbArc
 50
99.4921146809
 51
200.482181128
  0
LINE
  5
19C
330
153
100
AcDbEntity
  8
DV2_Default
  6
Continuous
 62
     7
 48
25.4
100
AcDbLine
 10
447.8161382168
 20
388.6290758434
 30
0.0
 11
447.8161382168
 21
316.6616918201
 31
0.0
  0
LINE
  5
19D
330
153
100
AcDbEntity
  8
DV2_Default
  6
Continuous
 62
     7
 48
25.4
100
AcDbLine
 10
439.0993916502
 20
311.6290758434
 30
0.0
 11
428.5993916502
 21
311.6290758434
 31
0.0
  0
LINE
  5
19E
330
153
100
AcDbEntity
  8
DV2_Default
  6
Continuous
 62
     7
 48
25.4
100
AcDbLine
 10
419.8161382168
 20
316.7000895775
 30
0.0
 11
419.8161382168
 21
388.6290758434
 31
0.0
  0
LINE
  5
19F
330
153
100
AcDbEntity
  8
DV2_Default
  6
Continuous
 62
     7
 48
25.4
100
AcDbLine
 10
419.8161382168
 20
388.6290758434
 30
0.0
 11
447.8161382168
 21
388.6290758434
 31
0.0
  0
LINE
  5
1A0
330
153
100
AcDbEntity
  8
DV2_Default
  6
Continuous
 62
     7
 48
25.4
100
AcDbLine
 10
419.1554732442
 20
387.6925978175
 30
0.0
 11
419.8161382168
 21
387.6925978175
 31
0.0
  0
LINE
  5
1A1
330
153
100
AcDbEntity
  8
DV2_Default
  6
Continuous
 62
     7
 48
25.4
100
AcDbLine
 10
448.6246713658
 20
387.6565982983
 30
0.0
 11
447.8161382168
 21
387.6565982983
 31
0.0
  0
LINE
  5
1A2
330
153
100
AcDbEntity
  8
DV2_Default
  6
Continuous
 62
     7
 48
25.4
100
AcDbLine
 10
447.8161382168
 20
331.1801206665
 30
0.0
 11
452.3280726725
 21
331.1801206665
 31
0.0
  0
LINE
  5
1A3
330
153
100
AcDbEntity
  8
DV2_Default
  6
Continuous
 62
     7
 48
25.4
100
AcDbLine
 10
447.8161382168
 20
329.1013351773
 30
0.0
 11
455.5432921619
 21
329.1013351773
 31
0.0
  0
ARC
  5
1A4
330
153
100
AcDbEntity
  8
DV2_Default
  6
Continuous
 62
     7
 48
25.4
100
AcDbCircle
 10
433.8161382168
 20
299.0290758434
 30
0.0
 40
26.25
100
AcDbArc
 50
122.2309526355
 51
57.7690473645
  0
LINE
  5
1A5
330
153
100
AcDbEntity
  8
DV2_Default
  6
CENTER2
 62
     7
 48
25.4
100
AcDbLine
 10
433.8161382168
 20
301.4790758434
 30
0.0
 11
433.8161382168
 21
199.211325562
 31
0.0
  0
LINE
  5
1A6
330
153
100
AcDbEntity
  8
DV2_Default
  6
CENTER2
 62
     7
 48
25.4
100
AcDbLine
 10
431.3661382168
 20
299.0290758434
 30
0.0
 11
535.6071069415
 21
299.0290758434
 31
0.0
  0
LINE
  5
1A7
330
153
100
AcDbEntity
  8
DV2_Default
  6
CENTER2
 62
     7
 48
25.4
100
AcDbLine
 10
436.2661382168
 20
299.0290758434
 30
0.0
 11
333.973031624
 21
299.0290758434
 31
0.0
  0
LINE
  5
1A8
330
153
100
AcDbEntity
  8
DV2_Default
  6
Continuous
 62
     7
 48
25.4
100
AcDbLine
 10
433.8493916502
 20
311.6290758434
 30
0.0
 11
428.5993916502
 21
311.6290758434
 31
0.0
  0
LINE
  5
1A9
330
153
100
AcDbEntity
  8
DV2_Default
  6
Continuous
 62
     7
 48
25.4
100
AcDbLine
 10
428.5993916502
 20
311.6290758434
 30
0.0
 11
419.8161382168
 21
316.7000895775
 31
0.0
  0
LINE
  5
1AA
330
153
100
AcDbEntity
  8
DV2_Default
  6
Continuous
 62
     7
 48
25.4
100
AcDbLine
 10
433.8493916502
 20
311.6290758434
 30
0.0
 11
439.0993916502
 21
311.6290758434
 31
0.0
  0
LINE
  5
1AB
330
153
100
AcDbEntity
  8
DV2_Default
  6
Continuous
 62
     7
 48
25.4
100
AcDbLine
 10
439.0993916502
 20
311.6290758434
 30
0.0
 11
447.8161382168
 21
316.6616918201
 31
0.0
  0
ARC
  5
1AC
330
153
100
AcDbEntity
  8
DV2_Default
  6
Continuous
 62
     7
 48
25.4
100
AcDbCircle
 10
433.8161382168
 20
299.0290758434
 30
0.0
 40
15.75
100
AcDbArc
 50
118.1829069243
 51
61.6748402478
  0
LINE
  5
1AD
330
153
100
AcDbEntity
  8
DV2_Default
  6
CENTER2
 62
     7
 48
25.4
100
AcDbLine
 10
433.8161382168
 20
299.0290758434
 30
0.0
 11
433.8161382168
 21
395.8841896
 31
0.0
  0
CIRCLE
  5
1AE
330
153
100
AcDbEntity
  8
DV2_Default
  6
Continuous
 62
     7
 48
25.4
100
AcDbCircle
 10
433.8161382168
 20
367.6541170184
 30
0.0
 40
6.65
  0
CIRCLE
  5
1AF
330
153
100
AcDbEntity
  8
DV2_Default
  6
Continuous
 62
     7
 48
25.4
100
AcDbCircle
 10
433.8161382168
 20
346.6541170184
 30
0.0
 40
6.65
  0
CIRCLE
  5
1B0
330
153
100
AcDbEntity
  8
DV2_Default
  6
Continuous
 62
     7
 48
25.4
100
AcDbCircle
 10
433.8161382168
 20
367.6541170184
 30
0.0
 40
6.3
  0
CIRCLE
  5
1B1
330
153
100
AcDbEntity
  8
DV2_Default
  6
Continuous
 62
     7
 48
25.4
100
AcDbCircle
 10
433.8161382168
 20
346.6541170184
 30
0.0
 40
6.3
  0
LINE
  5
1B2
330
153
100
AcDbEntity
  8
DV2_Default
  6
CENTER2
 62
     7
 48
25.4
100
AcDbLine
 10
424.7161382168
 20
346.6541170184
 30
0.0
 11
442.9161382168
 21
346.6541170184
 31
0.0
  0
LINE
  5
1B3
330
153
100
AcDbEntity
  8
DV2_Default
  6
CENTER2
 62
     7
 48
25.4
100
AcDbLine
 10
424.7161382168
 20
367.6541170184
 30
0.0
 11
442.9161382168
 21
367.6541170184
 31
0.0
  0
LINE
  5
1B4
330
153
100
AcDbEntity
  8
DV2_Default
  6
Continuous
 62
     7
 48
25.4
100
AcDbLine
 10
433.8161382168
 20
371.8604741225
 30
0.0
 11
430.1788315209
 21
369.7604741225
 31
0.0
  0
LINE
  5
1B5
330
153
100
AcDbEntity
  8
DV2_Default
  6
Continuous
 62
     7
 48
25.4
100
AcDbLine
 10
430.1788315209
 20
369.7604741225
 30
0.0
 11
430.1788315209
 21
365.5604741225
 31
0.0
  0
LINE
  5
1B6
330
153
100
AcDbEntity
  8
DV2_Default
  6
Continuous
 62
     7
 48
25.4
100
AcDbLine
 10
430.1788315209
 20
365.5604741225
 30
0.0
 11
433.8161382168
 21
363.4604741225
 31
0.0
  0
LINE
  5
1B7
330
153
100
AcDbEntity
  8
DV2_Default
  6
Continuous
 62
     7
 48
25.4
100
AcDbLine
 10
433.8161382168
 20
363.4604741225
 30
0.0
 11
437.4534449127
 21
365.5604741225
 31
0.0
  0
LINE
  5
1B8
330
153
100
AcDbEntity
  8
DV2_Default
  6
Continuous
 62
     7
 48
25.4
100
AcDbLine
 10
437.4534449127
 20
365.5604741225
 30
0.0
 11
437.4534449127
 21
369.7604741225
 31
0.0
  0
LINE
  5
1B9
330
153
100
AcDbEntity
  8
DV2_Default
  6
Continuous
 62
     7
 48
25.4
100
AcDbLine
 10
437.4534449127
 20
369.7604741225
 30
0.0
 11
433.8161382168
 21
371.8604741225
 31
0.0
  0
LINE
  5
1BA
330
153
100
AcDbEntity
  8
DV2_Default
  6
Continuous
 62
     7
 48
25.4
100
AcDbLine
 10
433.8161382168
 20
367.6541170184
 30
0.0
 11
433.8161382168
 21
346.6541170184
 31
0.0
  0
LINE
  5
1BB
330
153
100
AcDbEntity
  8
DV2_Default
  6
Continuous
 62
     7
 48
25.4
100
AcDbLine
 10
433.8161382168
 20
342.4432218989
 30
0.0
 11
430.1788315209
 21
344.5432218989
 31
0.0
  0
LINE
  5
1BC
330
153
100
AcDbEntity
  8
DV2_Default
  6
Continuous
 62
     7
 48
25.4
100
AcDbLine
 10
430.1788315209
 20
344.5432218989
 30
0.0
 11
430.1788315209
 21
348.7432218989
 31
0.0
  0
LINE
  5
1BD
330
153
100
AcDbEntity
  8
DV2_Default
  6
Continuous
 62
     7
 48
25.4
100
AcDbLine
 10
430.1788315209
 20
348.7432218989
 30
0.0
 11
433.8161382168
 21
350.8432218989
 31
0.0
  0
LINE
  5
1BE
330
153
100
AcDbEntity
  8
DV2_Default
  6
Continuous
 62
     7
 48
25.4
100
AcDbLine
 10
433.8161382168
 20
350.8432218989
 30
0.0
 11
437.4534449127
 21
348.7432218989
 31
0.0
  0
LINE
  5
1BF
330
153
100
AcDbEntity
  8
DV2_Default
  6
Continuous
 62
     7
 48
25.4
100
AcDbLine
 10
437.4534449127
 20
348.7432218989
 30
0.0
 11
437.4534449127
 21
344.5432218989
 31
0.0
  0
LINE
  5
1C0
330
153
100
AcDbEntity
  8
DV2_Default
  6
Continuous
 62
     7
 48
25.4
100
AcDbLine
 10
437.4534449127
 20
344.5432218989
 30
0.0
 11
433.8161382168
 21
342.4432218989
 31
0.0
  0
LINE
  5
1C1
330
153
100
AcDbEntity
  8
DV2_Default
  6
Continuous
 62
     7
 48
25.4
100
AcDbLine
 10
447.0780260879
 20
249.5350365044
 30
0.0
 11
451.6073593772
 21
232.6313345443
 31
0.0
  0
CIRCLE
  5
1C2
330
153
100
AcDbEntity
  8
DV2_Default
  6
Continuous
 62
     7
 48
25.4
100
AcDbCircle
 10
449.3426927325
 20
241.0831855243
 30
0.0
 40
8.749999999999998
  0
CIRCLE
  5
1C3
330
153
100
AcDbEntity
  8
DV2_Default
  6
Continuous
 62
     7
 48
25.4
100
AcDbCircle
 10
449.3426927325
 20
241.0831855243
 30
0.0
 40
5.95
  0
CIRCLE
  5
1C4
330
153
100
AcDbEntity
  8
DV2_Default
  6
Continuous
 62
     7
 48
25.4
100
AcDbCircle
 10
418.4024984508
 20
241.0530479598
 30
0.0
 40
8.749999999999998
  0
CIRCLE
  5
1C5
330
153
100
AcDbEntity
  8
DV2_Default
  6
Continuous
 62
     7
 48
25.4
100
AcDbCircle
 10
418.4024984508
 20
241.0530479598
 30
0.0
 40
5.95
  0
CIRCLE
  5
1C6
330
153
100
AcDbEntity
  8
DV2_Default
  6
Continuous
 62
     7
 48
25.4
100
AcDbCircle
 10
491.7620285359
 20
314.5556303591
 30
0.0
 40
8.749999999999998
  0
CIRCLE
  5
1C7
330
153
100
AcDbEntity
  8
DV2_Default
  6
Continuous
 62
     7
 48
25.4
100
AcDbCircle
 10
491.7620285359
 20
314.5556303591
 30
0.0
 40
5.95
  0
CIRCLE
  5
1C8
330
153
100
AcDbEntity
  8
DV2_Default
  6
Continuous
 62
     7
 48
25.4
100
AcDbCircle
 10
476.2354740202
 20
341.4484116468
 30
0.0
 40
8.749999999999998
  0
CIRCLE
  5
1C9
330
153
100
AcDbEntity
  8
DV2_Default
  6
Continuous
 62
     7
 48
25.4
100
AcDbCircle
 10
476.2354740202
 20
341.4484116468
 30
0.0
 40
5.95
  0
CIRCLE
  5
1CA
330
153
100
AcDbEntity
  8
DV2_Default
  6
Continuous
 62
     7
 48
25.4
100
AcDbCircle
 10
391.3968024135
 20
341.4484116468
 30
0.0
 40
8.749999999999998
  0
CIRCLE
  5
1CB
330
153
100
AcDbEntity
  8
DV2_Default
  6
Continuous
 62
     7
 48
25.4
100
AcDbCircle
 10
391.3968024135
 20
341.4484116468
 30
0.0
 40
5.95
  0
CIRCLE
  5
1CC
330
153
100
AcDbEntity
  8
DV2_Default
  6
Continuous
 62
     7
 48
25.4
100
AcDbCircle
 10
375.8702478978
 20
314.5556303591
 30
0.0
 40
8.749999999999998
  0
CIRCLE
  5
1CD
330
153
100
AcDbEntity
  8
DV2_Default
  6
Continuous
 62
     7
 48
25.4
100
AcDbCircle
 10
375.8702478978
 20
314.5556303591
 30
0.0
 40
5.95
  0
LINE
  5
1CE
330
153
100
AcDbEntity
  8
DV2_Default
  6
Continuous
 62
     7
 48
25.4
100
AcDbLine
 10
420.5540778025
 20
249.5343925639
 30
0.0
 11
416.0251485255
 21
232.6321983986
 31
0.0
  0
LINE
  5
1CF
330
153
100
AcDbEntity
  8
DV2_Default
  6
Continuous
 62
     7
 48
25.4
100
AcDbLine
 10
470.0482896848
 20
335.2612273114
 30
0.0
 11
482.4226583556
 21
347.6355959822
 31
0.0
  0
LINE
  5
1D0
330
153
100
AcDbEntity
  8
DV2_Default
  6
Continuous
 62
     7
 48
25.4
100
AcDbLine
 10
384.3220988778
 20
312.2909637145
 30
0.0
 11
367.4183969177
 21
316.8202970038
 31
0.0
  0
LINE
  5
1D1
330
153
100
AcDbEntity
  8
DV2_Default
  6
Continuous
 62
     7
 48
25.4
100
AcDbLine
 10
397.5839867488
 20
335.2612273114
 30
0.0
 11
385.2096180781
 21
347.6355959822
 31
0.0
  0
LINE
  5
1D2
330
153
100
AcDbEntity
  8
DV2_Default
  6
Continuous
 62
     7
 48
25.4
100
AcDbLine
 10
483.3101775559
 20
312.2909637145
 30
0.0
 11
500.2138795159
 21
316.8202970038
 31
0.0
  0
LINE
  5
1D3
330
153
100
AcDbEntity
  8
DV2_Default
  6
CENTER2
 62
     7
 48
25.4
100
AcDbLine
 10
433.8161382168
 20
299.0290758434
 30
0.0
 11
522.3256080017
 21
247.9281096373
 31
0.0
  0
LINE
  5
1D4
330
153
100
AcDbEntity
  8
DV2_Default
  6
CENTER2
 62
     7
 48
25.4
100
AcDbLine
 10
433.8161382168
 20
299.0290758434
 30
0.0
 11
348.9723533085
 21
250.0444937875
 31
0.0
  0
LINE
  5
1D5
330
153
100
AcDbEntity
  8
DV2_Default
  6
CENTER2
 62
     7
 48
25.4
100
AcDbLine
 10
459.2772850881
 20
313.7290758434
 30
0.0
 11
465.3394629146
 21
317.2290758434
 31
0.0
  0
LINE
  5
1D6
330
153
100
AcDbEntity
  8
DV2_Default
  6
CENTER2
 62
     7
 48
25.4
100
AcDbLine
 10
408.3549913456
 20
313.7290758434
 30
0.0
 11
402.2928135191
 21
317.2290758434
 31
0.0
  0
ARC
  5
1D7
330
153
100
AcDbEntity
  8
DV2_Default
  6
CENTER2
 62
     7
 48
25.4
100
AcDbCircle
 10
433.8161382168
 20
299.0290758434
 30
0.0
 40
59.99
100
AcDbArc
 50
126.6355468977
 51
173.3644531023
  0
ARC
  5
1D8
330
153
100
AcDbEntity
  8
DV2_Default
  6
CENTER2
 62
     7
 48
25.4
100
AcDbCircle
 10
433.8161382168
 20
299.0290758434
 30
0.0
 40
59.99
100
AcDbArc
 50
6.6355468977
 51
53.3644531023
  0
ARC
  5
1D9
330
153
100
AcDbEntity
  8
DV2_Default
  6
CENTER2
 62
     7
 48
25.4
100
AcDbCircle
 10
433.8161382168
 20
299.0290758434
 30
0.0
 40
59.99
100
AcDbArc
 50
246.7471657641
 51
293.3644531023
  0
ENDBLK
  5
1DB
330
153
100
AcDbEntity
  8
0
100
AcDbBlockEnd
  0
BLOCK
  5
26F
330
1DC
100
AcDbEntity
  8
0
100
AcDbBlockBegin
  2
SE2
 70
     0
 71
     0
 10
0.0
 20
0.0
 30
0.0
  3
SE2
  1

  0
LINE
  5
1DF
330
1DC
100
AcDbEntity
  8
DV3_Default
  6
Continuous
 62
     7
 48
25.4
100
AcDbLine
 10
408.7179722328
 20
143.7845490664
 30
0.0
 11
268.7179722328
 21
143.7845490664
 31
0.0
  0
LINE
  5
1E0
330
1DC
100
AcDbEntity
  8
DV3_Default
  6
Continuous
 62
     7
 48
25.4
100
AcDbLine
 10
408.7179722328
 20
143.7845490664
 30
0.0
 11
408.7179722328
 21
36.6845490664
 31
0.0
  0
LINE
  5
1E1
330
1DC
100
AcDbEntity
  8
DV3_Default
  6
Continuous
 62
     7
 48
25.4
100
AcDbLine
 10
408.7179722328
 20
36.6845490664
 30
0.0
 11
268.7179722328
 21
36.6845490664
 31
0.0
  0
LINE
  5
1E2
330
1DC
100
AcDbEntity
  8
DV3_Default
  6
Continuous
 62
     7
 48
25.4
100
AcDbLine
 10
268.7179722328
 20
36.6845490664
 30
0.0
 11
268.7179722328
 21
143.7845490664
 31
0.0
  0
TEXT
  5
1E3
330
1DC
100
AcDbEntity
  8
DV3_Default
  6
Continuous
 62
     7
 48
25.4
100
AcDbText
 10
267.0779477658
 20
31.0639171415
 30
0.0
 40
3.5
  1
0
  7
SEACAD_arial_ttf
 11
267.0779477658
 21
34.5639171415
 31
0.0
100
AcDbText
 73
     3
  0
TEXT
  5
1E4
330
1DC
100
AcDbEntity
  8
DV3_Default
  6
Continuous
 62
     7
 48
25.4
100
AcDbText
 10
297.1901470611
 20
31.1080215022
 30
0.0
 40
3.5
  1
1000
  7
SEACAD_arial_ttf
 11
297.1901470611
 21
34.6080215022
 31
0.0
100
AcDbText
 73
     3
  0
TEXT
  5
1E5
330
1DC
100
AcDbEntity
  8
DV3_Default
  6
Continuous
 62
     7
 48
25.4
100
AcDbText
 10
330.7463357581
 20
30.9585888533
 30
0.0
 40
3.5
  1
2000
  7
SEACAD_arial_ttf
 11
330.7463357581
 21
34.4585888533
 31
0.0
100
AcDbText
 73
     3
  0
TEXT
  5
1E6
330
1DC
100
AcDbEntity
  8
DV3_Default
  6
Continuous
 62
     7
 48
25.4
100
AcDbText
 10
365.3697265093
 20
30.8763445906
 30
0.0
 40
3.5
  1
3000
  7
SEACAD_arial_ttf
 11
365.3697265093
 21
34.3763445906
 31
0.0
100
AcDbText
 73
     3
  0
TEXT
  5
1E7
330
1DC
100
AcDbEntity
  8
DV3_Default
  6
Continuous
 62
     7
 48
25.4
100
AcDbText
 10
395.7784163638
 20
31.0131058049
 30
0.0
 40
3.5
  1
4000
  7
SEACAD_arial_ttf
 11
395.7784163638
 21
34.5131058049
 31
0.0
100
AcDbText
 73
     3
  0
TEXT
  5
1E8
330
1DC
100
AcDbEntity
  8
DV3_Default
  6
Continuous
 62
     7
 48
25.4
100
AcDbText
 10
408.9798855473
 20
31.6770135031
 30
0.0
 40
3.5
  1
4200
  7
SEACAD_arial_ttf
 11
408.9798855473
 21
35.1770135031
 31
0.0
100
AcDbText
 73
     3
  0
TEXT
  5
1E9
330
1DC
100
AcDbEntity
  8
DV3_Default
  6
Continuous
 62
     7
 48
25.4
100
AcDbText
 10
261.5802760176
 20
52.3402325409
 30
0.0
 40
3.5
  1
20
  7
SEACAD_arial_ttf
 11
261.5802760176
 21
55.8402325409
 31
0.0
100
AcDbText
 73
     3
  0
TEXT
  5
1EA
330
1DC
100
AcDbEntity
  8
DV3_Default
  6
Continuous
 62
     7
 48
25.4
100
AcDbText
 10
261.4141793972
 20
70.7013069697
 30
0.0
 40
3.5
  1
40
  7
SEACAD_arial_ttf
 11
261.4141793972
 21
74.2013069697
 31
0.0
100
AcDbText
 73
     3
  0
TEXT
  5
1EB
330
1DC
100
AcDbEntity
  8
DV3_Default
  6
Continuous
 62
     7
 48
25.4
100
AcDbText
 10
261.3635021562
 20
88.0573524825
 30
0.0
 40
3.5
  1
60
  7
SEACAD_arial_ttf
 11
261.3635021562
 21
91.5573524825
 31
0.0
100
AcDbText
 73
     3
  0
TEXT
  5
1EC
330
1DC
100
AcDbEntity
  8
DV3_Default
  6
Continuous
 62
     7
 48
25.4
100
AcDbText
 10
258.503749233
 20
124.1175082404
 30
0.0
 40
3.5
  1
100
  7
SEACAD_arial_ttf
 11
258.503749233
 21
127.6175082404
 31
0.0
100
AcDbText
 73
     3
  0
TEXT
  5
1ED
330
1DC
100
AcDbEntity
  8
DV3_Default
  6
Continuous
 62
     7
 48
25.4
100
AcDbText
 10
261.4479137388
 20
106.7477459193
 30
0.0
 40
3.5
  1
80
  7
SEACAD_arial_ttf
 11
261.4479137388
 21
110.2477459193
 31
0.0
100
AcDbText
 73
     3
  0
TEXT
  5
1EE
330
1DC
100
AcDbEntity
  8
DV3_Default
  6
Continuous
 62
     7
 48
25.4
100
AcDbText
 10
259.1415029477
 20
133.662239066
 30
0.0
 40
3.5
  1
111
  7
SEACAD_arial_ttf
 11
259.1415029477
 21
137.162239066
 31
0.0
100
AcDbText
 73
     3
  0
TEXT
  5
1EF
330
1DC
100
AcDbEntity
  8
DV3_Default
  6
Continuous
 62
     7
 48
25.4
100
AcDbText
 10
312.9704464673
 20
138.2901338652
 30
0.0
 40
4.2
  1
Input Force
  7
SEACAD_arial_ttf
 11
312.9704464673
 21
142.4901338652
 31
0.0
100
AcDbText
 73
     3
  0
TEXT
  5
1F0
330
1DC
100
AcDbEntity
  8
DV3_Default
  6
Continuous
 62
     7
 48
25.4
100
AcDbText
 10
313.7344019209
 20
131.7283439941
 30
0.0
 40
3.5
  1
43KN
  7
SEACAD_arial_ttf
 11
313.7344019209
 21
135.2283439941
 31
0.0
100
AcDbText
 73
     3
  0
TEXT
  5
1F1
330
1DC
100
AcDbEntity
  8
DV3_Default
  6
Continuous
 62
     7
 48
25.4
100
AcDbText
 10
313.6594339563
 20
122.1469755225
 30
0.0
 40
3.5
  1
39KN
  7
SEACAD_arial_ttf
 11
313.6594339563
 21
125.6469755225
 31
0.0
100
AcDbText
 73
     3
  0
TEXT
  5
1F2
330
1DC
100
AcDbEntity
  8
DV3_Default
  6
Continuous
 62
     7
 48
25.4
100
AcDbText
 10
313.8391178097
 20
112.3165062954
 30
0.0
 40
3.5
  1
35KN
  7
SEACAD_arial_ttf
 11
313.8391178097
 21
115.8165062954
 31
0.0
100
AcDbText
 73
     3
  0
TEXT
  5
1F3
330
1DC
100
AcDbEntity
  8
DV3_Default
  6
Continuous
 62
     7
 48
25.4
100
AcDbText
 10
314.0937696275
 20
95.9176629864
 30
0.0
 40
3.5
  1
27KN
  7
SEACAD_arial_ttf
 11
314.0937696275
 21
99.4176629864
 31
0.0
100
AcDbText
 73
     3
  0
TEXT
  5
1F4
330
1DC
100
AcDbEntity
  8
DV3_Default
  6
Continuous
 62
     7
 48
25.4
100
AcDbText
 10
313.9890537387
 20
104.0748154274
 30
0.0
 40
3.5
  1
31KN
  7
SEACAD_arial_ttf
 11
313.9890537387
 21
107.5748154274
 31
0.0
100
AcDbText
 73
     3
  0
TEXT
  5
1F5
330
1DC
100
AcDbEntity
  8
DV3_Default
  6
Continuous
 62
     7
 48
25.4
100
AcDbText
 10
313.8093698854
 20
86.0278732064
 30
0.0
 40
3.5
  1
23KN
  7
SEACAD_arial_ttf
 11
313.8093698854
 21
89.5278732064
 31
0.0
100
AcDbText
 73
     3
  0
TEXT
  5
1F6
330
1DC
100
AcDbEntity
  8
DV3_Default
  6
Continuous
 62
     7
 48
25.4
100
AcDbText
 10
313.3750342142
 20
76.1868923901
 30
0.0
 40
3.5
  1
19KN
  7
SEACAD_arial_ttf
 11
313.3750342142
 21
79.6868923901
 31
0.0
100
AcDbText
 73
     3
  0
TEXT
  5
1F7
330
1DC
100
AcDbEntity
  8
DV3_Default
  6
Continuous
 62
     7
 48
25.4
100
AcDbText
 10
313.479750103
 20
66.2257235689
 30
0.0
 40
3.5
  1
15KN
  7
SEACAD_arial_ttf
 11
313.479750103
 21
69.7257235689
 31
0.0
100
AcDbText
 73
     3
  0
TEXT
  5
1F8
330
1DC
100
AcDbEntity
  8
DV3_Default
  6
Continuous
 62
     7
 48
25.4
100
AcDbText
 10
313.7344019209
 20
57.4176258323
 30
0.0
 40
3.5
  1
11KN
  7
SEACAD_arial_ttf
 11
313.7344019209
 21
60.9176258323
 31
0.0
100
AcDbText
 73
     3
  0
TEXT
  5
1F9
330
1DC
100
AcDbEntity
  8
DV3_Default
  6
Continuous
 62
     7
 48
25.4
100
AcDbText
 10
326.2336673103
 20
17.738196888
 30
0.0
 40
4.2
  1
Speed in min-
  7
SEACAD_arial_ttf
 11
326.2336673103
 21
21.938196888
 31
0.0
100
AcDbText
 73
     3
  0
TEXT
  5
1FA
330
1DC
100
AcDbEntity
  8
DV3_Default
  6
Continuous
 62
     7
 48
25.4
100
AcDbText
 10
362.6641020929
 20
17.738196888
 30
0.0
 40
3.2102777778
  1
¹
  7
SEACAD_arial_ttf
 11
362.6641020929
 21
20.9484746658
 31
0.0
100
AcDbText
 73
     3
  0
TEXT
  5
1FB
330
1DC
100
AcDbEntity
  8
DV3_Default
  6
Continuous
 62
     7
 48
25.4
100
AcDbText
 10
221.549082678
 20
96.4788082357
 30
0.0
 40
4.2
  1
Total Gripping 
  7
SEACAD_arial_ttf
 11
221.549082678
 21
100.6788082357
 31
0.0
100
AcDbText
 73
     3
  0
TEXT
  5
1FC
330
1DC
100
AcDbEntity
  8
DV3_Default
  6
Continuous
 62
     7
 48
25.4
100
AcDbText
 10
221.549082678
 20
89.9048951922
 30
0.0
 40
4.2
  1
Force in KN
  7
SEACAD_arial_ttf
 11
221.549082678
 21
94.1048951922
 31
0.0
100
AcDbText
 73
     3
  0
TEXT
  5
1FD
330
1DC
100
AcDbEntity
  8
DV3_Default
  6
Continuous
 62
     7
 48
25.4
100
AcDbText
 10
283.7768801215
 20
163.970798389
 30
0.0
 40
4.2
  1
Gripping Characteristic Graph For B-210A8
  7
SEACAD_arial_ttf
 11
283.7768801215
 21
168.170798389
 31
0.0
100
AcDbText
 73
     3
  0
LWPOLYLINE
  5
1FE
330
1DC
100
AcDbEntity
  8
DV3_Default
  6
Continuous
 62
     7
 48
25.4
100
AcDbPolyline
 90
        2
 70
     0
 43
0.0
 10
413.6495795191
 20
42.541998713
 10
378.2770074465
 20
56.7139873847
  0
HATCH
  5
1FF
330
1DC
100
AcDbEntity
  8
DV3_Default
  6
Continuous
 62
     7
 48
25.4
100
AcDbHatch
 10
0.0
 20
0.0
 30
0.0
210
0.0
220
0.0
230
1.0
  2
SOLID
 70
     1
 71
     0
 91
        1
 92
        1
 93
        3
 72
     1
 10
382.4360733760881
 20
55.80175336395765
 11
378.2770074465125
 21
56.71398738471572
 72
     1
 10
378.2770074465125
 20
56.71398738471571
 11
381.9153993191084
 21
54.50217706359572
 72
     1
 10
381.9153993191084
 20
54.50217706359572
 11
382.4360733760881
 21
55.80175336395765
 97
        0
 75
     0
 76
     1
 98
        0
  0
LWPOLYLINE
  5
200
330
1DC
100
AcDbEntity
  8
DV3_Default
  6
Continuous
 62
     7
 48
25.4
370
    20
100
AcDbPolyline
 90
        4
 70
     1
 43
0.00025
 10
382.4360733761
 20
55.801753364
 10
378.2770074465
 20
56.7139873847
 10
381.9153993191
 20
54.5021770636
 10
382.4360733761
 20
55.801753364
  0
LINE
  5
201
330
1DC
100
AcDbEntity
  8
DV3_Default
  6
Continuous
 62
     7
 48
25.4
100
AcDbLine
 10
413.6495795191
 20
42.541998713
 30
0.0
 11
466.6061012582
 21
42.541998713
 31
0.0
  0
TEXT
  5
202
330
1DC
100
AcDbEntity
  8
DV3_Default
  6
Continuous
 62
     7
 48
25.4
100
AcDbText
 10
413.6495795191
 20
43.591998713
 30
0.0
 40
4.2
  1
Gripping Force Limit
  7
SEACAD_arial_ttf
 11
413.6495795191
 21
47.791998713
 31
0.0
100
AcDbText
 73
     3
  0
TEXT
  5
203
330
1DC
100
AcDbEntity
  8
DV3_Default
  6
Continuous
 62
     7
 48
25.4
100
AcDbText
 10
18.2651095342
 20
145.4533630054
 30
0.0
 40
3.5
  1
SPINDLE NOSE SIZE
  7
SEACAD_arial_ttf
 11
18.2651095342
 21
148.9533630054
 31
0.0
100
AcDbText
 73
     3
  0
TEXT
  5
204
330
1DC
100
AcDbEntity
  8
DV3_Default
  6
Continuous
 62
     7
 48
25.4
100
AcDbText
 10
123.9502998482
 20
145.4533630054
 30
0.0
 40
3.5
  1
A2-8
  7
SEACAD_arial_ttf
 11
123.9502998482
 21
148.9533630054
 31
0.0
100
AcDbText
 73
     3
  0
TEXT
  5
205
330
1DC
100
AcDbEntity
  8
DV3_Default
  6
Continuous
 62
     7
 48
25.4
100
AcDbText
 10
17.5351281729
 20
69.9787541511
 30
0.0
 40
3.5
  1
TOTAL GRIPPING FORCE AT MAX. SPEED
  7
SEACAD_arial_ttf
 11
17.5351281729
 21
73.4787541511
 31
0.0
100
AcDbText
 73
     3
  0
TEXT
  5
206
330
1DC
100
AcDbEntity
  8
DV3_Default
  6
Continuous
 62
     7
 48
25.4
100
AcDbText
 10
123.4562350715
 20
19.371851592
 30
0.0
 40
3.5
  1
SB10B1/KSJ-210
  7
SEACAD_arial_ttf
 11
123.4562350715
 21
22.871851592
 31
0.0
100
AcDbText
 73
     3
  0
LINE
  5
207
330
1DC
100
AcDbEntity
  8
DV3_Default
  6
Continuous
 62
     7
 48
25.4
100
AcDbLine
 10
16.4098934619
 20
25.4110476619
 30
0.0
 11
184.4098934619
 21
25.4110476619
 31
0.0
  0
LINE
  5
208
330
1DC
100
AcDbEntity
  8
DV3_Default
  6
Continuous
 62
     7
 48
25.4
100
AcDbLine
 10
184.4098934619
 20
151.4110476619
 30
0.0
 11
16.4098934619
 21
151.4110476619
 31
0.0
  0
LINE
  5
209
330
1DC
100
AcDbEntity
  8
DV3_Default
  6
Continuous
 62
     7
 48
25.4
100
AcDbLine
 10
16.4098934619
 20
143.0110476619
 30
0.0
 11
184.4098934619
 21
143.0110476619
 31
0.0
  0
LINE
  5
20A
330
1DC
100
AcDbEntity
  8
DV3_Default
  6
Continuous
 62
     7
 48
25.4
100
AcDbLine
 10
184.4098934619
 20
134.6110476619
 30
0.0
 11
16.4098934619
 21
134.6110476619
 31
0.0
  0
LINE
  5
20B
330
1DC
100
AcDbEntity
  8
DV3_Default
  6
Continuous
 62
     7
 48
25.4
100
AcDbLine
 10
16.4098934619
 20
126.2110476619
 30
0.0
 11
184.4098934619
 21
126.2110476619
 31
0.0
  0
LINE
  5
20C
330
1DC
100
AcDbEntity
  8
DV3_Default
  6
Continuous
 62
     7
 48
25.4
100
AcDbLine
 10
184.4098934619
 20
117.8110476619
 30
0.0
 11
16.4098934619
 21
117.8110476619
 31
0.0
  0
LINE
  5
20D
330
1DC
100
AcDbEntity
  8
DV3_Default
  6
Continuous
 62
     7
 48
25.4
100
AcDbLine
 10
16.4098934619
 20
109.4110476619
 30
0.0
 11
184.4098934619
 21
109.4110476619
 31
0.0
  0
LINE
  5
20E
330
1DC
100
AcDbEntity
  8
DV3_Default
  6
Continuous
 62
     7
 48
25.4
100
AcDbLine
 10
184.4098934619
 20
101.0110476619
 30
0.0
 11
16.4098934619
 21
101.0110476619
 31
0.0
  0
LINE
  5
20F
330
1DC
100
AcDbEntity
  8
DV3_Default
  6
Continuous
 62
     7
 48
25.4
100
AcDbLine
 10
16.4098934619
 20
92.6110476619
 30
0.0
 11
184.4098934619
 21
92.6110476619
 31
0.0
  0
LINE
  5
210
330
1DC
100
AcDbEntity
  8
DV3_Default
  6
Continuous
 62
     7
 48
25.4
100
AcDbLine
 10
184.4098934619
 20
84.2110476619
 30
0.0
 11
16.4098934619
 21
84.2110476619
 31
0.0
  0
LINE
  5
211
330
1DC
100
AcDbEntity
  8
DV3_Default
  6
Continuous
 62
     7
 48
25.4
100
AcDbLine
 10
16.4098934619
 20
75.8110476619
 30
0.0
 11
184.4098934619
 21
75.8110476619
 31
0.0
  0
LINE
  5
212
330
1DC
100
AcDbEntity
  8
DV3_Default
  6
Continuous
 62
     7
 48
25.4
100
AcDbLine
 10
184.4098934619
 20
67.4110476619
 30
0.0
 11
16.4098934619
 21
67.4110476619
 31
0.0
  0
LINE
  5
213
330
1DC
100
AcDbEntity
  8
DV3_Default
  6
Continuous
 62
     7
 48
25.4
100
AcDbLine
 10
16.4098934619
 20
59.0110476619
 30
0.0
 11
184.4098934619
 21
59.0110476619
 31
0.0
  0
LINE
  5
214
330
1DC
100
AcDbEntity
  8
DV3_Default
  6
Continuous
 62
     7
 48
25.4
100
AcDbLine
 10
184.4098934619
 20
50.6110476619
 30
0.0
 11
16.4098934619
 21
50.6110476619
 31
0.0
  0
LINE
  5
215
330
1DC
100
AcDbEntity
  8
DV3_Default
  6
Continuous
 62
     7
 48
25.4
100
AcDbLine
 10
16.4098934619
 20
42.2110476619
 30
0.0
 11
184.4098934619
 21
42.2110476619
 31
0.0
  0
LINE
  5
216
330
1DC
100
AcDbEntity
  8
DV3_Default
  6
Continuous
 62
     7
 48
25.4
100
AcDbLine
 10
184.4098934619
 20
33.8110476619
 30
0.0
 11
16.4098934619
 21
33.8110476619
 31
0.0
  0
TEXT
  5
217
330
1DC
100
AcDbEntity
  8
DV3_Default
  6
Continuous
 62
     7
 48
25.4
100
AcDbText
 10
72.1585217375
 20
165.1250692086
 30
0.0
 40
4.2
  1
Specifications
  7
SEACAD_arial_ttf
 11
72.1585217375
 21
169.3250692086
 31
0.0
100
AcDbText
 73
     3
  0
TEXT
  5
218
330
1DC
100
AcDbEntity
  8
DV3_Default
  6
Continuous
 62
     7
 48
25.4
100
AcDbText
 10
18.1817577129
 20
136.8696174943
 30
0.0
 40
3.5
  1
THROUGH HOLE
  7
SEACAD_arial_ttf
 11
18.1817577129
 21
140.3696174943
 31
0.0
100
AcDbText
 73
     3
  0
TEXT
  5
219
330
1DC
100
AcDbEntity
  8
DV3_Default
  6
Continuous
 62
     7
 48
25.4
100
AcDbText
 10
123.7760543764
 20
136.83014502
 30
0.0
 40
3.5
  1
75mm
  7
SEACAD_arial_ttf
 11
123.7760543764
 21
140.33014502
 31
0.0
100
AcDbText
 73
     3
  0
TEXT
  5
21A
330
1DC
100
AcDbEntity
  8
DV3_Default
  6
Continuous
 62
     7
 48
25.4
100
AcDbText
 10
18.6921544892
 20
128.1928722983
 30
0.0
 40
3.5
  1
MAX. GRIPPING RANGE
  7
SEACAD_arial_ttf
 11
18.6921544892
 21
131.6928722983
 31
0.0
100
AcDbText
 73
     3
  0
TEXT
  5
21B
330
1DC
100
AcDbEntity
  8
DV3_Default
  6
Continuous
 62
     7
 48
25.4
100
AcDbText
 10
18.6921544892
 20
119.7713254904
 30
0.0
 40
3.5
  1
MIN. GRIPPING RANGE
  7
SEACAD_arial_ttf
 11
18.6921544892
 21
123.2713254904
 31
0.0
100
AcDbText
 73
     3
  0
TEXT
  5
21C
330
1DC
100
AcDbEntity
  8
DV3_Default
  6
Continuous
 62
     7
 48
25.4
100
AcDbText
 10
18.1817577129
 20
110.8393819064
 30
0.0
 40
3.5
  1
JAW STROKE
  7
SEACAD_arial_ttf
 11
18.1817577129
 21
114.3393819064
 31
0.0
100
AcDbText
 73
     3
  0
TEXT
  5
21D
330
1DC
100
AcDbEntity
  8
DV3_Default
  6
Continuous
 62
     7
 48
25.4
100
AcDbText
 10
18.9473528773
 20
102.9282318748
 30
0.0
 40
3.5
  1
PLUNGER STROKE
  7
SEACAD_arial_ttf
 11
18.9473528773
 21
106.4282318748
 31
0.0
100
AcDbText
 73
     3
  0
TEXT
  5
21E
330
1DC
100
AcDbEntity
  8
DV3_Default
  6
Continuous
 62
     7
 48
25.4
100
AcDbText
 10
18.9473528773
 20
94.761883455
 30
0.0
 40
3.5
  1
MAX. DRAW BAR PULL FORCE
  7
SEACAD_arial_ttf
 11
18.9473528773
 21
98.261883455
 31
0.0
100
AcDbText
 73
     3
  0
TEXT
  5
21F
330
1DC
100
AcDbEntity
  8
DV3_Default
  6
Continuous
 62
     7
 48
25.4
100
AcDbText
 10
18.6921544892
 20
86.5955350353
 30
0.0
 40
3.5
  1
MAX. GRIPPING FORCE
  7
SEACAD_arial_ttf
 11
18.6921544892
 21
90.0955350353
 31
0.0
100
AcDbText
 73
     3
  0
TEXT
  5
220
330
1DC
100
AcDbEntity
  8
DV3_Default
  6
Continuous
 62
     7
 48
25.4
100
AcDbText
 10
18.6921544892
 20
78.1739882275
 30
0.0
 40
3.5
  1
MAX. SPEED
  7
SEACAD_arial_ttf
 11
18.6921544892
 21
81.6739882275
 31
0.0
100
AcDbText
 73
     3
  0
TEXT
  5
221
330
1DC
100
AcDbEntity
  8
DV3_Default
  6
Continuous
 62
     7
 48
25.4
100
AcDbText
 10
18.1817577129
 20
61.3308946118
 30
0.0
 40
3.5
  1
NET WEIGHT WITH SOFT TOP JAWS
  7
SEACAD_arial_ttf
 11
18.1817577129
 21
64.8308946118
 31
0.0
100
AcDbText
 73
     3
  0
TEXT
  5
222
330
1DC
100
AcDbEntity
  8
DV3_Default
  6
Continuous
 62
     7
 48
25.4
100
AcDbText
 10
18.1817577129
 20
52.6541494158
 30
0.0
 40
3.5
  1
MOMENT OF INERTIA
  7
SEACAD_arial_ttf
 11
18.1817577129
 21
56.1541494158
 31
0.0
100
AcDbText
 73
     3
  0
TEXT
  5
223
330
1DC
100
AcDbEntity
  8
DV3_Default
  6
Continuous
 62
     7
 48
25.4
100
AcDbText
 10
17.9265593248
 20
44.7429993842
 30
0.0
 40
3.5
  1
MATCHING CYLINDER
  7
SEACAD_arial_ttf
 11
17.9265593248
 21
48.2429993842
 31
0.0
100
AcDbText
 73
     3
  0
TEXT
  5
224
330
1DC
100
AcDbEntity
  8
DV3_Default
  6
Continuous
 62
     7
 48
25.4
100
AcDbText
 10
17.9265593248
 20
35.8110558001
 30
0.0
 40
3.5
  1
MAX. PRESSURE
  7
SEACAD_arial_ttf
 11
17.9265593248
 21
39.3110558001
 31
0.0
100
AcDbText
 73
     3
  0
TEXT
  5
225
330
1DC
100
AcDbEntity
  8
DV3_Default
  6
Continuous
 62
     7
 48
25.4
100
AcDbText
 10
17.6713609367
 20
27.8999057685
 30
0.0
 40
3.5
  1
MATCHING HARD TOP JAW
  7
SEACAD_arial_ttf
 11
17.6713609367
 21
31.3999057685
 31
0.0
100
AcDbText
 73
     3
  0
TEXT
  5
226
330
1DC
100
AcDbEntity
  8
DV3_Default
  6
Continuous
 62
     7
 48
25.4
100
AcDbText
 10
17.6713609367
 20
19.7335573488
 30
0.0
 40
3.5
  1
MATCHING SOFT TOP JAW
  7
SEACAD_arial_ttf
 11
17.6713609367
 21
23.2335573488
 31
0.0
100
AcDbText
 73
     3
  0
LINE
  5
227
330
1DC
100
AcDbEntity
  8
DV3_Default
  6
Continuous
 62
     7
 48
25.4
100
AcDbLine
 10
16.4098934619
 20
17.0110476619
 30
0.0
 11
184.4098934619
 21
17.0110476619
 31
0.0
  0
LINE
  5
228
330
1DC
100
AcDbEntity
  8
DV3_Default
  6
Continuous
 62
     7
 48
25.4
100
AcDbLine
 10
121.281906512
 20
151.4110476619
 30
0.0
 11
121.281906512
 21
17.0110476619
 31
0.0
  0
LINE
  5
229
330
1DC
100
AcDbEntity
  8
DV3_Default
  6
Continuous
 62
     7
 48
25.4
100
AcDbLine
 10
16.4098934619
 20
151.4110476619
 30
0.0
 11
16.4098934619
 21
17.0110476619
 31
0.0
  0
LINE
  5
22A
330
1DC
100
AcDbEntity
  8
DV3_Default
  6
Continuous
 62
     7
 48
25.4
100
AcDbLine
 10
184.4098934619
 20
151.4110476619
 30
0.0
 11
184.4098934619
 21
17.0110476619
 31
0.0
  0
TEXT
  5
22B
330
1DC
100
AcDbEntity
  8
DV3_Default
  6
Continuous
 62
     7
 48
25.4
100
AcDbText
 10
123.7052898894
 20
128.4277620655
 30
0.0
 40
3.5
  1
254mm
  7
SEACAD_arial_ttf
 11
123.7052898894
 21
131.9277620655
 31
0.0
100
AcDbText
 73
     3
  0
TEXT
  5
22C
330
1DC
100
AcDbEntity
  8
DV3_Default
  6
Continuous
 62
     7
 48
25.4
100
AcDbText
 10
123.820647036
 20
120.3115867705
 30
0.0
 40
3.5
  1
31mm
  7
SEACAD_arial_ttf
 11
123.820647036
 21
123.8115867705
 31
0.0
100
AcDbText
 73
     3
  0
TEXT
  5
22D
330
1DC
100
AcDbEntity
  8
DV3_Default
  6
Continuous
 62
     7
 48
25.4
100
AcDbText
 10
123.9200894472
 20
111.8024063772
 30
0.0
 40
3.5
  1
8.8mm
  7
SEACAD_arial_ttf
 11
123.9200894472
 21
115.3024063772
 31
0.0
100
AcDbText
 73
     3
  0
TEXT
  5
22E
330
1DC
100
AcDbEntity
  8
DV3_Default
  6
Continuous
 62
     7
 48
25.4
100
AcDbText
 10
123.3986084933
 20
103.3194803603
 30
0.0
 40
3.5
  1
19mm
  7
SEACAD_arial_ttf
 11
123.3986084933
 21
106.8194803603
 31
0.0
100
AcDbText
 73
     3
  0
TEXT
  5
22F
330
1DC
100
AcDbEntity
  8
DV3_Default
  6
Continuous
 62
     7
 48
25.4
100
AcDbText
 10
123.7043635334
 20
94.8365543435
 30
0.0
 40
3.5
  1
43kN
  7
SEACAD_arial_ttf
 11
123.7043635334
 21
98.3365543435
 31
0.0
100
AcDbText
 73
     3
  0
TEXT
  5
230
330
1DC
100
AcDbEntity
  8
DV3_Default
  6
Continuous
 62
     7
 48
25.4
100
AcDbText
 10
123.830060321
 20
86.4793251142
 30
0.0
 40
3.5
  1
111kN
  7
SEACAD_arial_ttf
 11
123.830060321
 21
89.9793251142
 31
0.0
100
AcDbText
 73
     3
  0
TEXT
  5
231
330
1DC
100
AcDbEntity
  8
DV3_Default
  6
Continuous
 62
     7
 48
25.4
100
AcDbText
 10
123.5550198781
 20
78.1626420981
 30
0.0
 40
3.5
  1
4200min-
  7
SEACAD_arial_ttf
 11
123.5550198781
 21
81.6626420981
 31
0.0
100
AcDbText
 73
     3
  0
TEXT
  5
232
330
1DC
100
AcDbEntity
  8
DV3_Default
  6
Continuous
 62
     7
 48
25.4
100
AcDbText
 10
144.098498139
 20
78.1626420981
 30
0.0
 40
3.2102777778
  1
¹
  7
SEACAD_arial_ttf
 11
144.098498139
 21
81.3729198758
 31
0.0
100
AcDbText
 73
     3
  0
TEXT
  5
233
330
1DC
100
AcDbEntity
  8
DV3_Default
  6
Continuous
 62
     7
 48
25.4
100
AcDbText
 10
123.3754385547
 20
69.9606586387
 30
0.0
 40
3.5
  1
37kN
  7
SEACAD_arial_ttf
 11
123.3754385547
 21
73.4606586387
 31
0.0
100
AcDbText
 73
     3
  0
TEXT
  5
234
330
1DC
100
AcDbEntity
  8
DV3_Default
  6
Continuous
 62
     7
 48
25.4
100
AcDbText
 10
123.2242542508
 20
61.3397857904
 30
0.0
 40
3.5
  1
40.0kg
  7
SEACAD_arial_ttf
 11
123.2242542508
 21
64.8397857904
 31
0.0
100
AcDbText
 73
     3
  0
TEXT
  5
235
330
1DC
100
AcDbEntity
  8
DV3_Default
  6
Continuous
 62
     7
 48
25.4
100
AcDbText
 10
123.2028084117
 20
52.9344347632
 30
0.0
 40
3.5
  1
0.323kg.m
  7
SEACAD_arial_ttf
 11
123.2028084117
 21
56.4344347632
 31
0.0
100
AcDbText
 73
     3
  0
TEXT
  5
236
330
1DC
100
AcDbEntity
  8
DV3_Default
  6
Continuous
 62
     7
 48
25.4
100
AcDbText
 10
146.3332431943
 20
52.9344347632
 30
0.0
 40
3.2102777778
  1
²
  7
SEACAD_arial_ttf
 11
146.3332431943
 21
56.144712541
 31
0.0
100
AcDbText
 73
     3
  0
TEXT
  5
237
330
1DC
100
AcDbEntity
  8
DV3_Default
  6
Continuous
 62
     7
 48
25.4
100
AcDbText
 10
123.2242542508
 20
44.9601273785
 30
0.0
 40
3.5
  1
S1875
  7
SEACAD_arial_ttf
 11
123.2242542508
 21
48.4601273785
 31
0.0
100
AcDbText
 73
     3
  0
TEXT
  5
238
330
1DC
100
AcDbEntity
  8
DV3_Default
  6
Continuous
 62
     7
 48
25.4
100
AcDbText
 10
123.439776072
 20
35.9296567269
 30
0.0
 40
3.5
  1
2.7MPa
  7
SEACAD_arial_ttf
 11
123.439776072
 21
39.4296567269
 31
0.0
100
AcDbText
 73
     3
  0
TEXT
  5
239
330
1DC
100
AcDbEntity
  8
DV3_Default
  6
Continuous
 62
     7
 48
25.4
100
AcDbText
 10
123.612406215
 20
27.9124576639
 30
0.0
 40
3.5
  1
HB10A1
  7
SEACAD_arial_ttf
 11
123.612406215
 21
31.4124576639
 31
0.0
100
AcDbText
 73
     3
  0
LINE
  5
23A
330
1DC
100
AcDbEntity
  8
DV3_Default
  6
CENTER2
 62
     7
 48
25.4
100
AcDbLine
 10
201.9568745419
 20
152.8548621134
 30
0.0
 11
226.0522617523
 21
152.8548621134
 31
0.0
  0
LINE
  5
23B
330
1DC
100
AcDbEntity
  8
DV3_Default
  6
Continuous
 62
     7
 48
25.4
100
AcDbLine
 10
223.0843173607
 20
152.8548621134
 30
0.0
 11
223.0843173607
 21
158.4548621134
 31
0.0
  0
LINE
  5
23C
330
1DC
100
AcDbEntity
  8
DV3_Default
  6
Continuous
 62
     7
 48
25.4
100
AcDbLine
 10
223.0804089541
 20
152.8548621134
 30
0.0
 11
213.9804089541
 21
152.8548621134
 31
0.0
  0
LINE
  5
23D
330
1DC
100
AcDbEntity
  8
DV3_Default
  6
Continuous
 62
     7
 48
25.4
100
AcDbLine
 10
213.9843173607
 20
158.4548621134
 30
0.0
 11
213.9843173607
 21
160.7301999861
 31
0.0
  0
LINE
  5
23E
330
1DC
100
AcDbEntity
  8
DV3_Default
  6
Continuous
 62
     7
 48
25.4
100
AcDbLine
 10
208.0343173607
 20
152.8551999861
 30
0.0
 11
208.0343173607
 21
158.9801999861
 31
0.0
  0
LINE
  5
23F
330
1DC
100
AcDbEntity
  8
DV3_Default
  6
Continuous
 62
     7
 48
25.4
100
AcDbLine
 10
209.7843173607
 20
160.7301999861
 30
0.0
 11
213.9843173607
 21
160.7301999861
 31
0.0
  0
LINE
  5
240
330
1DC
100
AcDbEntity
  8
DV3_Default
  6
Continuous
 62
     7
 48
25.4
100
AcDbLine
 10
208.0343173607
 20
158.9801999861
 30
0.0
 11
209.7843173607
 21
160.7301999861
 31
0.0
  0
LINE
  5
241
330
1DC
100
AcDbEntity
  8
DV3_Default
  6
Continuous
 62
     7
 48
25.4
100
AcDbLine
 10
213.9843173607
 20
160.7301999861
 30
0.0
 11
213.6812084694
 21
161.0333088774
 31
0.0
  0
LINE
  5
242
330
1DC
100
AcDbEntity
  8
DV3_Default
  6
Continuous
 62
     7
 48
25.4
100
AcDbLine
 10
223.0804089541
 20
152.8548621134
 30
0.0
 11
220.9804089541
 21
152.8548621134
 31
0.0
  0
LINE
  5
243
330
1DC
100
AcDbEntity
  8
DV3_Default
  6
Continuous
 62
     7
 48
25.4
100
AcDbLine
 10
220.9804089541
 20
158.4548621134
 30
0.0
 11
220.9804089541
 21
166.1548621134
 31
0.0
  0
LINE
  5
244
330
1DC
100
AcDbEntity
  8
DV3_Default
  6
Continuous
 62
     7
 48
25.4
100
AcDbLine
 10
219.5804089541
 20
167.5548621134
 30
0.0
 11
209.0804089541
 21
167.5548621134
 31
0.0
  0
LINE
  5
245
330
1DC
100
AcDbEntity
  8
DV3_Default
  6
Continuous
 62
     7
 48
25.4
100
AcDbLine
 10
213.9843173607
 20
158.4548621134
 30
0.0
 11
223.0843173607
 21
158.4548621134
 31
0.0
  0
LINE
  5
246
330
1DC
100
AcDbEntity
  8
DV3_Default
  6
Continuous
 62
     7
 48
25.4
100
AcDbLine
 10
220.9804089541
 20
166.1548621134
 30
0.0
 11
219.5804089541
 21
167.5548621134
 31
0.0
  0
LINE
  5
247
330
1DC
100
AcDbEntity
  8
DV3_Default
  6
Continuous
 62
     7
 48
25.4
100
AcDbLine
 10
219.5804089541
 20
167.5548621134
 30
0.0
 11
219.5804089541
 21
178.7548621134
 31
0.0
  0
LINE
  5
248
330
1DC
100
AcDbEntity
  8
DV3_Default
  6
Continuous
 62
     7
 48
25.4
100
AcDbLine
 10
213.6812084694
 20
161.0333088774
 30
0.0
 11
209.4812084694
 21
161.0333088774
 31
0.0
  0
LINE
  5
249
330
1DC
100
AcDbEntity
  8
DV3_Default
  6
Continuous
 62
     7
 48
25.4
100
AcDbLine
 10
209.4812084694
 20
161.0333088774
 30
0.0
 11
207.6730657192
 21
159.2251661273
 31
0.0
  0
LINE
  5
24A
330
1DC
100
AcDbEntity
  8
DV3_Default
  6
Continuous
 62
     7
 48
25.4
100
AcDbLine
 10
207.6730657192
 20
159.2251661273
 30
0.0
 11
207.6730657192
 21
152.8548621134
 31
0.0
  0
LINE
  5
24B
330
1DC
100
AcDbEntity
  8
DV3_Default
  6
Continuous
 62
     7
 48
25.4
100
AcDbLine
 10
223.0843173607
 20
152.8548621134
 30
0.0
 11
223.0843173607
 21
147.2548621134
 31
0.0
  0
LINE
  5
24C
330
1DC
100
AcDbEntity
  8
DV3_Default
  6
Continuous
 62
     7
 48
25.4
100
AcDbLine
 10
223.0804089541
 20
152.8548621134
 30
0.0
 11
213.9804089541
 21
152.8548621134
 31
0.0
  0
LINE
  5
24D
330
1DC
100
AcDbEntity
  8
DV3_Default
  6
Continuous
 62
     7
 48
25.4
100
AcDbLine
 10
213.9843173607
 20
147.2548621134
 30
0.0
 11
213.9843173607
 21
144.9795242406
 31
0.0
  0
LINE
  5
24E
330
1DC
100
AcDbEntity
  8
DV3_Default
  6
Continuous
 62
     7
 48
25.4
100
AcDbLine
 10
208.0343173607
 20
152.8545242406
 30
0.0
 11
208.0343173607
 21
146.7295242406
 31
0.0
  0
LINE
  5
24F
330
1DC
100
AcDbEntity
  8
DV3_Default
  6
Continuous
 62
     7
 48
25.4
100
AcDbLine
 10
209.7843173607
 20
144.9795242406
 30
0.0
 11
213.9843173607
 21
144.9795242406
 31
0.0
  0
LINE
  5
250
330
1DC
100
AcDbEntity
  8
DV3_Default
  6
Continuous
 62
     7
 48
25.4
100
AcDbLine
 10
208.0343173607
 20
146.7295242406
 30
0.0
 11
209.7843173607
 21
144.9795242406
 31
0.0
  0
LINE
  5
251
330
1DC
100
AcDbEntity
  8
DV3_Default
  6
Continuous
 62
     7
 48
25.4
100
AcDbLine
 10
213.9843173607
 20
144.9795242406
 30
0.0
 11
213.6812084694
 21
144.6764153493
 31
0.0
  0
LINE
  5
252
330
1DC
100
AcDbEntity
  8
DV3_Default
  6
Continuous
 62
     7
 48
25.4
100
AcDbLine
 10
223.0804089541
 20
152.8548621134
 30
0.0
 11
220.9804089541
 21
152.8548621134
 31
0.0
  0
LINE
  5
253
330
1DC
100
AcDbEntity
  8
DV3_Default
  6
Continuous
 62
     7
 48
25.4
100
AcDbLine
 10
220.9804089541
 20
147.2548621134
 30
0.0
 11
220.9804089541
 21
139.5548621134
 31
0.0
  0
LINE
  5
254
330
1DC
100
AcDbEntity
  8
DV3_Default
  6
Continuous
 62
     7
 48
25.4
100
AcDbLine
 10
219.5804089541
 20
138.1548621134
 30
0.0
 11
209.0804089541
 21
138.1548621134
 31
0.0
  0
LINE
  5
255
330
1DC
100
AcDbEntity
  8
DV3_Default
  6
Continuous
 62
     7
 48
25.4
100
AcDbLine
 10
213.9843173607
 20
147.2548621134
 30
0.0
 11
223.0843173607
 21
147.2548621134
 31
0.0
  0
LINE
  5
256
330
1DC
100
AcDbEntity
  8
DV3_Default
  6
Continuous
 62
     7
 48
25.4
100
AcDbLine
 10
220.9804089541
 20
139.5548621134
 30
0.0
 11
219.5804089541
 21
138.1548621134
 31
0.0
  0
LINE
  5
257
330
1DC
100
AcDbEntity
  8
DV3_Default
  6
Continuous
 62
     7
 48
25.4
100
AcDbLine
 10
219.5804089541
 20
138.1548621134
 30
0.0
 11
219.5804089541
 21
126.9548621134
 31
0.0
  0
LINE
  5
258
330
1DC
100
AcDbEntity
  8
DV3_Default
  6
Continuous
 62
     7
 48
25.4
100
AcDbLine
 10
213.6812084694
 20
144.6764153493
 30
0.0
 11
209.4812084694
 21
144.6764153493
 31
0.0
  0
LINE
  5
259
330
1DC
100
AcDbEntity
  8
DV3_Default
  6
Continuous
 62
     7
 48
25.4
100
AcDbLine
 10
209.4812084694
 20
144.6764153493
 30
0.0
 11
207.6730657192
 21
146.4845580995
 31
0.0
  0
LINE
  5
25A
330
1DC
100
AcDbEntity
  8
DV3_Default
  6
Continuous
 62
     7
 48
25.4
100
AcDbLine
 10
207.6730657192
 20
146.4845580995
 30
0.0
 11
207.6730657192
 21
152.8548621134
 31
0.0
  0
LINE
  5
25B
330
1DC
100
AcDbEntity
  8
DV3_Default
  6
Continuous
 62
     7
 48
25.4
100
AcDbLine
 10
201.9568745419
 20
152.8548621134
 30
0.0
 11
196.9357392307
 21
152.8548621134
 31
0.0
  0
LINE
  5
25C
330
1DC
100
AcDbEntity
  8
DV3_Default
  6
Continuous
 62
     7
 48
25.4
100
AcDbLine
 10
302.3179722328
 20
36.6845490664
 30
0.0
 11
302.3179722328
 21
143.7845490664
 31
0.0
  0
LINE
  5
25D
330
1DC
100
AcDbEntity
  8
DV3_Default
  6
Continuous
 62
     7
 48
25.4
100
AcDbLine
 10
335.9179722328
 20
143.7845490664
 30
0.0
 11
335.9179722328
 21
36.6845490664
 31
0.0
  0
LINE
  5
25E
330
1DC
100
AcDbEntity
  8
DV3_Default
  6
Continuous
 62
     7
 48
25.4
100
AcDbLine
 10
369.5179722328
 20
36.6845490664
 30
0.0
 11
369.5179722328
 21
143.7845490664
 31
0.0
  0
LINE
  5
25F
330
1DC
100
AcDbEntity
  8
DV3_Default
  6
Continuous
 62
     7
 48
25.4
100
AcDbLine
 10
403.1179722328
 20
143.7845490664
 30
0.0
 11
403.1179722328
 21
36.6845490664
 31
0.0
  0
LINE
  5
260
330
1DC
100
AcDbEntity
  8
DV3_Default
  6
Continuous
 62
     7
 48
25.4
100
AcDbLine
 10
268.7179722328
 20
54.5345490664
 30
0.0
 11
408.7179722328
 21
54.5345490664
 31
0.0
  0
LINE
  5
261
330
1DC
100
AcDbEntity
  8
DV3_Default
  6
Continuous
 62
     7
 48
25.4
100
AcDbLine
 10
408.7179722328
 20
72.3845490664
 30
0.0
 11
268.7179722328
 21
72.3845490664
 31
0.0
  0
LINE
  5
262
330
1DC
100
AcDbEntity
  8
DV3_Default
  6
Continuous
 62
     7
 48
25.4
100
AcDbLine
 10
268.7179722328
 20
90.2345490664
 30
0.0
 11
408.7179722328
 21
90.2345490664
 31
0.0
  0
LINE
  5
263
330
1DC
100
AcDbEntity
  8
DV3_Default
  6
Continuous
 62
     7
 48
25.4
100
AcDbLine
 10
408.7179722328
 20
108.0845490664
 30
0.0
 11
268.7179722328
 21
108.0845490664
 31
0.0
  0
LINE
  5
264
330
1DC
100
AcDbEntity
  8
DV3_Default
  6
Continuous
 62
     7
 48
25.4
100
AcDbLine
 10
268.7179722328
 20
125.9345490664
 30
0.0
 11
408.7179722328
 21
125.9345490664
 31
0.0
  0
ARC
  5
265
330
1DC
100
AcDbEntity
  8
DV3_Default
  6
Continuous
 62
     7
 48
25.4
100
AcDbCircle
 10
296.8239302605
 20
279.6456219864
 30
0.0
 40
237.3459868825478
100
AcDbArc
 50
280.3491307407
 51
298.0279798877
  0
ARC
  5
266
330
1DC
100
AcDbEntity
  8
DV3_Default
  6
Continuous
 62
     7
 48
25.4
100
AcDbCircle
 10
278.748959307
 20
-61.3266470152
 30
0.0
 40
123.4490616124557
100
AcDbArc
 50
60.5405409288
 51
94.6607690135
  0
ARC
  5
267
330
1DC
100
AcDbEntity
  8
DV3_Default
  6
Continuous
 62
     7
 48
25.4
100
AcDbCircle
 10
268.7179722328
 20
-82.0476773408
 30
0.0
 40
154.4322264072815
100
AcDbArc
 50
57.7676553803
 51
90.0
  0
ARC
  5
268
330
1DC
100
AcDbEntity
  8
DV3_Default
  6
Continuous
 62
     7
 48
25.4
100
AcDbCircle
 10
273.0343691019
 20
-58.6443980232
 30
0.0
 40
140.2969218772712
100
AcDbArc
 50
51.4085987477
 51
91.7630490555
  0
ARC
  5
269
330
1DC
100
AcDbEntity
  8
DV3_Default
  6
Continuous
 62
     7
 48
25.4
100
AcDbCircle
 10
276.1983766765
 20
-56.2413685563
 30
0.0
 40
146.6668022902813
100
AcDbArc
 50
49.0907233048
 51
92.9235084612
  0
ARC
  5
26A
330
1DC
100
AcDbEntity
  8
DV3_Default
  6
Continuous
 62
     7
 48
25.4
100
AcDbCircle
 10
278.5020297944
 20
-48.5498195973
 30
0.0
 40
147.8622909323831
100
AcDbArc
 50
45.9985579864
 51
93.7940376437
  0
ARC
  5
26B
330
1DC
100
AcDbEntity
  8
DV3_Default
  6
Continuous
 62
     7
 48
25.4
100
AcDbCircle
 10
267.5387225539
 20
-70.6087724935
 30
0.0
 40
179.7765608520228
100
AcDbArc
 50
47.174764519
 51
89.5668962785
  0
ARC
  5
26C
330
1DC
100
AcDbEntity
  8
DV3_Default
  6
Continuous
 62
     7
 48
25.4
100
AcDbCircle
 10
272.7829986943
 20
-55.7213903527
 30
0.0
 40
172.4653191497715
100
AcDbArc
 50
44.1022900892
 51
91.3505928717
  0
ARC
  5
26D
330
1DC
100
AcDbEntity
  8
DV3_Default
  6
Continuous
 62
     7
 48
25.4
100
AcDbCircle
 10
267.2694700236
 20
-54.2461637177
 30
0.0
 40
182.2441667610972
100
AcDbArc
 50
41.804787422
 51
89.54460031
  0
ARC
  5
26E
330
1DC
100
AcDbEntity
  8
DV3_Default
  6
Continuous
 62
     7
 48
25.4
100
AcDbCircle
 10
272.9531839644
 20
-35.3577548434
 30
0.0
 40
171.6454550374906
100
AcDbArc
 50
37.9230525255
 51
91.413870159
  0
ENDBLK
  5
270
330
1DC
100
AcDbEntity
  8
0
100
AcDbBlockEnd
  0
BLOCK
  5
27C
330
271
100
AcDbEntity
  8
0
100
AcDbBlockBegin
  2
GDimGGroup
 70
     0
 71
     0
 10
0.0
 20
0.0
 30
0.0
  3
GDimGGroup
  1

  0
HATCH
  5
273
330
271
100
AcDbEntity
  8
Default
  6
Continuous
 62
     7
 48
25.4
100
AcDbHatch
 10
0.0
 20
0.0
 30
0.0
210
0.0
220
0.0
230
1.0
  2
SOLID
 70
     1
 71
     0
 91
        1
 92
        1
 93
        3
 72
     1
 10
236.1458122236544
 20
143.2548619233783
 11
235.4791455253228
 21
147.2548621133682
 72
     1
 10
235.4791455253228
 20
147.2548621133682
 11
234.8124788269912
 21
143.2548619233783
 72
     1
 10
234.8124788269912
 20
143.2548619233783
 11
236.1458122236544
 21
143.2548619233783
 97
        0
 75
     0
 76
     1
 98
        0
  0
LWPOLYLINE
  5
274
330
271
100
AcDbEntity
  8
Default
  6
Continuous
 62
     7
 48
25.4
370
    20
100
AcDbPolyline
 90
        4
 70
     1
 43
0.00025
 10
236.1458122237
 20
143.2548619234
 10
235.4791455253
 20
147.2548621134
 10
234.812478827
 20
143.2548619234
 10
236.1458122237
 20
143.2548619234
  0
HATCH
  5
275
330
271
100
AcDbEntity
  8
Default
  6
Continuous
 62
     7
 48
25.4
100
AcDbHatch
 10
0.0
 20
0.0
 30
0.0
210
0.0
220
0.0
230
1.0
  2
SOLID
 70
     1
 71
     0
 91
        1
 92
        1
 93
        3
 72
     1
 10
236.1458122236544
 20
162.4548623033579
 11
234.8124788269912
 21
162.4548623033579
 72
     1
 10
234.8124788269912
 20
162.4548623033579
 11
235.4791455253228
 21
158.4548621133681
 72
     1
 10
235.4791455253228
 20
158.4548621133681
 11
236.1458122236544
 21
162.4548623033579
 97
        0
 75
     0
 76
     1
 98
        0
  0
LWPOLYLINE
  5
276
330
271
100
AcDbEntity
  8
Default
  6
Continuous
 62
     7
 48
25.4
370
    20
100
AcDbPolyline
 90
        4
 70
     1
 43
0.00025
 10
236.1458122237
 20
162.4548623034
 10
235.4791455253
 20
158.4548621134
 10
234.812478827
 20
162.4548623034
 10
236.1458122237
 20
162.4548623034
  0
LINE
  5
277
330
271
100
AcDbEntity
  8
Default
  6
Continuous
 62
     7
 48
25.4
100
AcDbLine
 10
223.0843177348
 20
147.2548621134
 30
0.0
 11
237.4791456203
 21
147.2548621134
 31
0.0
  0
LINE
  5
278
330
271
100
AcDbEntity
  8
Default
  6
Continuous
 62
     7
 48
25.4
100
AcDbLine
 10
223.0843177348
 20
158.4548621134
 30
0.0
 11
237.4791456203
 21
158.4548621134
 31
0.0
  0
LINE
  5
279
330
271
100
AcDbEntity
  8
Default
  6
Continuous
 62
     7
 48
25.4
100
AcDbLine
 10
235.4791455253
 20
110.1658420996
 30
0.0
 11
235.4791455253
 21
166.4548630253
 31
0.0
  0
TEXT
  5
27A
330
271
100
AcDbEntity
  8
Default
  6
Continuous
 62
     7
 48
25.4
100
AcDbText
 10
234.4791455253
 20
111.5658431012
 30
0.0
 40
4.0
  1
16
 50
90.0
  7
SEACAD_arial_ttf
 11
230.4791455253
 21
111.5658431012
 31
0.0
100
AcDbText
 73
     3
  0
TEXT
  5
27B
330
271
100
AcDbEntity
  8
Default
  6
Continuous
 62
     7
 48
25.4
100
AcDbText
 10
234.4791455253
 20
120.2267126665
 30
0.0
 40
4.0
  1
H8/h8
 50
90.0
  7
SEACAD_arial_ttf
 11
230.4791455253
 21
120.2267126665
 31
0.0
100
AcDbText
 73
     3
  0
ENDBLK
  5
27D
330
271
100
AcDbEntity
  8
0
100
AcDbBlockEnd
  0
BLOCK
  5
288
330
27E
100
AcDbEntity
  8
0
100
AcDbBlockBegin
  2
GDimGGroup1
 70
     0
 71
     0
 10
0.0
 20
0.0
 30
0.0
  3
GDimGGroup1
  1

  0
HATCH
  5
280
330
27E
100
AcDbEntity
  8
Default
  6
Continuous
 62
     7
 48
25.4
100
AcDbHatch
 10
0.0
 20
0.0
 30
0.0
210
0.0
220
0.0
230
1.0
  2
SOLID
 70
     1
 71
     0
 91
        1
 92
        1
 93
        3
 72
     1
 10
248.3501393251736
 20
142.1548623033579
 11
247.0168059285103
 21
142.1548623033579
 72
     1
 10
247.0168059285103
 20
142.1548623033579
 11
247.6834726268419
 21
138.1548621133681
 72
     1
 10
247.6834726268419
 20
138.1548621133681
 11
248.3501393251736
 21
142.1548623033579
 97
        0
 75
     0
 76
     1
 98
        0
  0
LWPOLYLINE
  5
281
330
27E
100
AcDbEntity
  8
Default
  6
Continuous
 62
     7
 48
25.4
370
    20
100
AcDbPolyline
 90
        4
 70
     1
 43
0.00025
 10
248.3501393252
 20
142.1548623034
 10
247.6834726268
 20
138.1548621134
 10
247.0168059285
 20
142.1548623034
 10
248.3501393252
 20
142.1548623034
  0
HATCH
  5
282
330
27E
100
AcDbEntity
  8
Default
  6
Continuous
 62
     7
 48
25.4
100
AcDbHatch
 10
0.0
 20
0.0
 30
0.0
210
0.0
220
0.0
230
1.0
  2
SOLID
 70
     1
 71
     0
 91
        1
 92
        1
 93
        3
 72
     1
 10
248.3501393251736
 20
163.5548622720655
 11
247.6834726268419
 21
167.5548624620553
 72
     1
 10
247.6834726268419
 20
167.5548624620553
 11
247.0168059285103
 21
163.5548622720655
 72
     1
 10
247.0168059285103
 20
163.5548622720655
 11
248.3501393251736
 21
163.5548622720655
 97
        0
 75
     0
 76
     1
 98
        0
  0
LWPOLYLINE
  5
283
330
27E
100
AcDbEntity
  8
Default
  6
Continuous
 62
     7
 48
25.4
370
    20
100
AcDbPolyline
 90
        4
 70
     1
 43
0.00025
 10
248.3501393252
 20
163.5548622721
 10
247.6834726268
 20
167.5548624621
 10
247.0168059285
 20
163.5548622721
 10
248.3501393252
 20
163.5548622721
  0
LINE
  5
284
330
27E
100
AcDbEntity
  8
Default
  6
Continuous
 62
     7
 48
25.4
100
AcDbLine
 10
219.5804088125
 20
138.1548621134
 30
0.0
 11
249.6834727218
 21
138.1548621134
 31
0.0
  0
LINE
  5
285
330
27E
100
AcDbEntity
  8
Default
  6
Continuous
 62
     7
 48
25.4
100
AcDbLine
 10
219.5804089541
 20
167.5548621134
 30
0.0
 11
249.6834727218
 21
167.5548621134
 31
0.0
  0
LINE
  5
286
330
27E
100
AcDbEntity
  8
Default
  6
Continuous
 62
     7
 48
25.4
100
AcDbLine
 10
247.6834726268
 20
138.1548621134
 30
0.0
 11
247.6834726268
 21
167.5548624621
 31
0.0
  0
TEXT
  5
287
330
27E
100
AcDbEntity
  8
Default
  6
Continuous
 62
     7
 48
25.4
100
AcDbText
 10
246.6834726268
 20
149.7244275051
 30
0.0
 40
4.0
  1
42
 50
90.0
  7
SEACAD_arial_ttf
 11
242.6834726268
 21
149.7244275051
 31
0.0
100
AcDbText
 73
     3
  0
ENDBLK
  5
289
330
27E
100
AcDbEntity
  8
0
100
AcDbBlockEnd
  0
BLOCK
  5
294
330
28A
100
AcDbEntity
  8
0
100
AcDbBlockBegin
  2
GDimGGroup2
 70
     0
 71
     0
 10
0.0
 20
0.0
 30
0.0
  3
GDimGGroup2
  1

  0
HATCH
  5
28C
330
28A
100
AcDbEntity
  8
Default
  6
Continuous
 62
     7
 48
25.4
100
AcDbHatch
 10
0.0
 20
0.0
 30
0.0
210
0.0
220
0.0
230
1.0
  2
SOLID
 70
     1
 71
     0
 91
        1
 92
        1
 93
        3
 72
     1
 10
227.0843175507351
 20
181.2172926678723
 11
223.0843173607453
 21
180.5506259695407
 72
     1
 10
223.0843173607453
 20
180.5506259695407
 11
227.0843175507351
 21
179.8839592712091
 72
     1
 10
227.0843175507351
 20
179.8839592712091
 11
227.0843175507351
 21
181.2172926678723
 97
        0
 75
     0
 76
     1
 98
        0
  0
LWPOLYLINE
  5
28D
330
28A
100
AcDbEntity
  8
Default
  6
Continuous
 62
     7
 48
25.4
370
    20
100
AcDbPolyline
 90
        4
 70
     1
 43
0.00025
 10
227.0843175507
 20
181.2172926679
 10
223.0843173607
 20
180.5506259695
 10
227.0843175507
 20
179.8839592712
 10
227.0843175507
 20
181.2172926679
  0
HATCH
  5
28E
330
28A
100
AcDbEntity
  8
Default
  6
Continuous
 62
     7
 48
25.4
100
AcDbHatch
 10
0.0
 20
0.0
 30
0.0
210
0.0
220
0.0
230
1.0
  2
SOLID
 70
     1
 71
     0
 91
        1
 92
        1
 93
        3
 72
     1
 10
216.9804087640711
 20
181.2172926678723
 11
216.9804087640711
 21
179.8839592712091
 72
     1
 10
216.9804087640711
 20
179.8839592712091
 11
220.980408954061
 21
180.5506259695407
 72
     1
 10
220.980408954061
 20
180.5506259695407
 11
216.9804087640711
 21
181.2172926678723
 97
        0
 75
     0
 76
     1
 98
        0
  0
LWPOLYLINE
  5
28F
330
28A
100
AcDbEntity
  8
Default
  6
Continuous
 62
     7
 48
25.4
370
    20
100
AcDbPolyline
 90
        4
 70
     1
 43
0.00025
 10
216.9804087641
 20
181.2172926679
 10
220.9804089541
 20
180.5506259695
 10
216.9804087641
 20
179.8839592712
 10
216.9804087641
 20
181.2172926679
  0
LINE
  5
290
330
28A
100
AcDbEntity
  8
Default
  6
Continuous
 62
     7
 48
25.4
100
AcDbLine
 10
223.0843173607
 20
152.8548621134
 30
0.0
 11
223.0843173607
 21
182.5506260645
 31
0.0
  0
LINE
  5
291
330
28A
100
AcDbEntity
  8
Default
  6
Continuous
 62
     7
 48
25.4
100
AcDbLine
 10
220.9804089541
 20
166.1548621134
 30
0.0
 11
220.9804089541
 21
182.5506260645
 31
0.0
  0
LINE
  5
292
330
28A
100
AcDbEntity
  8
Default
  6
Continuous
 62
     7
 48
25.4
100
AcDbLine
 10
235.2542056038
 20
180.5506259695
 30
0.0
 11
212.9804089933
 21
180.5506259695
 31
0.0
  0
TEXT
  5
293
330
28A
100
AcDbEntity
  8
Default
  6
Continuous
 62
     7
 48
25.4
100
AcDbText
 10
230.7237706914
 20
181.5506259695
 30
0.0
 40
4.0
  1
3
  7
SEACAD_arial_ttf
 11
230.7237706914
 21
185.5506259695
 31
0.0
100
AcDbText
 73
     3
  0
ENDBLK
  5
295
330
28A
100
AcDbEntity
  8
0
100
AcDbBlockEnd
  0
BLOCK
  5
2A0
330
296
100
AcDbEntity
  8
0
100
AcDbBlockBegin
  2
GDimGGroup3
 70
     0
 71
     0
 10
0.0
 20
0.0
 30
0.0
  3
GDimGGroup3
  1

  0
HATCH
  5
298
330
296
100
AcDbEntity
  8
Default
  6
Continuous
 62
     7
 48
25.4
100
AcDbHatch
 10
0.0
 20
0.0
 30
0.0
210
0.0
220
0.0
230
1.0
  2
SOLID
 70
     1
 71
     0
 91
        1
 92
        1
 93
        3
 72
     1
 10
224.9804091440508
 20
181.2172929092711
 11
220.980408954061
 21
180.5506262109395
 72
     1
 10
220.980408954061
 20
180.5506262109395
 11
224.9804091440508
 21
179.8839595126079
 72
     1
 10
224.9804091440508
 20
179.8839595126079
 11
224.9804091440508
 21
181.2172929092711
 97
        0
 75
     0
 76
     1
 98
        0
  0
LWPOLYLINE
  5
299
330
296
100
AcDbEntity
  8
Default
  6
Continuous
 62
     7
 48
25.4
370
    20
100
AcDbPolyline
 90
        4
 70
     1
 43
0.00025
 10
224.9804091441
 20
181.2172929093
 10
220.9804089541
 20
180.5506262109
 10
224.9804091441
 20
179.8839595126
 10
224.9804091441
 20
181.2172929093
  0
HATCH
  5
29A
330
296
100
AcDbEntity
  8
Default
  6
Continuous
 62
     7
 48
25.4
100
AcDbHatch
 10
0.0
 20
0.0
 30
0.0
210
0.0
220
0.0
230
1.0
  2
SOLID
 70
     1
 71
     0
 91
        1
 92
        1
 93
        3
 72
     1
 10
215.5804087640711
 20
181.2172929092711
 11
215.5804087640711
 21
179.8839595126079
 72
     1
 10
215.5804087640711
 20
179.8839595126079
 11
219.5804089540609
 21
180.5506262109395
 72
     1
 10
219.5804089540609
 20
180.5506262109395
 11
215.5804087640711
 21
181.2172929092711
 97
        0
 75
     0
 76
     1
 98
        0
  0
LWPOLYLINE
  5
29B
330
296
100
AcDbEntity
  8
Default
  6
Continuous
 62
     7
 48
25.4
370
    20
100
AcDbPolyline
 90
        4
 70
     1
 43
0.00025
 10
215.5804087641
 20
181.2172929093
 10
219.5804089541
 20
180.5506262109
 10
215.5804087641
 20
179.8839595126
 10
215.5804087641
 20
181.2172929093
  0
LINE
  5
29C
330
296
100
AcDbEntity
  8
Default
  6
Continuous
 62
     7
 48
25.4
100
AcDbLine
 10
220.9804089541
 20
166.1548621134
 30
0.0
 11
220.9804089541
 21
182.5506263059
 31
0.0
  0
LINE
  5
29D
330
296
100
AcDbEntity
  8
Default
  6
Continuous
 62
     7
 48
25.4
100
AcDbLine
 10
219.5804089541
 20
178.7548621134
 30
0.0
 11
219.5804089541
 21
182.5506263059
 31
0.0
  0
LINE
  5
29E
330
296
100
AcDbEntity
  8
Default
  6
Continuous
 62
     7
 48
25.4
100
AcDbLine
 10
228.980409334
 20
180.5506262109
 30
0.0
 11
210.0271148408
 21
180.5506262109
 31
0.0
  0
TEXT
  5
29F
330
296
100
AcDbEntity
  8
Default
  6
Continuous
 62
     7
 48
25.4
100
AcDbText
 10
211.4271149706
 20
181.5506262109
 30
0.0
 40
4.0
  1
2
  7
SEACAD_arial_ttf
 11
211.4271149706
 21
185.5506262109
 31
0.0
100
AcDbText
 73
     3
  0
ENDBLK
  5
2A1
330
296
100
AcDbEntity
  8
0
100
AcDbBlockEnd
  0
BLOCK
  5
2AB
330
2A2
100
AcDbEntity
  8
0
100
AcDbBlockBegin
  2
GDimGGroup4
 70
     0
 71
     0
 10
0.0
 20
0.0
 30
0.0
  3
GDimGGroup4
  1

  0
HATCH
  5
2A4
330
2A2
100
AcDbEntity
  8
Default
  6
Continuous
 62
     7
 48
25.4
100
AcDbHatch
 10
0.0
 20
0.0
 30
0.0
210
0.0
220
0.0
230
1.0
  2
SOLID
 70
     1
 71
     0
 91
        1
 92
        1
 93
        3
 72
     1
 10
156.9459025724562
 20
216.1693519972701
 11
156.9459025724562
 21
217.5026853939334
 72
     1
 10
156.9459025724562
 20
217.5026853939334
 11
152.9459023824664
 21
216.8360186956018
 72
     1
 10
152.9459023824664
 20
216.8360186956018
 11
156.9459025724562
 21
216.1693519972701
 97
        0
 75
     0
 76
     1
 98
        0
  0
LWPOLYLINE
  5
2A5
330
2A2
100
AcDbEntity
  8
Default
  6
Continuous
 62
     7
 48
25.4
370
    20
100
AcDbPolyline
 90
        4
 70
     1
 43
0.00025
 10
156.9459025725
 20
216.1693519973
 10
152.9459023825
 20
216.8360186956
 10
156.9459025725
 20
217.5026853939
 10
156.9459025725
 20
216.1693519973
  0
HATCH
  5
2A6
330
2A2
100
AcDbEntity
  8
Default
  6
Continuous
 62
     7
 48
25.4
100
AcDbHatch
 10
0.0
 20
0.0
 30
0.0
210
0.0
220
0.0
230
1.0
  2
SOLID
 70
     1
 71
     0
 91
        1
 92
        1
 93
        3
 72
     1
 10
145.4411810971134
 20
216.1693519972701
 11
149.4411812871032
 21
216.8360186956018
 72
     1
 10
149.4411812871032
 20
216.8360186956018
 11
145.4411810971134
 21
217.5026853939334
 72
     1
 10
145.4411810971134
 20
217.5026853939334
 11
145.4411810971134
 21
216.1693519972701
 97
        0
 75
     0
 76
     1
 98
        0
  0
LWPOLYLINE
  5
2A7
330
2A2
100
AcDbEntity
  8
Default
  6
Continuous
 62
     7
 48
25.4
370
    20
100
AcDbPolyline
 90
        4
 70
     1
 43
0.00025
 10
145.4411810971
 20
216.1693519973
 10
149.4411812871
 20
216.8360186956
 10
145.4411810971
 20
217.5026853939
 10
145.4411810971
 20
216.1693519973
  0
LINE
  5
2A8
330
2A2
100
AcDbEntity
  8
Default
  6
Continuous
 62
     7
 48
25.4
100
AcDbLine
 10
152.9459023825
 20
222.4672219931
 30
0.0
 11
152.9459023825
 21
214.8360186006
 31
0.0
  0
LINE
  5
2A9
330
2A2
100
AcDbEntity
  8
Default
  6
Continuous
 62
     7
 48
25.4
100
AcDbLine
 10
163.8999368972
 20
216.8360186956
 30
0.0
 11
141.441181486
 21
216.8360186956
 31
0.0
  0
TEXT
  5
2AA
330
2A2
100
AcDbEntity
  8
Default
  6
Continuous
 62
     7
 48
25.4
100
AcDbText
 10
159.3695019847
 20
217.8360186956
 30
0.0
 40
4.0
  1
5
  7
SEACAD_arial_ttf
 11
159.3695019847
 21
221.8360186956
 31
0.0
100
AcDbText
 73
     3
  0
ENDBLK
  5
2AC
330
2A2
100
AcDbEntity
  8
0
100
AcDbBlockEnd
  0
BLOCK
  5
2B8
330
2AD
100
AcDbEntity
  8
0
100
AcDbBlockBegin
  2
GDimGGroup5
 70
     0
 71
     0
 10
0.0
 20
0.0
 30
0.0
  3
GDimGGroup5
  1

  0
HATCH
  5
2AF
330
2AD
100
AcDbEntity
  8
Default
  6
Continuous
 62
     7
 48
25.4
100
AcDbHatch
 10
0.0
 20
0.0
 30
0.0
210
0.0
220
0.0
230
1.0
  2
SOLID
 70
     1
 71
     0
 91
        1
 92
        1
 93
        3
 72
     1
 10
232.9600147647742
 20
244.2794637652292
 11
232.2933480664426
 21
248.279463955219
 72
     1
 10
232.2933480664426
 20
248.279463955219
 11
231.6266813681109
 21
244.2794637652292
 72
     1
 10
231.6266813681109
 20
244.2794637652292
 11
232.9600147647742
 21
244.2794637652292
 97
        0
 75
     0
 76
     1
 98
        0
  0
LWPOLYLINE
  5
2B0
330
2AD
100
AcDbEntity
  8
Default
  6
Continuous
 62
     7
 48
25.4
370
    20
100
AcDbPolyline
 90
        4
 70
     1
 43
0.00025
 10
232.9600147648
 20
244.2794637652
 10
232.2933480664
 20
248.2794639552
 10
231.6266813681
 20
244.2794637652
 10
232.9600147648
 20
244.2794637652
  0
HATCH
  5
2B1
330
2AD
100
AcDbEntity
  8
Default
  6
Continuous
 62
     7
 48
25.4
100
AcDbHatch
 10
0.0
 20
0.0
 30
0.0
210
0.0
220
0.0
230
1.0
  2
SOLID
 70
     1
 71
     0
 91
        1
 92
        1
 93
        3
 72
     1
 10
232.9600147647742
 20
234.674980853702
 11
231.6266813681109
 21
234.674980853702
 72
     1
 10
231.6266813681109
 20
234.674980853702
 11
232.2933480664426
 21
230.6749806637122
 72
     1
 10
232.2933480664426
 20
230.6749806637122
 11
232.9600147647742
 21
234.674980853702
 97
        0
 75
     0
 76
     1
 98
        0
  0
LWPOLYLINE
  5
2B2
330
2AD
100
AcDbEntity
  8
Default
  6
Continuous
 62
     7
 48
25.4
370
    20
100
AcDbPolyline
 90
        4
 70
     1
 43
0.00025
 10
232.9600147648
 20
234.6749808537
 10
232.2933480664
 20
230.6749806637
 10
231.6266813681
 20
234.6749808537
 10
232.9600147648
 20
234.6749808537
  0
LINE
  5
2B3
330
2AD
100
AcDbEntity
  8
Default
  6
Continuous
 62
     7
 48
25.4
100
AcDbLine
 10
219.4411812871
 20
248.2794639552
 30
0.0
 11
234.2933481614
 21
248.2794639552
 31
0.0
  0
LINE
  5
2B4
330
2AD
100
AcDbEntity
  8
Default
  6
Continuous
 62
     7
 48
25.4
100
AcDbLine
 10
219.4411812871
 20
230.674980031
 30
0.0
 11
234.2933481614
 21
230.674980031
 31
0.0
  0
LINE
  5
2B5
330
2AD
100
AcDbEntity
  8
Default
  6
Continuous
 62
     7
 48
25.4
100
AcDbLine
 10
232.2933480664
 20
248.2794639552
 30
0.0
 11
232.2933480664
 21
230.6749806637
 31
0.0
  0
TEXT
  5
2B6
330
2AD
100
AcDbEntity
  8
Default
  6
Continuous
 62
     7
 48
25.4
100
AcDbText
 10
231.2933480664
 20
240.0274892812
 30
0.0
 40
4.0
  1
25
 50
90.0
  7
SEACAD_arial_ttf
 11
227.2933480664
 21
240.0274892812
 31
0.0
100
AcDbText
 73
     3
  0
TEXT
  5
2B7
330
2AD
100
AcDbEntity
  8
Default
  6
Continuous
 62
     7
 48
25.4
100
AcDbText
 10
231.2933480664
 20
232.6660857725
 30
0.0
 40
4.0
  1
O
 50
90.0
  7
SEACAD_semeca1_ttf
 11
227.2933480664
 21
232.6660857725
 31
0.0
100
AcDbText
 73
     3
  0
ENDBLK
  5
2B9
330
2AD
100
AcDbEntity
  8
0
100
AcDbBlockEnd
  0
BLOCK
  5
2C3
330
2BA
100
AcDbEntity
  8
0
100
AcDbBlockBegin
  2
GDimGGroup6
 70
     0
 71
     0
 10
0.0
 20
0.0
 30
0.0
  3
GDimGGroup6
  1

  0
HATCH
  5
2BC
330
2BA
100
AcDbEntity
  8
Default
  6
Continuous
 62
     7
 48
25.4
100
AcDbHatch
 10
0.0
 20
0.0
 30
0.0
210
0.0
220
0.0
230
1.0
  2
SOLID
 70
     1
 71
     0
 91
        1
 92
        1
 93
        3
 72
     1
 10
201.6279953201247
 20
277.1868762303337
 11
200.2946619234615
 21
277.1868762303337
 72
     1
 10
200.2946619234615
 20
277.1868762303337
 11
200.9613286217931
 21
273.1868760403439
 72
     1
 10
200.9613286217931
 20
273.1868760403439
 11
201.6279953201247
 21
277.1868762303337
 97
        0
 75
     0
 76
     1
 98
        0
  0
LWPOLYLINE
  5
2BD
330
2BA
100
AcDbEntity
  8
Default
  6
Continuous
 62
     7
 48
25.4
370
    20
100
AcDbPolyline
 90
        4
 70
     1
 43
0.00025
 10
201.6279953201
 20
277.1868762303
 10
200.9613286218
 20
273.1868760403
 10
200.2946619235
 20
277.1868762303
 10
201.6279953201
 20
277.1868762303
  0
HATCH
  5
2BE
330
2BA
100
AcDbEntity
  8
Default
  6
Continuous
 62
     7
 48
25.4
100
AcDbHatch
 10
0.0
 20
0.0
 30
0.0
210
0.0
220
0.0
230
1.0
  2
SOLID
 70
     1
 71
     0
 91
        1
 92
        1
 93
        3
 72
     1
 10
201.6279953201247
 20
321.7475666407689
 11
200.9613286217931
 21
325.7475668307587
 72
     1
 10
200.9613286217931
 20
325.7475668307587
 11
200.2946619234615
 21
321.7475666407689
 72
     1
 10
200.2946619234615
 20
321.7475666407689
 11
201.6279953201247
 21
321.7475666407689
 97
        0
 75
     0
 76
     1
 98
        0
  0
LWPOLYLINE
  5
2BF
330
2BA
100
AcDbEntity
  8
Default
  6
Continuous
 62
     7
 48
25.4
370
    20
100
AcDbPolyline
 90
        4
 70
     1
 43
0.00025
 10
201.6279953201
 20
321.7475666408
 10
200.9613286218
 20
325.7475668308
 10
200.2946619235
 20
321.7475666408
 10
201.6279953201
 20
321.7475666408
  0
LINE
  5
2C0
330
2BA
100
AcDbEntity
  8
Default
  6
Continuous
 62
     7
 48
25.4
100
AcDbLine
 10
200.9613286218
 20
273.1868760403
 30
0.0
 11
200.9613286218
 21
325.7475668308
 31
0.0
  0
TEXT
  5
2C1
330
2BA
100
AcDbEntity
  8
Default
  6
Continuous
 62
     7
 48
25.4
100
AcDbText
 10
199.9613286218
 20
300.0174884073
 30
0.0
 40
4.0
  1
75
 50
90.0
  7
SEACAD_arial_ttf
 11
195.9613286218
 21
300.0174884073
 31
0.0
100
AcDbText
 73
     3
  0
TEXT
  5
2C2
330
2BA
100
AcDbEntity
  8
Default
  6
Continuous
 62
     7
 48
25.4
100
AcDbText
 10
199.9613286218
 20
292.6560848986
 30
0.0
 40
4.0
  1
O
 50
90.0
  7
SEACAD_semeca1_ttf
 11
195.9613286218
 21
292.6560848986
 31
0.0
100
AcDbText
 73
     3
  0
ENDBLK
  5
2C4
330
2BA
100
AcDbEntity
  8
0
100
AcDbBlockEnd
  0
BLOCK
  5
2CE
330
2C5
100
AcDbEntity
  8
0
100
AcDbBlockBegin
  2
GDimGGroup7
 70
     0
 71
     0
 10
0.0
 20
0.0
 30
0.0
  3
GDimGGroup7
  1

  0
HATCH
  5
2C7
330
2C5
100
AcDbEntity
  8
Default
  6
Continuous
 62
     7
 48
25.4
100
AcDbHatch
 10
0.0
 20
0.0
 30
0.0
210
0.0
220
0.0
230
1.0
  2
SOLID
 70
     1
 71
     0
 91
        1
 92
        1
 93
        3
 72
     1
 10
168.1598284905237
 20
287.7172221831173
 11
166.8264950938604
 21
287.7172221831173
 72
     1
 10
166.8264950938604
 20
287.7172221831173
 11
167.493161792192
 21
283.7172219931275
 72
     1
 10
167.493161792192
 20
283.7172219931275
 11
168.1598284905237
 21
287.7172221831173
 97
        0
 75
     0
 76
     1
 98
        0
  0
LWPOLYLINE
  5
2C8
330
2C5
100
AcDbEntity
  8
Default
  6
Continuous
 62
     7
 48
25.4
370
    20
100
AcDbPolyline
 90
        4
 70
     1
 43
0.00025
 10
168.1598284905
 20
287.7172221831
 10
167.4931617922
 20
283.7172219931
 10
166.8264950939
 20
287.7172221831
 10
168.1598284905
 20
287.7172221831
  0
HATCH
  5
2C9
330
2C5
100
AcDbEntity
  8
Default
  6
Continuous
 62
     7
 48
25.4
100
AcDbHatch
 10
0.0
 20
0.0
 30
0.0
210
0.0
220
0.0
230
1.0
  2
SOLID
 70
     1
 71
     0
 91
        1
 92
        1
 93
        3
 72
     1
 10
168.1598284905237
 20
311.2172223097771
 11
167.493161792192
 21
315.2172224997669
 72
     1
 10
167.493161792192
 20
315.2172224997669
 11
166.8264950938604
 21
311.2172223097771
 72
     1
 10
166.8264950938604
 20
311.2172223097771
 11
168.1598284905237
 21
311.2172223097771
 97
        0
 75
     0
 76
     1
 98
        0
  0
LWPOLYLINE
  5
2CA
330
2C5
100
AcDbEntity
  8
Default
  6
Continuous
 62
     7
 48
25.4
370
    20
100
AcDbPolyline
 90
        4
 70
     1
 43
0.00025
 10
168.1598284905
 20
311.2172223098
 10
167.4931617922
 20
315.2172224998
 10
166.8264950939
 20
311.2172223098
 10
168.1598284905
 20
311.2172223098
  0
LINE
  5
2CB
330
2C5
100
AcDbEntity
  8
Default
  6
Continuous
 62
     7
 48
25.4
100
AcDbLine
 10
167.4931617922
 20
283.7172219931
 30
0.0
 11
167.4931617922
 21
315.2172224998
 31
0.0
  0
TEXT
  5
2CC
330
2C5
100
AcDbEntity
  8
Default
  6
Continuous
 62
     7
 48
25.4
100
AcDbText
 10
166.4931617922
 20
300.0174892182
 30
0.0
 40
4.0
  1
45
 50
90.0
  7
SEACAD_arial_ttf
 11
162.4931617922
 21
300.0174892182
 31
0.0
100
AcDbText
 73
     3
  0
TEXT
  5
2CD
330
2C5
100
AcDbEntity
  8
Default
  6
Continuous
 62
     7
 48
25.4
100
AcDbText
 10
166.4931617922
 20
292.6560857095
 30
0.0
 40
4.0
  1
O
 50
90.0
  7
SEACAD_semeca1_ttf
 11
162.4931617922
 21
292.6560857095
 31
0.0
100
AcDbText
 73
     3
  0
ENDBLK
  5
2CF
330
2C5
100
AcDbEntity
  8
0
100
AcDbBlockEnd
  0
BLOCK
  5
2DB
330
2D0
100
AcDbEntity
  8
0
100
AcDbBlockBegin
  2
GDimGGroup8
 70
     0
 71
     0
 10
0.0
 20
0.0
 30
0.0
  3
GDimGGroup8
  1

  0
HATCH
  5
2D2
330
2D0
100
AcDbEntity
  8
Default
  6
Continuous
 62
     7
 48
25.4
100
AcDbHatch
 10
0.0
 20
0.0
 30
0.0
210
0.0
220
0.0
230
1.0
  2
SOLID
 70
     1
 71
     0
 91
        1
 92
        1
 93
        3
 72
     1
 10
99.98914544508671
 20
270.5672221831172
 11
100.6558121434183
 21
266.5672219931274
 72
     1
 10
100.6558121434183
 20
266.5672219931274
 11
101.32247884175
 21
270.5672221831172
 72
     1
 10
101.32247884175
 20
270.5672221831172
 11
99.98914544508671
 21
270.5672221831172
 97
        0
 75
     0
 76
     1
 98
        0
  0
LWPOLYLINE
  5
2D3
330
2D0
100
AcDbEntity
  8
Default
  6
Continuous
 62
     7
 48
25.4
370
    20
100
AcDbPolyline
 90
        4
 70
     1
 43
0.00025
 10
99.9891454451
 20
270.5672221831
 10
100.6558121434
 20
266.5672219931
 10
101.3224788417
 20
270.5672221831
 10
99.9891454451
 20
270.5672221831
  0
HATCH
  5
2D4
330
2D0
100
AcDbEntity
  8
Default
  6
Continuous
 62
     7
 48
25.4
100
AcDbHatch
 10
0.0
 20
0.0
 30
0.0
210
0.0
220
0.0
230
1.0
  2
SOLID
 70
     1
 71
     0
 91
        1
 92
        1
 93
        3
 72
     1
 10
99.98914544508671
 20
328.3672255105465
 11
101.32247884175
 21
328.3672255105465
 72
     1
 10
101.32247884175
 20
328.3672255105465
 11
100.6558121434183
 21
332.3672257005363
 72
     1
 10
100.6558121434183
 20
332.3672257005363
 11
99.98914544508671
 21
328.3672255105465
 97
        0
 75
     0
 76
     1
 98
        0
  0
LWPOLYLINE
  5
2D5
330
2D0
100
AcDbEntity
  8
Default
  6
Continuous
 62
     7
 48
25.4
370
    20
100
AcDbPolyline
 90
        4
 70
     1
 43
0.00025
 10
99.9891454451
 20
328.3672255105
 10
100.6558121434
 20
332.3672257005
 10
101.3224788417
 20
328.3672255105
 10
99.9891454451
 20
328.3672255105
  0
LINE
  5
2D6
330
2D0
100
AcDbEntity
  8
Default
  6
Continuous
 62
     7
 48
25.4
100
AcDbLine
 10
159.5959023825
 20
266.5672219931
 30
0.0
 11
98.6558120484
 21
266.5672219931
 31
0.0
  0
LINE
  5
2D7
330
2D0
100
AcDbEntity
  8
Default
  6
Continuous
 62
     7
 48
25.4
100
AcDbLine
 10
159.5959023825
 20
332.3672219931
 30
0.0
 11
98.6558120484
 21
332.3672219931
 31
0.0
  0
LINE
  5
2D8
330
2D0
100
AcDbEntity
  8
Default
  6
Continuous
 62
     7
 48
25.4
100
AcDbLine
 10
100.6558121434
 20
266.5672219931
 30
0.0
 11
100.6558121434
 21
332.3672257005
 31
0.0
  0
TEXT
  5
2D9
330
2D0
100
AcDbEntity
  8
Default
  6
Continuous
 62
     7
 48
25.4
100
AcDbText
 10
99.6558121434
 20
300.0174908186
 30
0.0
 40
4.0
  1
94
 50
90.0
  7
SEACAD_arial_ttf
 11
95.6558121434
 21
300.0174908186
 31
0.0
100
AcDbText
 73
     3
  0
TEXT
  5
2DA
330
2D0
100
AcDbEntity
  8
Default
  6
Continuous
 62
     7
 48
25.4
100
AcDbText
 10
99.6558121434
 20
292.6560873098
 30
0.0
 40
4.0
  1
O
 50
90.0
  7
SEACAD_semeca1_ttf
 11
95.6558121434
 21
292.6560873098
 31
0.0
100
AcDbText
 73
     3
  0
ENDBLK
  5
2DC
330
2D0
100
AcDbEntity
  8
0
100
AcDbBlockEnd
  0
BLOCK
  5
2E8
330
2DD
100
AcDbEntity
  8
0
100
AcDbBlockBegin
  2
GDimGGroup9
 70
     0
 71
     0
 10
0.0
 20
0.0
 30
0.0
  3
GDimGGroup9
  1

  0
HATCH
  5
2DF
330
2DD
100
AcDbEntity
  8
Default
  6
Continuous
 62
     7
 48
25.4
100
AcDbHatch
 10
0.0
 20
0.0
 30
0.0
210
0.0
220
0.0
230
1.0
  2
SOLID
 70
     1
 71
     0
 91
        1
 92
        1
 93
        3
 72
     1
 10
45.9490206212385
 20
214.5672221831173
 11
46.61568731957014
 21
210.5672219931275
 72
     1
 10
46.61568731957014
 20
210.5672219931275
 11
47.28235401790177
 21
214.5672221831173
 72
     1
 10
47.28235401790177
 20
214.5672221831173
 11
45.9490206212385
 21
214.5672221831173
 97
        0
 75
     0
 76
     1
 98
        0
  0
LWPOLYLINE
  5
2E0
330
2DD
100
AcDbEntity
  8
Default
  6
Continuous
 62
     7
 48
25.4
370
    20
100
AcDbPolyline
 90
        4
 70
     1
 43
0.00025
 10
45.9490206212
 20
214.5672221831
 10
46.6156873196
 20
210.5672219931
 10
47.2823540179
 20
214.5672221831
 10
45.9490206212
 20
214.5672221831
  0
HATCH
  5
2E1
330
2DD
100
AcDbEntity
  8
Default
  6
Continuous
 62
     7
 48
25.4
100
AcDbHatch
 10
0.0
 20
0.0
 30
0.0
210
0.0
220
0.0
230
1.0
  2
SOLID
 70
     1
 71
     0
 91
        1
 92
        1
 93
        3
 72
     1
 10
45.9490206212385
 20
384.3672215170353
 11
47.28235401790177
 21
384.3672215170353
 72
     1
 10
47.28235401790177
 20
384.3672215170353
 11
46.61568731957014
 21
388.3672217070251
 72
     1
 10
46.61568731957014
 20
388.3672217070251
 11
45.9490206212385
 21
384.3672215170353
 97
        0
 75
     0
 76
     1
 98
        0
  0
LWPOLYLINE
  5
2E2
330
2DD
100
AcDbEntity
  8
Default
  6
Continuous
 62
     7
 48
25.4
370
    20
100
AcDbPolyline
 90
        4
 70
     1
 43
0.00025
 10
45.9490206212
 20
384.367221517
 10
46.6156873196
 20
388.367221707
 10
47.2823540179
 20
384.367221517
 10
45.9490206212
 20
384.367221517
  0
LINE
  5
2E3
330
2DD
100
AcDbEntity
  8
Default
  6
Continuous
 62
     7
 48
25.4
100
AcDbLine
 10
150.8411812871
 20
210.5672219931
 30
0.0
 11
44.6156872246
 21
210.5672219931
 31
0.0
  0
LINE
  5
2E4
330
2DD
100
AcDbEntity
  8
Default
  6
Continuous
 62
     7
 48
25.4
100
AcDbLine
 10
150.8411812871
 20
388.3672219931
 30
0.0
 11
44.6156872246
 21
388.3672219931
 31
0.0
  0
LINE
  5
2E5
330
2DD
100
AcDbEntity
  8
Default
  6
Continuous
 62
     7
 48
25.4
100
AcDbLine
 10
46.6156873196
 20
210.5672219931
 30
0.0
 11
46.6156873196
 21
388.367221707
 31
0.0
  0
TEXT
  5
2E6
330
2DD
100
AcDbEntity
  8
Default
  6
Continuous
 62
     7
 48
25.4
100
AcDbText
 10
45.6156873196
 20
298.4522714305
 30
0.0
 40
4.0
  1
254
 50
90.0
  7
SEACAD_arial_ttf
 11
41.6156873196
 21
298.4522714305
 31
0.0
100
AcDbText
 73
     3
  0
TEXT
  5
2E7
330
2DD
100
AcDbEntity
  8
Default
  6
Continuous
 62
     7
 48
25.4
100
AcDbText
 10
45.6156873196
 20
291.0908679218
 30
0.0
 40
4.0
  1
O
 50
90.0
  7
SEACAD_semeca1_ttf
 11
41.6156873196
 21
291.0908679218
 31
0.0
100
AcDbText
 73
     3
  0
ENDBLK
  5
2E9
330
2DD
100
AcDbEntity
  8
0
100
AcDbBlockEnd
  0
BLOCK
  5
2F3
330
2EA
100
AcDbEntity
  8
0
100
AcDbBlockBegin
  2
GDimGGroup10
 70
     0
 71
     0
 10
0.0
 20
0.0
 30
0.0
  3
GDimGGroup10
  1

  0
HATCH
  5
2EC
330
2EA
100
AcDbEntity
  8
Default
  6
Continuous
 62
     7
 48
25.4
100
AcDbHatch
 10
0.0
 20
0.0
 30
0.0
210
0.0
220
0.0
230
1.0
  2
SOLID
 70
     1
 71
     0
 91
        1
 92
        1
 93
        3
 72
     1
 10
172.3958544247214
 20
280.4988699536675
 11
172.3958544247214
 21
279.1655365570042
 72
     1
 10
172.3958544247214
 20
279.1655365570042
 11
176.3958546147112
 21
279.8322032553359
 72
     1
 10
176.3958546147112
 20
279.8322032553359
 11
172.3958544247214
 21
280.4988699536675
 97
        0
 75
     0
 76
     1
 98
        0
  0
LWPOLYLINE
  5
2ED
330
2EA
100
AcDbEntity
  8
Default
  6
Continuous
 62
     7
 48
25.4
370
    20
100
AcDbPolyline
 90
        4
 70
     1
 43
0.00025
 10
172.3958544247
 20
280.4988699537
 10
176.3958546147
 20
279.8322032553
 10
172.3958544247
 20
279.165536557
 10
172.3958544247
 20
280.4988699537
  0
HATCH
  5
2EE
330
2EA
100
AcDbEntity
  8
Default
  6
Continuous
 62
     7
 48
25.4
100
AcDbHatch
 10
0.0
 20
0.0
 30
0.0
210
0.0
220
0.0
230
1.0
  2
SOLID
 70
     1
 71
     0
 91
        1
 92
        1
 93
        3
 72
     1
 10
162.8959025724562
 20
280.4988699536675
 11
158.8959023824664
 21
279.8322032553359
 72
     1
 10
158.8959023824664
 20
279.8322032553359
 11
162.8959025724562
 21
279.1655365570042
 72
     1
 10
162.8959025724562
 20
279.1655365570042
 11
162.8959025724562
 21
280.4988699536675
 97
        0
 75
     0
 76
     1
 98
        0
  0
LWPOLYLINE
  5
2EF
330
2EA
100
AcDbEntity
  8
Default
  6
Continuous
 62
     7
 48
25.4
370
    20
100
AcDbPolyline
 90
        4
 70
     1
 43
0.00025
 10
162.8959025725
 20
280.4988699537
 10
158.8959023825
 20
279.8322032553
 10
162.8959025725
 20
279.165536557
 10
162.8959025725
 20
280.4988699537
  0
LINE
  5
2F0
330
2EA
100
AcDbEntity
  8
Default
  6
Continuous
 62
     7
 48
25.4
100
AcDbLine
 10
176.3958546147
 20
273.4854666864
 30
0.0
 11
176.3958546147
 21
281.8322033503
 31
0.0
  0
LINE
  5
2F1
330
2EA
100
AcDbEntity
  8
Default
  6
Continuous
 62
     7
 48
25.4
100
AcDbLine
 10
176.3958546147
 20
279.8322032553
 30
0.0
 11
128.3584820852
 21
279.8322032553
 31
0.0
  0
TEXT
  5
2F2
330
2EA
100
AcDbEntity
  8
Default
  6
Continuous
 62
     7
 48
25.4
100
AcDbText
 10
129.758483376
 20
280.8322032553
 30
0.0
 40
4.0
  1
25
  7
SEACAD_arial_ttf
 11
129.758483376
 21
284.8322032553
 31
0.0
100
AcDbText
 73
     3
  0
ENDBLK
  5
2F4
330
2EA
100
AcDbEntity
  8
0
100
AcDbBlockEnd
  0
BLOCK
  5
2FF
330
2F5
100
AcDbEntity
  8
0
100
AcDbBlockBegin
  2
GDimGGroup11
 70
     0
 71
     0
 10
0.0
 20
0.0
 30
0.0
  3
GDimGGroup11
  1

  0
HATCH
  5
2F7
330
2F5
100
AcDbEntity
  8
Default
  6
Continuous
 62
     7
 48
25.4
100
AcDbHatch
 10
0.0
 20
0.0
 30
0.0
210
0.0
220
0.0
230
1.0
  2
SOLID
 70
     1
 71
     0
 91
        1
 92
        1
 93
        3
 72
     1
 10
223.441181477093
 20
402.8379318178381
 11
219.4411812871032
 21
402.1712651195065
 72
     1
 10
219.4411812871032
 20
402.1712651195065
 11
223.441181477093
 21
401.5045984211748
 72
     1
 10
223.441181477093
 20
401.5045984211748
 11
223.441181477093
 21
402.8379318178381
 97
        0
 75
     0
 76
     1
 98
        0
  0
LWPOLYLINE
  5
2F8
330
2F5
100
AcDbEntity
  8
Default
  6
Continuous
 62
     7
 48
25.4
370
    20
100
AcDbPolyline
 90
        4
 70
     1
 43
0.00025
 10
223.4411814771
 20
402.8379318178
 10
219.4411812871
 20
402.1712651195
 10
223.4411814771
 20
401.5045984212
 10
223.4411814771
 20
402.8379318178
  0
HATCH
  5
2F9
330
2F5
100
AcDbEntity
  8
Default
  6
Continuous
 62
     7
 48
25.4
100
AcDbHatch
 10
0.0
 20
0.0
 30
0.0
210
0.0
220
0.0
230
1.0
  2
SOLID
 70
     1
 71
     0
 91
        1
 92
        1
 93
        3
 72
     1
 10
245.5411802566879
 20
402.8379318178381
 11
245.5411802566879
 21
401.5045984211748
 72
     1
 10
245.5411802566879
 20
401.5045984211748
 11
249.5411804466777
 21
402.1712651195065
 72
     1
 10
249.5411804466777
 20
402.1712651195065
 11
245.5411802566879
 21
402.8379318178381
 97
        0
 75
     0
 76
     1
 98
        0
  0
LWPOLYLINE
  5
2FA
330
2F5
100
AcDbEntity
  8
Default
  6
Continuous
 62
     7
 48
25.4
370
    20
100
AcDbPolyline
 90
        4
 70
     1
 43
0.00025
 10
245.5411802567
 20
402.8379318178
 10
249.5411804467
 20
402.1712651195
 10
245.5411802567
 20
401.5045984212
 10
245.5411802567
 20
402.8379318178
  0
LINE
  5
2FB
330
2F5
100
AcDbEntity
  8
Default
  6
Continuous
 62
     7
 48
25.4
100
AcDbLine
 10
219.4411812871
 20
325.7475679459
 30
0.0
 11
219.4411812871
 21
404.1712652145
 31
0.0
  0
LINE
  5
2FC
330
2F5
100
AcDbEntity
  8
Default
  6
Continuous
 62
     7
 48
25.4
100
AcDbLine
 10
249.5411812871
 20
389.0672215759
 30
0.0
 11
249.5411812871
 21
404.1712652145
 31
0.0
  0
LINE
  5
2FD
330
2F5
100
AcDbEntity
  8
Default
  6
Continuous
 62
     7
 48
25.4
100
AcDbLine
 10
219.4411812871
 20
402.1712651195
 30
0.0
 11
249.5411804467
 21
402.1712651195
 31
0.0
  0
TEXT
  5
2FE
330
2F5
100
AcDbEntity
  8
Default
  6
Continuous
 62
     7
 48
25.4
100
AcDbText
 10
231.3607460843
 20
403.1712651195
 30
0.0
 40
4.0
  1
43
  7
SEACAD_arial_ttf
 11
231.3607460843
 21
407.1712651195
 31
0.0
100
AcDbText
 73
     3
  0
ENDBLK
  5
300
330
2F5
100
AcDbEntity
  8
0
100
AcDbBlockEnd
  0
BLOCK
  5
30B
330
301
100
AcDbEntity
  8
0
100
AcDbBlockBegin
  2
GDimGGroup12
 70
     0
 71
     0
 10
0.0
 20
0.0
 30
0.0
  3
GDimGGroup12
  1

  0
HATCH
  5
303
330
301
100
AcDbEntity
  8
Default
  6
Continuous
 62
     7
 48
25.4
100
AcDbHatch
 10
0.0
 20
0.0
 30
0.0
210
0.0
220
0.0
230
1.0
  2
SOLID
 70
     1
 71
     0
 91
        1
 92
        1
 93
        3
 72
     1
 10
313.8070246903185
 20
385.0672218031377
 11
313.1403579919868
 21
389.0672219931275
 72
     1
 10
313.1403579919868
 20
389.0672219931275
 11
312.4736912936552
 21
385.0672218031377
 72
     1
 10
312.4736912936552
 20
385.0672218031377
 11
313.8070246903185
 21
385.0672218031377
 97
        0
 75
     0
 76
     1
 98
        0
  0
LWPOLYLINE
  5
304
330
301
100
AcDbEntity
  8
Default
  6
Continuous
 62
     7
 48
25.4
370
    20
100
AcDbPolyline
 90
        4
 70
     1
 43
0.00025
 10
313.8070246903
 20
385.0672218031
 10
313.140357992
 20
389.0672219931
 10
312.4736912937
 20
385.0672218031
 10
313.8070246903
 20
385.0672218031
  0
HATCH
  5
305
330
301
100
AcDbEntity
  8
Default
  6
Continuous
 62
     7
 48
25.4
100
AcDbHatch
 10
0.0
 20
0.0
 30
0.0
210
0.0
220
0.0
230
1.0
  2
SOLID
 70
     1
 71
     0
 91
        1
 92
        1
 93
        3
 72
     1
 10
313.8070246903185
 20
316.0672226003498
 11
312.4736912936552
 21
316.0672226003498
 72
     1
 10
312.4736912936552
 20
316.0672226003498
 11
313.1403579919868
 21
312.06722241036
 72
     1
 10
313.1403579919868
 20
312.06722241036
 11
313.8070246903185
 21
316.0672226003498
 97
        0
 75
     0
 76
     1
 98
        0
  0
LWPOLYLINE
  5
306
330
301
100
AcDbEntity
  8
Default
  6
Continuous
 62
     7
 48
25.4
370
    20
100
AcDbPolyline
 90
        4
 70
     1
 43
0.00025
 10
313.8070246903
 20
316.0672226003
 10
313.140357992
 20
312.0672224104
 10
312.4736912937
 20
316.0672226003
 10
313.8070246903
 20
316.0672226003
  0
LINE
  5
307
330
301
100
AcDbEntity
  8
Default
  6
Continuous
 62
     7
 48
25.4
100
AcDbLine
 10
249.5411812871
 20
389.0672219931
 30
0.0
 11
315.140358087
 21
389.0672219931
 31
0.0
  0
LINE
  5
308
330
301
100
AcDbEntity
  8
Default
  6
Continuous
 62
     7
 48
25.4
100
AcDbLine
 10
249.5411812871
 20
312.0672219931
 30
0.0
 11
315.140358087
 21
312.0672219931
 31
0.0
  0
LINE
  5
309
330
301
100
AcDbEntity
  8
Default
  6
Continuous
 62
     7
 48
25.4
100
AcDbLine
 10
313.140357992
 20
389.0672219931
 30
0.0
 11
313.140357992
 21
312.0672224104
 31
0.0
  0
TEXT
  5
30A
330
301
100
AcDbEntity
  8
Default
  6
Continuous
 62
     7
 48
25.4
100
AcDbText
 10
312.140357992
 20
345.8715700278
 30
0.0
 40
4.0
  1
110
 50
90.0
  7
SEACAD_arial_ttf
 11
308.140357992
 21
345.8715700278
 31
0.0
100
AcDbText
 73
     3
  0
ENDBLK
  5
30C
330
301
100
AcDbEntity
  8
0
100
AcDbBlockEnd
  0
BLOCK
  5
317
330
30D
100
AcDbEntity
  8
0
100
AcDbBlockBegin
  2
GDimGGroup13
 70
     0
 71
     0
 10
0.0
 20
0.0
 30
0.0
  3
GDimGGroup13
  1

  0
HATCH
  5
30F
330
30D
100
AcDbEntity
  8
Default
  6
Continuous
 62
     7
 48
25.4
100
AcDbHatch
 10
0.0
 20
0.0
 30
0.0
210
0.0
220
0.0
230
1.0
  2
SOLID
 70
     1
 71
     0
 91
        1
 92
        1
 93
        3
 72
     1
 10
290.5042237369303
 20
385.0672218031377
 11
289.8375570385986
 21
389.0672219931275
 72
     1
 10
289.8375570385986
 20
389.0672219931275
 11
289.170890340267
 21
385.0672218031377
 72
     1
 10
289.170890340267
 20
385.0672218031377
 11
290.5042237369303
 21
385.0672218031377
 97
        0
 75
     0
 76
     1
 98
        0
  0
LWPOLYLINE
  5
310
330
30D
100
AcDbEntity
  8
Default
  6
Continuous
 62
     7
 48
25.4
370
    20
100
AcDbPolyline
 90
        4
 70
     1
 43
0.00025
 10
290.5042237369
 20
385.0672218031
 10
289.8375570386
 20
389.0672219931
 10
289.1708903403
 20
385.0672218031
 10
290.5042237369
 20
385.0672218031
  0
HATCH
  5
311
330
30D
100
AcDbEntity
  8
Default
  6
Continuous
 62
     7
 48
25.4
100
AcDbHatch
 10
0.0
 20
0.0
 30
0.0
210
0.0
220
0.0
230
1.0
  2
SOLID
 70
     1
 71
     0
 91
        1
 92
        1
 93
        3
 72
     1
 10
290.5042237369303
 20
372.0672224662393
 11
289.170890340267
 21
372.0672224662393
 72
     1
 10
289.170890340267
 20
372.0672224662393
 11
289.8375570385986
 21
368.0672222762495
 72
     1
 10
289.8375570385986
 20
368.0672222762495
 11
290.5042237369303
 21
372.0672224662393
 97
        0
 75
     0
 76
     1
 98
        0
  0
LWPOLYLINE
  5
312
330
30D
100
AcDbEntity
  8
Default
  6
Continuous
 62
     7
 48
25.4
370
    20
100
AcDbPolyline
 90
        4
 70
     1
 43
0.00025
 10
290.5042237369
 20
372.0672224662
 10
289.8375570386
 20
368.0672222762
 10
289.1708903403
 20
372.0672224662
 10
290.5042237369
 20
372.0672224662
  0
LINE
  5
313
330
30D
100
AcDbEntity
  8
Default
  6
Continuous
 62
     7
 48
25.4
100
AcDbLine
 10
249.5411812871
 20
389.0672219931
 30
0.0
 11
291.8375571336
 21
389.0672219931
 31
0.0
  0
LINE
  5
314
330
30D
100
AcDbEntity
  8
Default
  6
Continuous
 62
     7
 48
25.4
100
AcDbLine
 10
251.9911812871
 20
368.0672219931
 30
0.0
 11
291.8375571336
 21
368.0672219931
 31
0.0
  0
LINE
  5
315
330
30D
100
AcDbEntity
  8
Default
  6
Continuous
 62
     7
 48
25.4
100
AcDbLine
 10
289.8375570386
 20
389.0672219931
 30
0.0
 11
289.8375570386
 21
368.0672222762
 31
0.0
  0
TEXT
  5
316
330
30D
100
AcDbEntity
  8
Default
  6
Continuous
 62
     7
 48
25.4
100
AcDbText
 10
288.8375570386
 20
375.4367873521
 30
0.0
 40
4.0
  1
30
 50
90.0
  7
SEACAD_arial_ttf
 11
284.8375570386
 21
375.4367873521
 31
0.0
100
AcDbText
 73
     3
  0
ENDBLK
  5
318
330
30D
100
AcDbEntity
  8
0
100
AcDbBlockEnd
  0
BLOCK
  5
323
330
319
100
AcDbEntity
  8
0
100
AcDbBlockBegin
  2
GDimGGroup14
 70
     0
 71
     0
 10
0.0
 20
0.0
 30
0.0
  3
GDimGGroup14
  1

  0
HATCH
  5
31B
330
319
100
AcDbEntity
  8
Default
  6
Continuous
 62
     7
 48
25.4
100
AcDbHatch
 10
0.0
 20
0.0
 30
0.0
210
0.0
220
0.0
230
1.0
  2
SOLID
 70
     1
 71
     0
 91
        1
 92
        1
 93
        3
 72
     1
 10
290.5042232422117
 20
364.0672218031377
 11
289.8375565438801
 21
368.0672219931275
 72
     1
 10
289.8375565438801
 20
368.0672219931275
 11
289.1708898455484
 21
364.0672218031377
 72
     1
 10
289.1708898455484
 20
364.0672218031377
 11
290.5042232422117
 21
364.0672218031377
 97
        0
 75
     0
 76
     1
 98
        0
  0
LWPOLYLINE
  5
31C
330
319
100
AcDbEntity
  8
Default
  6
Continuous
 62
     7
 48
25.4
370
    20
100
AcDbPolyline
 90
        4
 70
     1
 43
0.00025
 10
290.5042232422
 20
364.0672218031
 10
289.8375565439
 20
368.0672219931
 10
289.1708898455
 20
364.0672218031
 10
290.5042232422
 20
364.0672218031
  0
HATCH
  5
31D
330
319
100
AcDbEntity
  8
Default
  6
Continuous
 62
     7
 48
25.4
100
AcDbHatch
 10
0.0
 20
0.0
 30
0.0
210
0.0
220
0.0
230
1.0
  2
SOLID
 70
     1
 71
     0
 91
        1
 92
        1
 93
        3
 72
     1
 10
290.5042232422117
 20
351.0670641414017
 11
289.1708898455484
 21
351.0670641414017
 72
     1
 10
289.1708898455484
 20
351.0670641414017
 11
289.8375565438801
 21
347.0670639514119
 72
     1
 10
289.8375565438801
 20
347.0670639514119
 11
290.5042232422117
 21
351.0670641414017
 97
        0
 75
     0
 76
     1
 98
        0
  0
LWPOLYLINE
  5
31E
330
319
100
AcDbEntity
  8
Default
  6
Continuous
 62
     7
 48
25.4
370
    20
100
AcDbPolyline
 90
        4
 70
     1
 43
0.00025
 10
290.5042232422
 20
351.0670641414
 10
289.8375565439
 20
347.0670639514
 10
289.1708898455
 20
351.0670641414
 10
290.5042232422
 20
351.0670641414
  0
LINE
  5
31F
330
319
100
AcDbEntity
  8
Default
  6
Continuous
 62
     7
 48
25.4
100
AcDbLine
 10
251.9911812871
 20
368.0672219931
 30
0.0
 11
291.8375566389
 21
368.0672219931
 31
0.0
  0
LINE
  5
320
330
319
100
AcDbEntity
  8
Default
  6
Continuous
 62
     7
 48
25.4
100
AcDbLine
 10
251.9911812871
 20
347.0670645097
 30
0.0
 11
291.8375566389
 21
347.0670645097
 31
0.0
  0
LINE
  5
321
330
319
100
AcDbEntity
  8
Default
  6
Continuous
 62
     7
 48
25.4
100
AcDbLine
 10
289.8375565439
 20
368.0672219931
 30
0.0
 11
289.8375565439
 21
347.0670639514
 31
0.0
  0
TEXT
  5
322
330
319
100
AcDbEntity
  8
Default
  6
Continuous
 62
     7
 48
25.4
100
AcDbText
 10
288.8375565439
 20
354.4367081897
 30
0.0
 40
4.0
  1
30
 50
90.0
  7
SEACAD_arial_ttf
 11
284.8375565439
 21
354.4367081897
 31
0.0
100
AcDbText
 73
     3
  0
ENDBLK
  5
324
330
319
100
AcDbEntity
  8
0
100
AcDbBlockEnd
  0
BLOCK
  5
331
330
325
100
AcDbEntity
  8
0
100
AcDbBlockBegin
  2
GDimGGroup15
 70
     0
 71
     0
 10
0.0
 20
0.0
 30
0.0
  3
GDimGGroup15
  1

  0
HATCH
  5
327
330
325
100
AcDbEntity
  8
Default
  6
Continuous
 62
     7
 48
25.4
100
AcDbHatch
 10
0.0
 20
0.0
 30
0.0
210
0.0
220
0.0
230
1.0
  2
SOLID
 70
     1
 71
     0
 91
        1
 92
        1
 93
        3
 72
     1
 10
290.69741366535
 20
303.4961172684546
 11
289.3640802686867
 21
303.4961172684546
 72
     1
 10
289.3640802686867
 20
303.4961172684546
 11
290.0307469670184
 21
299.4961170784648
 72
     1
 10
290.0307469670184
 20
299.4961170784648
 11
290.69741366535
 21
303.4961172684546
 97
        0
 75
     0
 76
     1
 98
        0
  0
LWPOLYLINE
  5
328
330
325
100
AcDbEntity
  8
Default
  6
Continuous
 62
     7
 48
25.4
370
    20
100
AcDbPolyline
 90
        4
 70
     1
 43
0.00025
 10
290.6974136654
 20
303.4961172685
 10
290.030746967
 20
299.4961170785
 10
289.3640802687
 20
303.4961172685
 10
290.6974136654
 20
303.4961172685
  0
HATCH
  5
329
330
325
100
AcDbEntity
  8
Default
  6
Continuous
 62
     7
 48
25.4
100
AcDbHatch
 10
0.0
 20
0.0
 30
0.0
210
0.0
220
0.0
230
1.0
  2
SOLID
 70
     1
 71
     0
 91
        1
 92
        1
 93
        3
 72
     1
 10
290.69741366535
 20
331.1672169088836
 11
290.0307469670184
 21
335.1672170988734
 72
     1
 10
290.0307469670184
 20
335.1672170988734
 11
289.3640802686867
 21
331.1672169088836
 72
     1
 10
289.3640802686867
 20
331.1672169088836
 11
290.69741366535
 21
331.1672169088836
 97
        0
 75
     0
 76
     1
 98
        0
  0
LWPOLYLINE
  5
32A
330
325
100
AcDbEntity
  8
Default
  6
Continuous
 62
     7
 48
25.4
370
    20
100
AcDbPolyline
 90
        4
 70
     1
 43
0.00025
 10
290.6974136654
 20
331.1672169089
 10
290.030746967
 20
335.1672170989
 10
289.3640802687
 20
331.1672169089
 10
290.6974136654
 20
331.1672169089
  0
LINE
  5
32B
330
325
100
AcDbEntity
  8
Default
  6
Continuous
 62
     7
 48
25.4
100
AcDbLine
 10
257.5569555764
 20
299.4961170785
 30
0.0
 11
292.030747062
 21
299.4961170785
 31
0.0
  0
LINE
  5
32C
330
325
100
AcDbEntity
  8
Default
  6
Continuous
 62
     7
 48
25.4
100
AcDbLine
 10
219.441181158
 20
335.1672166316
 30
0.0
 11
292.030747062
 21
335.1672166316
 31
0.0
  0
LINE
  5
32D
330
325
100
AcDbEntity
  8
Default
  6
Continuous
 62
     7
 48
25.4
100
AcDbLine
 10
290.030746967
 20
272.8082547269
 30
0.0
 11
290.030746967
 21
335.1672170989
 31
0.0
  0
TEXT
  5
32E
330
325
100
AcDbEntity
  8
Default
  6
Continuous
 62
     7
 48
25.4
100
AcDbText
 10
283.030746967
 20
288.9212983735
 30
0.0
 40
4.0
  1
51
 50
90.0
  7
SEACAD_arial_ttf
 11
279.030746967
 21
288.9212983735
 31
0.0
100
AcDbText
 73
     3
  0
TEXT
  5
32F
330
325
100
AcDbEntity
  8
Default
  6
Continuous
 62
     7
 48
25.4
100
AcDbText
 10
283.030746967
 20
274.2082548952
 30
0.0
 40
4.0
  1
MAX
 50
90.0
  7
SEACAD_arial_ttf
 11
279.030746967
 21
274.2082548952
 31
0.0
100
AcDbText
 73
     3
  0
TEXT
  5
330
330
325
100
AcDbEntity
  8
Default
  6
Continuous
 62
     7
 48
25.4
100
AcDbText
 10
289.030746967
 20
274.2082548952
 30
0.0
 40
4.0
  1
MIN 46.6
 50
90.0
  7
SEACAD_arial_ttf
 11
285.030746967
 21
274.2082548952
 31
0.0
100
AcDbText
 73
     3
  0
ENDBLK
  5
332
330
325
100
AcDbEntity
  8
0
100
AcDbBlockEnd
  0
BLOCK
  5
33F
330
333
100
AcDbEntity
  8
0
100
AcDbBlockBegin
  2
GDimGGroup16
 70
     0
 71
     0
 10
0.0
 20
0.0
 30
0.0
  3
GDimGGroup16
  1

  0
HATCH
  5
335
330
333
100
AcDbEntity
  8
Default
  6
Continuous
 62
     7
 48
25.4
100
AcDbHatch
 10
0.0
 20
0.0
 30
0.0
210
0.0
220
0.0
230
1.0
  2
SOLID
 70
     1
 71
     0
 91
        1
 92
        1
 93
        3
 72
     1
 10
273.8485099132514
 20
331.167216441641
 11
273.1818432149197
 21
335.1672166316308
 72
     1
 10
273.1818432149197
 20
335.1672166316308
 11
272.515176516588
 21
331.167216441641
 72
     1
 10
272.515176516588
 20
331.167216441641
 11
273.8485099132514
 21
331.167216441641
 97
        0
 75
     0
 76
     1
 98
        0
  0
LWPOLYLINE
  5
336
330
333
100
AcDbEntity
  8
Default
  6
Continuous
 62
     7
 48
25.4
370
    20
100
AcDbPolyline
 90
        4
 70
     1
 43
0.00025
 10
273.8485099133
 20
331.1672164416
 10
273.1818432149
 20
335.1672166316
 10
272.5151765166
 20
331.1672164416
 10
273.8485099133
 20
331.1672164416
  0
HATCH
  5
337
330
333
100
AcDbEntity
  8
Default
  6
Continuous
 62
     7
 48
25.4
100
AcDbHatch
 10
0.0
 20
0.0
 30
0.0
210
0.0
220
0.0
230
1.0
  2
SOLID
 70
     1
 71
     0
 91
        1
 92
        1
 93
        3
 72
     1
 10
273.8485099132514
 20
351.067064699707
 11
272.515176516588
 21
351.067064699707
 72
     1
 10
272.515176516588
 20
351.067064699707
 11
273.1818432149197
 21
347.0670645097172
 72
     1
 10
273.1818432149197
 20
347.0670645097172
 11
273.8485099132514
 21
351.067064699707
 97
        0
 75
     0
 76
     1
 98
        0
  0
LWPOLYLINE
  5
338
330
333
100
AcDbEntity
  8
Default
  6
Continuous
 62
     7
 48
25.4
370
    20
100
AcDbPolyline
 90
        4
 70
     1
 43
0.00025
 10
273.8485099133
 20
351.0670646997
 10
273.1818432149
 20
347.0670645097
 10
272.5151765166
 20
351.0670646997
 10
273.8485099133
 20
351.0670646997
  0
LINE
  5
339
330
333
100
AcDbEntity
  8
Default
  6
Continuous
 62
     7
 48
25.4
100
AcDbLine
 10
219.441181158
 20
335.1672166316
 30
0.0
 11
275.1818433099
 21
335.1672166316
 31
0.0
  0
LINE
  5
33A
330
333
100
AcDbEntity
  8
Default
  6
Continuous
 62
     7
 48
25.4
100
AcDbLine
 10
251.9911807026
 20
347.0670645097
 30
0.0
 11
275.1818433099
 21
347.0670645097
 31
0.0
  0
LINE
  5
33B
330
333
100
AcDbEntity
  8
Default
  6
Continuous
 62
     7
 48
25.4
100
AcDbLine
 10
273.1818432149
 20
267.0982801645
 30
0.0
 11
273.1818432149
 21
355.0670636176
 31
0.0
  0
TEXT
  5
33C
330
333
100
AcDbEntity
  8
Default
  6
Continuous
 62
     7
 48
25.4
100
AcDbText
 10
266.1818432149
 20
283.2113258421
 30
0.0
 40
4.0
  1
33.75
 50
90.0
  7
SEACAD_arial_ttf
 11
262.1818432149
 21
283.2113258421
 31
0.0
100
AcDbText
 73
     3
  0
TEXT
  5
33D
330
333
100
AcDbEntity
  8
Default
  6
Continuous
 62
     7
 48
25.4
100
AcDbText
 10
266.1818432149
 20
268.4982823639
 30
0.0
 40
4.0
  1
MAX
 50
90.0
  7
SEACAD_arial_ttf
 11
262.1818432149
 21
268.4982823639
 31
0.0
100
AcDbText
 73
     3
  0
TEXT
  5
33E
330
333
100
AcDbEntity
  8
Default
  6
Continuous
 62
     7
 48
25.4
100
AcDbText
 10
272.1818432149
 20
268.4982823639
 30
0.0
 40
4.0
  1
MIN 14.25
 50
90.0
  7
SEACAD_arial_ttf
 11
268.1818432149
 21
268.4982823639
 31
0.0
100
AcDbText
 73
     3
  0
ENDBLK
  5
340
330
333
100
AcDbEntity
  8
0
100
AcDbBlockEnd
  0
BLOCK
  5
34B
330
341
100
AcDbEntity
  8
0
100
AcDbBlockBegin
  2
GDimGGroup17
 70
     0
 71
     0
 10
0.0
 20
0.0
 30
0.0
  3
GDimGGroup17
  1

  0
HATCH
  5
343
330
341
100
AcDbEntity
  8
Default
  6
Continuous
 62
     7
 48
25.4
100
AcDbHatch
 10
0.0
 20
0.0
 30
0.0
210
0.0
220
0.0
230
1.0
  2
SOLID
 70
     1
 71
     0
 91
        1
 92
        1
 93
        3
 72
     1
 10
499.8232479350523
 20
370.6726404443075
 11
503.1704527787384
 21
368.3833904053237
 72
     1
 10
503.1704527787384
 20
368.3833904053237
 11
500.7466373987058
 21
371.6344771482606
 72
     1
 10
500.7466373987058
 20
371.6344771482606
 11
499.8232479350523
 21
370.6726404443075
 97
        0
 75
     0
 76
     1
 98
        0
  0
LWPOLYLINE
  5
344
330
341
100
AcDbEntity
  8
Default
  6
Continuous
 62
     7
 48
25.4
370
    20
100
AcDbPolyline
 90
        4
 70
     1
 43
0.00025
 10
499.8232479351
 20
370.6726404443
 10
503.1704527787
 20
368.3833904053
 10
500.7466373987
 20
371.6344771483
 10
499.8232479351
 20
370.6726404443
  0
HATCH
  5
345
330
341
100
AcDbEntity
  8
Default
  6
Continuous
 62
     7
 48
25.4
100
AcDbHatch
 10
0.0
 20
0.0
 30
0.0
210
0.0
220
0.0
230
1.0
  2
SOLID
 70
     1
 71
     0
 91
        1
 92
        1
 93
        3
 72
     1
 10
437.8288978346912
 20
397.6958573803606
 11
433.8161360731879
 21
397.1108881059543
 72
     1
 10
433.8161360731879
 20
397.1108881059543
 11
437.8017115582012
 21
396.3628011726078
 72
     1
 10
437.8017115582012
 20
396.3628011726078
 11
437.8288978346912
 21
397.6958573803606
 97
        0
 75
     0
 76
     1
 98
        0
  0
LWPOLYLINE
  5
346
330
341
100
AcDbEntity
  8
Default
  6
Continuous
 62
     7
 48
25.4
370
    20
100
AcDbPolyline
 90
        4
 70
     1
 43
0.00025
 10
437.8288978347
 20
397.6958573804
 10
433.8161360732
 20
397.110888106
 10
437.8017115582
 20
396.3628011726
 10
437.8288978347
 20
397.6958573804
  0
LINE
  5
347
330
341
100
AcDbEntity
  8
Default
  6
Continuous
 62
     7
 48
25.4
100
AcDbLine
 10
476.2354740059
 20
341.4484116325
 30
0.0
 11
504.5846639387
 21
369.7976015653
 31
0.0
  0
LINE
  5
348
330
341
100
AcDbEntity
  8
Default
  6
Continuous
 62
     7
 48
25.4
100
AcDbLine
 10
433.8161382168
 20
395.8841872636
 30
0.0
 11
433.8161382168
 21
399.1108847085
 31
0.0
  0
ARC
  5
349
330
341
100
AcDbEntity
  8
Default
  6
Continuous
 62
     7
 48
25.4
100
AcDbCircle
 10
433.8161382168
 20
299.0290758434
 30
0.0
 40
98.08181226253529
100
AcDbArc
 50
45.0
 51
90.0000012522
  0
TEXT
  5
34A
330
341
100
AcDbEntity
  8
Default
  6
Continuous
 62
     7
 48
25.4
100
AcDbText
 10
467.7965760364
 20
392.199298427
 30
0.0
 40
4.0
  1
45°
 50
337.5
  7
SEACAD_arial_ttf
 11
469.3273097659
 21
395.894816557
 31
0.0
100
AcDbText
 73
     3
  0
ENDBLK
  5
34C
330
341
100
AcDbEntity
  8
0
100
AcDbBlockEnd
  0
BLOCK
  5
357
330
34D
100
AcDbEntity
  8
0
100
AcDbBlockBegin
  2
GDimGGroup18
 70
     0
 71
     0
 10
0.0
 20
0.0
 30
0.0
  3
GDimGGroup18
  1

  0
HATCH
  5
34F
330
34D
100
AcDbEntity
  8
Default
  6
Continuous
 62
     7
 48
25.4
100
AcDbHatch
 10
0.0
 20
0.0
 30
0.0
210
0.0
220
0.0
230
1.0
  2
SOLID
 70
     1
 71
     0
 91
        1
 92
        1
 93
        3
 72
     1
 10
526.801754363642
 20
328.0706679463507
 11
528.5558937704526
 21
324.4145168351332
 72
     1
 10
528.5558937704525
 20
324.4145168351332
 11
528.0823514487292
 21
328.4419482344397
 72
     1
 10
528.0823514487292
 20
328.4419482344397
 11
526.801754363642
 21
328.0706679463507
 97
        0
 75
     0
 76
     1
 98
        0
  0
LWPOLYLINE
  5
350
330
34D
100
AcDbEntity
  8
Default
  6
Continuous
 62
     7
 48
25.4
370
    20
100
AcDbPolyline
 90
        4
 70
     1
 43
0.00025
 10
526.8017543636
 20
328.0706679464
 10
528.5558937705
 20
324.4145168351
 10
528.0823514487
 20
328.4419482344
 10
526.8017543636
 20
328.0706679464
  0
HATCH
  5
351
330
34D
100
AcDbEntity
  8
Default
  6
Continuous
 62
     7
 48
25.4
100
AcDbHatch
 10
0.0
 20
0.0
 30
0.0
210
0.0
220
0.0
230
1.0
  2
SOLID
 70
     1
 71
     0
 91
        1
 92
        1
 93
        3
 72
     1
 10
506.4215385441195
 20
365.9595760800365
 11
503.170451768214
 21
368.3833914158481
 72
     1
 10
503.170451768214
 20
368.3833914158481
 11
505.4597018527263
 21
365.0361866033003
 72
     1
 10
505.4597018527263
 20
365.0361866033002
 11
506.4215385441195
 21
365.9595760800365
 97
        0
 75
     0
 76
     1
 98
        0
  0
LWPOLYLINE
  5
352
330
34D
100
AcDbEntity
  8
Default
  6
Continuous
 62
     7
 48
25.4
370
    20
100
AcDbPolyline
 90
        4
 70
     1
 43
0.00025
 10
506.4215385441
 20
365.95957608
 10
503.1704517682
 20
368.3833914158
 10
505.4597018527
 20
365.0361866033
 10
506.4215385441
 20
365.95957608
  0
LINE
  5
353
330
34D
100
AcDbEntity
  8
Default
  6
Continuous
 62
     7
 48
25.4
100
AcDbLine
 10
491.7620285163
 20
314.5556303539
 30
0.0
 11
530.4877421413
 21
324.932154046
 31
0.0
  0
LINE
  5
354
330
34D
100
AcDbEntity
  8
Default
  6
Continuous
 62
     7
 48
25.4
100
AcDbLine
 10
476.2354740059
 20
341.4484116325
 30
0.0
 11
504.5846639387
 21
369.7976015653
 31
0.0
  0
ARC
  5
355
330
34D
100
AcDbEntity
  8
Default
  6
Continuous
 62
     7
 48
25.4
100
AcDbCircle
 10
433.8161382168
 20
299.0290758434
 30
0.0
 40
98.08181226253446
100
AcDbArc
 50
15.0
 51
45.0000008348
  0
TEXT
  5
356
330
34D
100
AcDbEntity
  8
Default
  6
Continuous
 62
     7
 48
25.4
100
AcDbText
 10
517.4930699066
 20
352.2600032604
 30
0.0
 40
4.0
  1
30°
 50
300.0
  7
SEACAD_arial_ttf
 11
520.9571715217
 21
354.2600032604
 31
0.0
100
AcDbText
 73
     3
  0
ENDBLK
  5
358
330
34D
100
AcDbEntity
  8
0
100
AcDbBlockEnd
  0
BLOCK
  5
363
330
359
100
AcDbEntity
  8
0
100
AcDbBlockBegin
  2
GDimGGroup19
 70
     0
 71
     0
 10
0.0
 20
0.0
 30
0.0
  3
GDimGGroup19
  1

  0
HATCH
  5
35B
330
359
100
AcDbEntity
  8
Default
  6
Continuous
 62
     7
 48
25.4
100
AcDbHatch
 10
0.0
 20
0.0
 30
0.0
210
0.0
220
0.0
230
1.0
  2
SOLID
 70
     1
 71
     0
 91
        1
 92
        1
 93
        3
 72
     1
 10
531.1498634627752
 20
303.0146513128071
 11
531.897950479369
 21
299.0290758434192
 72
     1
 10
531.897950479369
 20
299.0290758434192
 11
532.4829196699601
 21
303.0418376171409
 72
     1
 10
532.4829196699602
 20
303.0418376171409
 11
531.1498634627753
 21
303.0146513128071
 97
        0
 75
     0
 76
     1
 98
        0
  0
LWPOLYLINE
  5
35C
330
359
100
AcDbEntity
  8
Default
  6
Continuous
 62
     7
 48
25.4
370
    20
100
AcDbPolyline
 90
        4
 70
     1
 43
0.00025
 10
531.1498634628
 20
303.0146513128
 10
531.8979504794
 20
299.0290758434
 10
532.48291967
 20
303.0418376171
 10
531.1498634628
 20
303.0146513128
  0
HATCH
  5
35D
330
359
100
AcDbEntity
  8
Default
  6
Continuous
 62
     7
 48
25.4
100
AcDbHatch
 10
0.0
 20
0.0
 30
0.0
210
0.0
220
0.0
230
1.0
  2
SOLID
 70
     1
 71
     0
 91
        1
 92
        1
 93
        3
 72
     1
 10
530.1595096283151
 20
320.6898884708037
 11
528.5558935855137
 21
324.4145175253343
 72
     1
 10
528.5558935855137
 20
324.4145175253343
 11
528.8648398785861
 21
320.3711280814915
 72
     1
 10
528.8648398785862
 20
320.3711280814914
 11
530.1595096283151
 21
320.6898884708037
 97
        0
 75
     0
 76
     1
 98
        0
  0
LWPOLYLINE
  5
35E
330
359
100
AcDbEntity
  8
Default
  6
Continuous
 62
     7
 48
25.4
370
    20
100
AcDbPolyline
 90
        4
 70
     1
 43
0.00025
 10
530.1595096283
 20
320.6898884708
 10
528.5558935855
 20
324.4145175253
 10
528.8648398786
 20
320.3711280815
 10
530.1595096283
 20
320.6898884708
  0
LINE
  5
35F
330
359
100
AcDbEntity
  8
Default
  6
Continuous
 62
     7
 48
25.4
100
AcDbLine
 10
535.6071102708
 20
299.0290758434
 30
0.0
 11
529.8979538768
 21
299.0290758434
 31
0.0
  0
LINE
  5
360
330
359
100
AcDbEntity
  8
Default
  6
Continuous
 62
     7
 48
25.4
100
AcDbLine
 10
491.7620285163
 20
314.5556303539
 30
0.0
 11
530.4877421413
 21
324.932154046
 31
0.0
  0
ARC
  5
361
330
359
100
AcDbEntity
  8
Default
  6
Continuous
 62
     7
 48
25.4
100
AcDbCircle
 10
433.8161382168
 20
299.0290758434
 30
0.0
 40
98.08181226253076
100
AcDbArc
 50
0.0
 51
15.0000004174
  0
TEXT
  5
362
330
359
100
AcDbEntity
  8
Default
  6
Continuous
 62
     7
 48
25.4
100
AcDbText
 10
531.4941367602
 20
316.1862647517
 30
0.0
 40
4.0
  1
15°
 50
277.5
  7
SEACAD_arial_ttf
 11
535.4599162057
 21
316.7083695206
 31
0.0
100
AcDbText
 73
     3
  0
ENDBLK
  5
364
330
359
100
AcDbEntity
  8
0
100
AcDbBlockEnd
  0
BLOCK
  5
36E
330
365
100
AcDbEntity
  8
0
100
AcDbBlockBegin
  2
GDimGGroup20
 70
     0
 71
     0
 10
0.0
 20
0.0
 30
0.0
  3
GDimGGroup20
  1

  0
HATCH
  5
367
330
365
100
AcDbEntity
  8
Default
  6
Continuous
 62
     7
 48
25.4
100
AcDbHatch
 10
0.0
 20
0.0
 30
0.0
210
0.0
220
0.0
230
1.0
  2
SOLID
 70
     1
 71
     0
 91
        1
 92
        1
 93
        3
 72
     1
 10
520.1867695891218
 20
253.7651321711741
 11
518.8417668830143
 21
249.9395062449828
 72
     1
 10
518.8417668830143
 20
249.9395062449828
 11
521.3548102837726
 21
253.1221244866964
 72
     1
 10
521.3548102837726
 20
253.1221244866964
 11
520.1867695891218
 21
253.7651321711741
 97
        0
 75
     0
 76
     1
 98
        0
  0
LWPOLYLINE
  5
368
330
365
100
AcDbEntity
  8
Default
  6
Continuous
 62
     7
 48
25.4
370
    20
100
AcDbPolyline
 90
        4
 70
     1
 43
0.00025
 10
520.1867695891
 20
253.7651321712
 10
518.841766883
 20
249.939506245
 10
521.3548102838
 20
253.1221244867
 10
520.1867695891
 20
253.7651321712
  0
HATCH
  5
369
330
365
100
AcDbEntity
  8
Default
  6
Continuous
 62
     7
 48
25.4
100
AcDbHatch
 10
0.0
 20
0.0
 30
0.0
210
0.0
220
0.0
230
1.0
  2
SOLID
 70
     1
 71
     0
 91
        1
 92
        1
 93
        3
 72
     1
 10
532.5803277733045
 20
295.0163273336423
 11
531.9952774137067
 21
299.0290772739348
 72
     1
 10
531.9952774137066
 20
299.0290772739347
 11
531.2472710164744
 21
295.043486673248
 72
     1
 10
531.2472710164745
 20
295.043486673248
 11
532.5803277733045
 21
295.0163273336423
 97
        0
 75
     0
 76
     1
 98
        0
  0
LWPOLYLINE
  5
36A
330
365
100
AcDbEntity
  8
Default
  6
Continuous
 62
     7
 48
25.4
370
    20
100
AcDbPolyline
 90
        4
 70
     1
 43
0.00025
 10
532.5803277733
 20
295.0163273336
 10
531.9952774137
 20
299.0290772739
 10
531.2472710165
 20
295.0434866732
 10
532.5803277733
 20
295.0163273336
  0
LINE
  5
36B
330
365
100
AcDbEntity
  8
Default
  6
Continuous
 62
     7
 48
25.4
100
AcDbLine
 10
433.8161382168
 20
299.0290758434
 30
0.0
 11
533.9952740162
 21
299.0290758434
 31
0.0
  0
ARC
  5
36C
330
365
100
AcDbEntity
  8
Default
  6
Continuous
 62
     7
 48
25.4
100
AcDbCircle
 10
433.8161382168
 20
299.0290758434
 30
0.0
 40
98.17913919687372
100
AcDbArc
 50
330.0
 51
0.0000008348
  0
TEXT
  5
36D
330
365
100
AcDbEntity
  8
Default
  6
Continuous
 62
     7
 48
25.4
100
AcDbText
 10
526.5811843515
 20
269.7615798771
 30
0.0
 40
4.0
  1
30°
 50
75.0
  7
SEACAD_arial_ttf
 11
522.7174810463
 21
270.7968560575
 31
0.0
100
AcDbText
 73
     3
  0
ENDBLK
  5
36F
330
365
100
AcDbEntity
  8
0
100
AcDbBlockEnd
  0
BLOCK
  5
37A
330
370
100
AcDbEntity
  8
0
100
AcDbBlockBegin
  2
GDimGGroup21
 70
     0
 71
     0
 10
0.0
 20
0.0
 30
0.0
  3
GDimGGroup21
  1

  0
HATCH
  5
372
330
370
100
AcDbEntity
  8
Default
  6
Continuous
 62
     7
 48
25.4
100
AcDbHatch
 10
0.0
 20
0.0
 30
0.0
210
0.0
220
0.0
230
1.0
  2
SOLID
 70
     1
 71
     0
 91
        1
 92
        1
 93
        3
 72
     1
 10
423.8161384068238
 20
403.07775761207
 11
419.816138216834
 21
402.4110909137384
 72
     1
 10
419.816138216834
 20
402.4110909137384
 11
423.8161384068238
 21
401.7444242154067
 72
     1
 10
423.8161384068238
 20
401.7444242154067
 11
423.8161384068238
 21
403.07775761207
 97
        0
 75
     0
 76
     1
 98
        0
  0
LWPOLYLINE
  5
373
330
370
100
AcDbEntity
  8
Default
  6
Continuous
 62
     7
 48
25.4
370
    20
100
AcDbPolyline
 90
        4
 70
     1
 43
0.00025
 10
423.8161384068
 20
403.0777576121
 10
419.8161382168
 20
402.4110909137
 10
423.8161384068
 20
401.7444242154
 10
423.8161384068
 20
403.0777576121
  0
HATCH
  5
374
330
370
100
AcDbEntity
  8
Default
  6
Continuous
 62
     7
 48
25.4
100
AcDbHatch
 10
0.0
 20
0.0
 30
0.0
210
0.0
220
0.0
230
1.0
  2
SOLID
 70
     1
 71
     0
 91
        1
 92
        1
 93
        3
 72
     1
 10
443.8161388911116
 20
403.07775761207
 11
443.8161388911116
 21
401.7444242154067
 72
     1
 10
443.8161388911116
 20
401.7444242154067
 11
447.8161390811014
 21
402.4110909137384
 72
     1
 10
447.8161390811014
 20
402.4110909137384
 11
443.8161388911116
 21
403.07775761207
 97
        0
 75
     0
 76
     1
 98
        0
  0
LWPOLYLINE
  5
375
330
370
100
AcDbEntity
  8
Default
  6
Continuous
 62
     7
 48
25.4
370
    20
100
AcDbPolyline
 90
        4
 70
     1
 43
0.00025
 10
443.8161388911
 20
403.0777576121
 10
447.8161390811
 20
402.4110909137
 10
443.8161388911
 20
401.7444242154
 10
443.8161388911
 20
403.0777576121
  0
LINE
  5
376
330
370
100
AcDbEntity
  8
Default
  6
Continuous
 62
     7
 48
25.4
100
AcDbLine
 10
419.8161382168
 20
388.6290758434
 30
0.0
 11
419.8161382168
 21
404.4110910087
 31
0.0
  0
LINE
  5
377
330
370
100
AcDbEntity
  8
Default
  6
Continuous
 62
     7
 48
25.4
100
AcDbLine
 10
447.8161382168
 20
388.6290758434
 30
0.0
 11
447.8161382168
 21
404.4110910087
 31
0.0
  0
LINE
  5
378
330
370
100
AcDbEntity
  8
Default
  6
Continuous
 62
     7
 48
25.4
100
AcDbLine
 10
419.8161382168
 20
402.4110909137
 30
0.0
 11
447.8161390811
 21
402.4110909137
 31
0.0
  0
TEXT
  5
379
330
370
100
AcDbEntity
  8
Default
  6
Continuous
 62
     7
 48
25.4
100
AcDbText
 10
430.6857038664
 20
403.4110909137
 30
0.0
 40
4.0
  1
40
  7
SEACAD_arial_ttf
 11
430.6857038664
 21
407.4110909137
 31
0.0
100
AcDbText
 73
     3
  0
ENDBLK
  5
37B
330
370
100
AcDbEntity
  8
0
100
AcDbBlockEnd
  0
BLOCK
  5
386
330
37C
100
AcDbEntity
  8
0
100
AcDbBlockBegin
  2
GDimGGroup22
 70
     0
 71
     0
 10
0.0
 20
0.0
 30
0.0
  3
GDimGGroup22
  1

  0
HATCH
  5
37E
330
37C
100
AcDbEntity
  8
Default
  6
Continuous
 62
     7
 48
25.4
100
AcDbHatch
 10
0.0
 20
0.0
 30
0.0
210
0.0
220
0.0
230
1.0
  2
SOLID
 70
     1
 71
     0
 91
        1
 92
        1
 93
        3
 72
     1
 10
144.3459025724562
 20
188.6310056627234
 11
144.3459025724562
 21
189.9643390593866
 72
     1
 10
144.3459025724562
 20
189.9643390593866
 11
140.3459023824664
 21
189.297672361055
 72
     1
 10
140.3459023824664
 20
189.297672361055
 11
144.3459025724562
 21
188.6310056627234
 97
        0
 75
     0
 76
     1
 98
        0
  0
LWPOLYLINE
  5
37F
330
37C
100
AcDbEntity
  8
Default
  6
Continuous
 62
     7
 48
25.4
370
    20
100
AcDbPolyline
 90
        4
 70
     1
 43
0.00025
 10
144.3459025725
 20
188.6310056627
 10
140.3459023825
 20
189.2976723611
 10
144.3459025725
 20
189.9643390594
 10
144.3459025725
 20
188.6310056627
  0
HATCH
  5
380
330
37C
100
AcDbEntity
  8
Default
  6
Continuous
 62
     7
 48
25.4
100
AcDbHatch
 10
0.0
 20
0.0
 30
0.0
210
0.0
220
0.0
230
1.0
  2
SOLID
 70
     1
 71
     0
 91
        1
 92
        1
 93
        3
 72
     1
 10
215.4411838530334
 20
188.6310056627234
 11
219.4411840430232
 21
189.297672361055
 72
     1
 10
219.4411840430232
 20
189.297672361055
 11
215.4411838530334
 21
189.9643390593866
 72
     1
 10
215.4411838530334
 20
189.9643390593866
 11
215.4411838530334
 21
188.6310056627234
 97
        0
 75
     0
 76
     1
 98
        0
  0
LWPOLYLINE
  5
381
330
37C
100
AcDbEntity
  8
Default
  6
Continuous
 62
     7
 48
25.4
370
    20
100
AcDbPolyline
 90
        4
 70
     1
 43
0.00025
 10
215.441183853
 20
188.6310056627
 10
219.441184043
 20
189.2976723611
 10
215.441183853
 20
189.9643390594
 10
215.441183853
 20
188.6310056627
  0
LINE
  5
382
330
37C
100
AcDbEntity
  8
Default
  6
Continuous
 62
     7
 48
25.4
100
AcDbLine
 10
140.3459023825
 20
223.1672219931
 30
0.0
 11
140.3459023825
 21
187.2976722661
 31
0.0
  0
LINE
  5
383
330
37C
100
AcDbEntity
  8
Default
  6
Continuous
 62
     7
 48
25.4
100
AcDbLine
 10
219.4411812871
 20
211.9672219931
 30
0.0
 11
219.4411812871
 21
187.2976722661
 31
0.0
  0
LINE
  5
384
330
37C
100
AcDbEntity
  8
Default
  6
Continuous
 62
     7
 48
25.4
100
AcDbLine
 10
140.3459023825
 20
189.2976723611
 30
0.0
 11
219.441184043
 21
189.2976723611
 31
0.0
  0
TEXT
  5
385
330
37C
100
AcDbEntity
  8
Default
  6
Continuous
 62
     7
 48
25.4
100
AcDbText
 10
175.1978910388
 20
190.2976723611
 30
0.0
 40
4.0
  1
113
  7
SEACAD_arial_ttf
 11
175.1978910388
 21
194.2976723611
 31
0.0
100
AcDbText
 73
     3
  0
ENDBLK
  5
387
330
37C
100
AcDbEntity
  8
0
100
AcDbBlockEnd
  0
BLOCK
  5
392
330
388
100
AcDbEntity
  8
0
100
AcDbBlockBegin
  2
GDimGGroup23
 70
     0
 71
     0
 10
0.0
 20
0.0
 30
0.0
  3
GDimGGroup23
  1

  0
HATCH
  5
38A
330
388
100
AcDbEntity
  8
Default
  6
Continuous
 62
     7
 48
25.4
100
AcDbHatch
 10
0.0
 20
0.0
 30
0.0
210
0.0
220
0.0
230
1.0
  2
SOLID
 70
     1
 71
     0
 91
        1
 92
        1
 93
        3
 72
     1
 10
148.9459021924766
 20
198.5636763228487
 11
152.9459023824664
 21
199.2303430211803
 72
     1
 10
152.9459023824664
 20
199.2303430211803
 11
148.9459021924766
 21
199.8970097195119
 72
     1
 10
148.9459021924766
 20
199.8970097195119
 11
148.9459021924766
 21
198.5636763228487
 97
        0
 75
     0
 76
     1
 98
        0
  0
LWPOLYLINE
  5
38B
330
388
100
AcDbEntity
  8
Default
  6
Continuous
 62
     7
 48
25.4
370
    20
100
AcDbPolyline
 90
        4
 70
     1
 43
0.00025
 10
148.9459021925
 20
198.5636763228
 10
152.9459023825
 20
199.2303430212
 10
148.9459021925
 20
199.8970097195
 10
148.9459021925
 20
198.5636763228
  0
HATCH
  5
38C
330
388
100
AcDbEntity
  8
Default
  6
Continuous
 62
     7
 48
25.4
100
AcDbHatch
 10
0.0
 20
0.0
 30
0.0
210
0.0
220
0.0
230
1.0
  2
SOLID
 70
     1
 71
     0
 91
        1
 92
        1
 93
        3
 72
     1
 10
144.3459025560649
 20
198.5636763228487
 11
144.3459025560649
 21
199.8970097195119
 72
     1
 10
144.3459025560649
 20
199.8970097195119
 11
140.3459023660751
 21
199.2303430211803
 72
     1
 10
140.3459023660751
 20
199.2303430211803
 11
144.3459025560649
 21
198.5636763228487
 97
        0
 75
     0
 76
     1
 98
        0
  0
LWPOLYLINE
  5
38D
330
388
100
AcDbEntity
  8
Default
  6
Continuous
 62
     7
 48
25.4
370
    20
100
AcDbPolyline
 90
        4
 70
     1
 43
0.00025
 10
144.3459025561
 20
198.5636763228
 10
140.3459023661
 20
199.2303430212
 10
144.3459025561
 20
199.8970097195
 10
144.3459025561
 20
198.5636763228
  0
LINE
  5
38E
330
388
100
AcDbEntity
  8
Default
  6
Continuous
 62
     7
 48
25.4
100
AcDbLine
 10
152.9459023825
 20
222.4672221688
 30
0.0
 11
152.9459023825
 21
197.2303429262
 31
0.0
  0
LINE
  5
38F
330
388
100
AcDbEntity
  8
Default
  6
Continuous
 62
     7
 48
25.4
100
AcDbLine
 10
140.3459023825
 20
223.1672219931
 30
0.0
 11
140.3459023825
 21
197.2303429262
 31
0.0
  0
LINE
  5
390
330
388
100
AcDbEntity
  8
Default
  6
Continuous
 62
     7
 48
25.4
100
AcDbLine
 10
152.9459023825
 20
199.2303430212
 30
0.0
 11
140.3459023661
 21
199.2303430212
 31
0.0
  0
TEXT
  5
391
330
388
100
AcDbEntity
  8
Default
  6
Continuous
 62
     7
 48
25.4
100
AcDbText
 10
143.5154675917
 20
200.2303430212
 30
0.0
 40
4.0
  1
18
  7
SEACAD_arial_ttf
 11
143.5154675917
 21
204.2303430212
 31
0.0
100
AcDbText
 73
     3
  0
ENDBLK
  5
393
330
388
100
AcDbEntity
  8
0
100
AcDbBlockEnd
  0
BLOCK
  5
39E
330
394
100
AcDbEntity
  8
0
100
AcDbBlockBegin
  2
GDimGGroup24
 70
     0
 71
     0
 10
0.0
 20
0.0
 30
0.0
  3
GDimGGroup24
  1

  0
HATCH
  5
396
330
394
100
AcDbEntity
  8
Default
  6
Continuous
 62
     7
 48
25.4
100
AcDbHatch
 10
0.0
 20
0.0
 30
0.0
210
0.0
220
0.0
230
1.0
  2
SOLID
 70
     1
 71
     0
 91
        1
 92
        1
 93
        3
 72
     1
 10
136.3459021924766
 20
216.0805194482644
 11
140.3459023824664
 21
216.7471861465961
 72
     1
 10
140.3459023824664
 20
216.7471861465961
 11
136.3459021924766
 21
217.4138528449277
 72
     1
 10
136.3459021924766
 20
217.4138528449277
 11
136.3459021924766
 21
216.0805194482644
 97
        0
 75
     0
 76
     1
 98
        0
  0
LWPOLYLINE
  5
397
330
394
100
AcDbEntity
  8
Default
  6
Continuous
 62
     7
 48
25.4
370
    20
100
AcDbPolyline
 90
        4
 70
     1
 43
0.00025
 10
136.3459021925
 20
216.0805194483
 10
140.3459023825
 20
216.7471861466
 10
136.3459021925
 20
217.4138528449
 10
136.3459021925
 20
216.0805194483
  0
HATCH
  5
398
330
394
100
AcDbEntity
  8
Default
  6
Continuous
 62
     7
 48
25.4
100
AcDbHatch
 10
0.0
 20
0.0
 30
0.0
210
0.0
220
0.0
230
1.0
  2
SOLID
 70
     1
 71
     0
 91
        1
 92
        1
 93
        3
 72
     1
 10
127.5459031714829
 20
216.0805194482644
 11
127.5459031714829
 21
217.4138528449277
 72
     1
 10
127.5459031714829
 20
217.4138528449277
 11
123.5459029814931
 21
216.7471861465961
 72
     1
 10
123.5459029814931
 20
216.7471861465961
 11
127.5459031714829
 21
216.0805194482644
 97
        0
 75
     0
 76
     1
 98
        0
  0
LWPOLYLINE
  5
399
330
394
100
AcDbEntity
  8
Default
  6
Continuous
 62
     7
 48
25.4
370
    20
100
AcDbPolyline
 90
        4
 70
     1
 43
0.00025
 10
127.5459031715
 20
216.0805194483
 10
123.5459029815
 20
216.7471861466
 10
127.5459031715
 20
217.4138528449
 10
127.5459031715
 20
216.0805194483
  0
LINE
  5
39A
330
394
100
AcDbEntity
  8
Default
  6
Continuous
 62
     7
 48
25.4
100
AcDbLine
 10
140.3459023825
 20
223.1672219931
 30
0.0
 11
140.3459023825
 21
214.7471860516
 31
0.0
  0
LINE
  5
39B
330
394
100
AcDbEntity
  8
Default
  6
Continuous
 62
     7
 48
25.4
100
AcDbLine
 10
123.5459023825
 20
233.891903639
 30
0.0
 11
123.5459023825
 21
214.7471860516
 31
0.0
  0
LINE
  5
39C
330
394
100
AcDbEntity
  8
Default
  6
Continuous
 62
     7
 48
25.4
100
AcDbLine
 10
140.3459023825
 20
216.7471861466
 30
0.0
 11
123.5459029815
 21
216.7471861466
 31
0.0
  0
TEXT
  5
39D
330
394
100
AcDbEntity
  8
Default
  6
Continuous
 62
     7
 48
25.4
100
AcDbText
 10
128.8154678994
 20
217.7471861466
 30
0.0
 40
4.0
  1
24
  7
SEACAD_arial_ttf
 11
128.8154678994
 21
221.7471861466
 31
0.0
100
AcDbText
 73
     3
  0
ENDBLK
  5
39F
330
394
100
AcDbEntity
  8
0
100
AcDbBlockEnd
  0
BLOCK
  5
3AB
330
3A0
100
AcDbEntity
  8
0
100
AcDbBlockBegin
  2
GDimGGroup25
 70
     0
 71
     0
 10
0.0
 20
0.0
 30
0.0
  3
GDimGGroup25
  1

  0
HATCH
  5
3A2
330
3A0
100
AcDbEntity
  8
Default
  6
Continuous
 62
     7
 48
25.4
100
AcDbHatch
 10
0.0
 20
0.0
 30
0.0
210
0.0
220
0.0
230
1.0
  2
SOLID
 70
     1
 71
     0
 91
        1
 92
        1
 93
        3
 72
     1
 10
82.42610217855194
 20
254.5944672684546
 11
83.09276887688358
 21
250.5944670784648
 72
     1
 10
83.09276887688358
 20
250.5944670784648
 11
83.75943557521522
 21
254.5944672684546
 72
     1
 10
83.75943557521522
 20
254.5944672684546
 11
82.42610217855194
 21
254.5944672684546
 97
        0
 75
     0
 76
     1
 98
        0
  0
LWPOLYLINE
  5
3A3
330
3A0
100
AcDbEntity
  8
Default
  6
Continuous
 62
     7
 48
25.4
370
    20
100
AcDbPolyline
 90
        4
 70
     1
 43
0.00025
 10
82.4261021786
 20
254.5944672685
 10
83.0927688769
 20
250.5944670785
 10
83.7594355752
 20
254.5944672685
 10
82.4261021786
 20
254.5944672685
  0
HATCH
  5
3A4
330
3A0
100
AcDbEntity
  8
Default
  6
Continuous
 62
     7
 48
25.4
100
AcDbHatch
 10
0.0
 20
0.0
 30
0.0
210
0.0
220
0.0
230
1.0
  2
SOLID
 70
     1
 71
     0
 91
        1
 92
        1
 93
        3
 72
     1
 10
82.42610217855194
 20
344.3977689977165
 11
83.75943557521522
 21
344.3977689977165
 72
     1
 10
83.75943557521522
 20
344.3977689977165
 11
83.09276887688358
 21
348.3977691877063
 72
     1
 10
83.09276887688358
 20
348.3977691877063
 11
82.42610217855194
 21
344.3977689977165
 97
        0
 75
     0
 76
     1
 98
        0
  0
LWPOLYLINE
  5
3A5
330
3A0
100
AcDbEntity
  8
Default
  6
Continuous
 62
     7
 48
25.4
370
    20
100
AcDbPolyline
 90
        4
 70
     1
 43
0.00025
 10
82.4261021786
 20
344.3977689977
 10
83.0927688769
 20
348.3977691877
 10
83.7594355752
 20
344.3977689977
 10
82.4261021786
 20
344.3977689977
  0
LINE
  5
3A6
330
3A0
100
AcDbEntity
  8
Default
  6
Continuous
 62
     7
 48
25.4
100
AcDbLine
 10
140.3459023825
 20
250.5944670785
 30
0.0
 11
81.0927687819
 21
250.5944670785
 31
0.0
  0
LINE
  5
3A7
330
3A0
100
AcDbEntity
  8
Default
  6
Continuous
 62
     7
 48
25.4
100
AcDbLine
 10
140.3459023825
 20
348.3977670785
 30
0.0
 11
81.0927687819
 21
348.3977670785
 31
0.0
  0
LINE
  5
3A8
330
3A0
100
AcDbEntity
  8
Default
  6
Continuous
 62
     7
 48
25.4
100
AcDbLine
 10
83.0927688769
 20
250.5944670785
 30
0.0
 11
83.0927688769
 21
348.3977691877
 31
0.0
  0
TEXT
  5
3A9
330
3A0
100
AcDbEntity
  8
Default
  6
Continuous
 62
     7
 48
25.4
100
AcDbText
 10
82.0927688769
 20
293.002906844
 30
0.0
 40
4.0
  1
139.719
 50
90.0
  7
SEACAD_arial_ttf
 11
78.0927688769
 21
293.002906844
 31
0.0
100
AcDbText
 73
     3
  0
TEXT
  5
3AA
330
3A0
100
AcDbEntity
  8
Default
  6
Continuous
 62
     7
 48
25.4
100
AcDbText
 10
82.0927688769
 20
285.6415033352
 30
0.0
 40
4.0
  1
O
 50
90.0
  7
SEACAD_semeca1_ttf
 11
78.0927688769
 21
285.6415033352
 31
0.0
100
AcDbText
 73
     3
  0
ENDBLK
  5
3AC
330
3A0
100
AcDbEntity
  8
0
100
AcDbBlockEnd
  0
BLOCK
  5
3B9
330
3AD
100
AcDbEntity
  8
0
100
AcDbBlockBegin
  2
GDimGGroup26
 70
     0
 71
     0
 10
0.0
 20
0.0
 30
0.0
  3
GDimGGroup26
  1

  0
HATCH
  5
3AF
330
3AD
100
AcDbEntity
  8
Default
  6
Continuous
 62
     7
 48
25.4
100
AcDbHatch
 10
0.0
 20
0.0
 30
0.0
210
0.0
220
0.0
230
1.0
  2
SOLID
 70
     1
 71
     0
 91
        1
 92
        1
 93
        3
 72
     1
 10
63.9623930446885
 20
226.4672221831172
 11
64.62905974302014
 21
222.4672219931274
 72
     1
 10
64.62905974302014
 20
222.4672219931274
 11
65.29572644135178
 21
226.4672221831172
 72
     1
 10
65.29572644135178
 20
226.4672221831172
 11
63.9623930446885
 21
226.4672221831172
 97
        0
 75
     0
 76
     1
 98
        0
  0
LWPOLYLINE
  5
3B0
330
3AD
100
AcDbEntity
  8
Default
  6
Continuous
 62
     7
 48
25.4
370
    20
100
AcDbPolyline
 90
        4
 70
     1
 43
0.00025
 10
63.9623930447
 20
226.4672221831
 10
64.629059743
 20
222.4672219931
 10
65.2957264414
 20
226.4672221831
 10
63.9623930447
 20
226.4672221831
  0
HATCH
  5
3B1
330
3AD
100
AcDbEntity
  8
Default
  6
Continuous
 62
     7
 48
25.4
100
AcDbHatch
 10
0.0
 20
0.0
 30
0.0
210
0.0
220
0.0
230
1.0
  2
SOLID
 70
     1
 71
     0
 91
        1
 92
        1
 93
        3
 72
     1
 10
63.9623930446885
 20
372.4672209686726
 11
65.29572644135178
 21
372.4672209686726
 72
     1
 10
65.29572644135178
 20
372.4672209686726
 11
64.62905974302014
 21
376.4672211586624
 72
     1
 10
64.62905974302014
 20
376.4672211586624
 11
63.9623930446885
 21
372.4672209686726
 97
        0
 75
     0
 76
     1
 98
        0
  0
LWPOLYLINE
  5
3B2
330
3AD
100
AcDbEntity
  8
Default
  6
Continuous
 62
     7
 48
25.4
370
    20
100
AcDbPolyline
 90
        4
 70
     1
 43
0.00025
 10
63.9623930447
 20
372.4672209687
 10
64.629059743
 20
376.4672211587
 10
65.2957264414
 20
372.4672209687
 10
63.9623930447
 20
372.4672209687
  0
LINE
  5
3B3
330
3AD
100
AcDbEntity
  8
Default
  6
Continuous
 62
     7
 48
25.4
100
AcDbLine
 10
141.0459023825
 20
222.4672219931
 30
0.0
 11
62.629059648
 21
222.4672219931
 31
0.0
  0
LINE
  5
3B4
330
3AD
100
AcDbEntity
  8
Default
  6
Continuous
 62
     7
 48
25.4
100
AcDbLine
 10
141.0459023825
 20
376.4672219931
 30
0.0
 11
62.629059648
 21
376.4672219931
 31
0.0
  0
LINE
  5
3B5
330
3AD
100
AcDbEntity
  8
Default
  6
Continuous
 62
     7
 48
25.4
100
AcDbLine
 10
64.629059743
 20
222.4672219931
 30
0.0
 11
64.629059743
 21
376.4672211587
 31
0.0
  0
TEXT
  5
3B6
330
3AD
100
AcDbEntity
  8
Default
  6
Continuous
 62
     7
 48
25.4
100
AcDbText
 10
63.629059743
 20
293.6870537651
 30
0.0
 40
4.0
  1
220
 50
90.0
  7
SEACAD_arial_ttf
 11
59.629059743
 21
293.6870537651
 31
0.0
100
AcDbText
 73
     3
  0
TEXT
  5
3B7
330
3AD
100
AcDbEntity
  8
Default
  6
Continuous
 62
     7
 48
25.4
100
AcDbText
 10
63.629059743
 20
305.4783581129
 30
0.0
 40
4.0
  1
H6
 50
90.0
  7
SEACAD_arial_ttf
 11
59.629059743
 21
305.4783581129
 31
0.0
100
AcDbText
 73
     3
  0
TEXT
  5
3B8
330
3AD
100
AcDbEntity
  8
Default
  6
Continuous
 62
     7
 48
25.4
100
AcDbText
 10
63.629059743
 20
286.3256502563
 30
0.0
 40
4.0
  1
O
 50
90.0
  7
SEACAD_semeca1_ttf
 11
59.629059743
 21
286.3256502563
 31
0.0
100
AcDbText
 73
     3
  0
ENDBLK
  5
3BA
330
3AD
100
AcDbEntity
  8
0
100
AcDbBlockEnd
  0
BLOCK
  5
3C6
330
3BB
100
AcDbEntity
  8
0
100
AcDbBlockBegin
  2
GDimGGroup27
 70
     0
 71
     0
 10
0.0
 20
0.0
 30
0.0
  3
GDimGGroup27
  1

  0
HATCH
  5
3BD
330
3BB
100
AcDbEntity
  8
Default
  6
Continuous
 62
     7
 48
25.4
100
AcDbHatch
 10
0.0
 20
0.0
 30
0.0
210
0.0
220
0.0
230
1.0
  2
SOLID
 70
     1
 71
     0
 91
        1
 92
        1
 93
        3
 72
     1
 10
154.8959021924766
 20
307.6401768138448
 11
154.8959021924766
 21
306.3068434171815
 72
     1
 10
154.8959021924766
 20
306.3068434171815
 11
158.8959023824664
 21
306.9735101155131
 72
     1
 10
158.8959023824664
 20
306.9735101155131
 11
154.8959021924766
 21
307.6401768138448
 97
        0
 75
     0
 76
     1
 98
        0
  0
LWPOLYLINE
  5
3BE
330
3BB
100
AcDbEntity
  8
Default
  6
Continuous
 62
     7
 48
25.4
370
    20
100
AcDbPolyline
 90
        4
 70
     1
 43
0.00025
 10
154.8959021925
 20
307.6401768138
 10
158.8959023825
 20
306.9735101155
 10
154.8959021925
 20
306.3068434172
 10
154.8959021925
 20
307.6401768138
  0
HATCH
  5
3BF
330
3BB
100
AcDbEntity
  8
Default
  6
Continuous
 62
     7
 48
25.4
100
AcDbHatch
 10
0.0
 20
0.0
 30
0.0
210
0.0
220
0.0
230
1.0
  2
SOLID
 70
     1
 71
     0
 91
        1
 92
        1
 93
        3
 72
     1
 10
144.3459025724562
 20
307.6401768138448
 11
140.3459023824664
 21
306.9735101155131
 72
     1
 10
140.3459023824664
 20
306.9735101155131
 11
144.3459025724562
 21
306.3068434171815
 72
     1
 10
144.3459025724562
 20
306.3068434171815
 11
144.3459025724562
 21
307.6401768138448
 97
        0
 75
     0
 76
     1
 98
        0
  0
LWPOLYLINE
  5
3C0
330
3BB
100
AcDbEntity
  8
Default
  6
Continuous
 62
     7
 48
25.4
370
    20
100
AcDbPolyline
 90
        4
 70
     1
 43
0.00025
 10
144.3459025725
 20
307.6401768138
 10
140.3459023825
 20
306.9735101155
 10
144.3459025725
 20
306.3068434172
 10
144.3459025725
 20
307.6401768138
  0
LINE
  5
3C1
330
3BB
100
AcDbEntity
  8
Default
  6
Continuous
 62
     7
 48
25.4
100
AcDbLine
 10
158.8959023825
 20
299.4672219931
 30
0.0
 11
158.8959023825
 21
308.9735102105
 31
0.0
  0
LINE
  5
3C2
330
3BB
100
AcDbEntity
  8
Default
  6
Continuous
 62
     7
 48
25.4
100
AcDbLine
 10
158.8959023825
 20
306.9735101155
 30
0.0
 11
109.0710312596
 21
306.9735101155
 31
0.0
  0
TEXT
  5
3C3
330
3BB
100
AcDbEntity
  8
Default
  6
Continuous
 62
     7
 48
25.4
100
AcDbText
 10
125.1840739137
 20
313.9735101155
 30
0.0
 40
4.0
  1
26.5
  7
SEACAD_arial_ttf
 11
125.1840739137
 21
317.9735101155
 31
0.0
100
AcDbText
 73
     3
  0
TEXT
  5
3C4
330
3BB
100
AcDbEntity
  8
Default
  6
Continuous
 62
     7
 48
25.4
100
AcDbText
 10
110.4710304354
 20
313.9735101155
 30
0.0
 40
4.0
  1
MAX
  7
SEACAD_arial_ttf
 11
110.4710304354
 21
317.9735101155
 31
0.0
100
AcDbText
 73
     3
  0
TEXT
  5
3C5
330
3BB
100
AcDbEntity
  8
Default
  6
Continuous
 62
     7
 48
25.4
100
AcDbText
 10
110.4710304354
 20
307.9735101155
 30
0.0
 40
4.0
  1
MIN 7.5
  7
SEACAD_arial_ttf
 11
110.4710304354
 21
311.9735101155
 31
0.0
100
AcDbText
 73
     3
  0
ENDBLK
  5
3C7
330
3BB
100
AcDbEntity
  8
0
100
AcDbBlockEnd
  0
BLOCK
  5
3D1
330
3C8
100
AcDbEntity
  8
0
100
AcDbBlockBegin
  2
GDimGGroup28
 70
     0
 71
     0
 10
0.0
 20
0.0
 30
0.0
  3
GDimGGroup28
  1

  0
HATCH
  5
3CA
330
3C8
100
AcDbEntity
  8
Default
  6
Continuous
 62
     7
 48
25.4
100
AcDbHatch
 10
0.0
 20
0.0
 30
0.0
210
0.0
220
0.0
230
1.0
  2
SOLID
 70
     1
 71
     0
 91
        1
 92
        1
 93
        3
 72
     1
 10
223.441181477093
 20
217.2215594796279
 11
219.4411812871032
 21
216.5548927812963
 72
     1
 10
219.4411812871032
 20
216.5548927812963
 11
223.441181477093
 21
215.8882260829647
 72
     1
 10
223.441181477093
 20
215.8882260829647
 11
223.441181477093
 21
217.2215594796279
 97
        0
 75
     0
 76
     1
 98
        0
  0
LWPOLYLINE
  5
3CB
330
3C8
100
AcDbEntity
  8
Default
  6
Continuous
 62
     7
 48
25.4
370
    20
100
AcDbPolyline
 90
        4
 70
     1
 43
0.00025
 10
223.4411814771
 20
217.2215594796
 10
219.4411812871
 20
216.5548927813
 10
223.4411814771
 20
215.888226083
 10
223.4411814771
 20
217.2215594796
  0
HATCH
  5
3CC
330
3C8
100
AcDbEntity
  8
Default
  6
Continuous
 62
     7
 48
25.4
100
AcDbHatch
 10
0.0
 20
0.0
 30
0.0
210
0.0
220
0.0
230
1.0
  2
SOLID
 70
     1
 71
     0
 91
        1
 92
        1
 93
        3
 72
     1
 10
203.5411810971135
 20
217.2215594796279
 11
203.5411810971135
 21
215.8882260829647
 72
     1
 10
203.5411810971135
 20
215.8882260829647
 11
207.5411812871033
 21
216.5548927812963
 72
     1
 10
207.5411812871033
 20
216.5548927812963
 11
203.5411810971135
 21
217.2215594796279
 97
        0
 75
     0
 76
     1
 98
        0
  0
LWPOLYLINE
  5
3CD
330
3C8
100
AcDbEntity
  8
Default
  6
Continuous
 62
     7
 48
25.4
370
    20
100
AcDbPolyline
 90
        4
 70
     1
 43
0.00025
 10
203.5411810971
 20
217.2215594796
 10
207.5411812871
 20
216.5548927813
 10
203.5411810971
 20
215.888226083
 10
203.5411810971
 20
217.2215594796
  0
LINE
  5
3CE
330
3C8
100
AcDbEntity
  8
Default
  6
Continuous
 62
     7
 48
25.4
100
AcDbLine
 10
207.5411812871
 20
230.6749803474
 30
0.0
 11
207.5411812871
 21
214.5548926863
 31
0.0
  0
LINE
  5
3CF
330
3C8
100
AcDbEntity
  8
Default
  6
Continuous
 62
     7
 48
25.4
100
AcDbLine
 10
233.7829985245
 20
216.5548927813
 30
0.0
 11
199.5411815643
 21
216.5548927813
 31
0.0
  0
TEXT
  5
3D0
330
3C8
100
AcDbEntity
  8
Default
  6
Continuous
 62
     7
 48
25.4
100
AcDbText
 10
226.1221290655
 20
217.5548927813
 30
0.0
 40
4.0
  1
17
  7
SEACAD_arial_ttf
 11
226.1221290655
 21
221.5548927813
 31
0.0
100
AcDbText
 73
     3
  0
ENDBLK
  5
3D2
330
3C8
100
AcDbEntity
  8
0
100
AcDbBlockEnd
  0
BLOCK
  5
3DF
330
3D3
100
AcDbEntity
  8
0
100
AcDbBlockBegin
  2
GDimGGroup29
 70
     0
 71
     0
 10
0.0
 20
0.0
 30
0.0
  3
GDimGGroup29
  1

  0
HATCH
  5
3D5
330
3D3
100
AcDbEntity
  8
Default
  6
Continuous
 62
     7
 48
25.4
100
AcDbHatch
 10
0.0
 20
0.0
 30
0.0
210
0.0
220
0.0
230
1.0
  2
SOLID
 70
     1
 71
     0
 91
        1
 92
        1
 93
        3
 72
     1
 10
83.47449558743887
 20
359.4317331076748
 11
83.50714204907513
 21
355.3766893082657
 72
     1
 10
83.50714204907513
 20
355.3766893082657
 11
84.79140960138972
 21
359.2231295925616
 72
     1
 10
84.79140960138972
 20
359.2231295925616
 11
83.47449558743887
 21
359.4317331076748
 97
        0
 75
     0
 76
     1
 98
        0
  0
LWPOLYLINE
  5
3D6
330
3D3
100
AcDbEntity
  8
Default
  6
Continuous
 62
     7
 48
25.4
370
    20
100
AcDbPolyline
 90
        4
 70
     1
 43
0.00025
 10
83.4744955874
 20
359.4317331077
 10
83.5071420491
 20
355.3766893083
 10
84.7914096014
 20
359.2231295926
 10
83.4744955874
 20
359.4317331077
  0
HATCH
  5
3D7
330
3D3
100
AcDbEntity
  8
Default
  6
Continuous
 62
     7
 48
25.4
100
AcDbHatch
 10
0.0
 20
0.0
 30
0.0
210
0.0
220
0.0
230
1.0
  2
SOLID
 70
     1
 71
     0
 91
        1
 92
        1
 93
        3
 72
     1
 10
83.88622455110017
 20
344.4234847347485
 11
83.08029287967402
 21
348.3977670784648
 72
     1
 10
83.08029287967403
 20
348.3977670784648
 11
82.55370424116916
 21
344.3769275625949
 72
     1
 10
82.55370424116914
 20
344.3769275625949
 11
83.88622455110017
 21
344.4234847347485
 97
        0
 75
     0
 76
     1
 98
        0
  0
LWPOLYLINE
  5
3D8
330
3D3
100
AcDbEntity
  8
Default
  6
Continuous
 62
     7
 48
25.4
370
    20
100
AcDbPolyline
 90
        4
 70
     1
 43
0.00025
 10
83.8862245511
 20
344.4234847347
 10
83.0802928797
 20
348.3977670785
 10
82.5537042412
 20
344.3769275626
 10
83.8862245511
 20
344.4234847347
  0
LINE
  5
3D9
330
3D3
100
AcDbEntity
  8
Default
  6
Continuous
 62
     7
 48
25.4
100
AcDbLine
 10
149.445901936
 20
347.2804276291
 30
0.0
 11
81.5220494204
 21
355.620428035
 31
0.0
  0
LINE
  5
3DA
330
3D3
100
AcDbEntity
  8
Default
  6
Continuous
 62
     7
 48
25.4
100
AcDbLine
 10
140.3459023825
 20
348.3977670785
 30
0.0
 11
81.0802925518
 21
348.3977670785
 31
0.0
  0
ARC
  5
3DB
330
3D3
100
AcDbEntity
  8
Default
  6
Continuous
 62
     7
 48
25.4
100
AcDbCircle
 10
140.3459023825
 20
348.3977670785
 30
0.0
 40
57.265609502791
100
AcDbArc
 50
164.9957849815
 51
180.0000000525
  0
ARC
  5
3DC
330
3D3
100
AcDbEntity
  8
Default
  6
Continuous
 62
     7
 48
25.4
100
AcDbCircle
 10
140.3459023825
 20
348.3977670785
 30
0.0
 40
57.26560950279544
100
AcDbArc
 50
180.0
 51
188.0042150185
  0
TEXT
  5
3DD
330
3D3
100
AcDbEntity
  8
Default
  6
Continuous
 62
     7
 48
25.4
100
AcDbText
 10
81.4638195082
 20
340.0986919251
 30
0.0
 40
4.0
  1
7°
 50
86.5
  7
SEACAD_arial_ttf
 11
77.4712803145
 21
340.3428860832
 31
0.0
100
AcDbText
 73
     3
  0
TEXT
  5
3DE
330
3D3
100
AcDbEntity
  8
Default
  6
Continuous
 62
     7
 48
25.4
100
AcDbText
 10
81.9638866755
 20
348.2747178391
 30
0.0
 40
4.0
  1
07'30"
 50
86.5
  7
SEACAD_arial_ttf
 11
77.9713474818
 21
348.5189119972
 31
0.0
100
AcDbText
 73
     3
  0
ENDBLK
  5
3E0
330
3D3
100
AcDbEntity
  8
0
100
AcDbBlockEnd
  0
ENDSEC
  0
SECTION
  2
ENTITIES
  0
INSERT
  5
2C
330
1F
100
AcDbEntity
  8
Default
100
AcDbBlockReference
  2
SEANNOT_GROUP
 10
0.0
 20
0.0
 30
0.0
  0
INSERT
  5
36
330
1F
100
AcDbEntity
  8
Default
100
AcDbBlockReference
  2
SEANNOT_GROUP1
 10
0.0
 20
0.0
 30
0.0
  0
INSERT
  5
40
330
1F
100
AcDbEntity
  8
Default
100
AcDbBlockReference
  2
SEANNOT_GROUP2
 10
0.0
 20
0.0
 30
0.0
  0
INSERT
  5
4B
330
1F
100
AcDbEntity
  8
Default
100
AcDbBlockReference
  2
SEANNOT_GROUP3
 10
0.0
 20
0.0
 30
0.0
  0
INSERT
  5
54
330
1F
100
AcDbEntity
  8
Default
100
AcDbBlockReference
  2
SEANNOT_GROUP4
 10
0.0
 20
0.0
 30
0.0
  0
INSERT
  5
5D
330
1F
100
AcDbEntity
  8
Default
100
AcDbBlockReference
  2
SEANNOT_GROUP5
 10
0.0
 20
0.0
 30
0.0
  0
INSERT
  5
67
330
1F
100
AcDbEntity
  8
Default
100
AcDbBlockReference
  2
SE
 10
0.0
 20
0.0
 30
0.0
  0
INSERT
  5
154
330
1F
100
AcDbEntity
  8
Default
100
AcDbBlockReference
  2
SE1
 10
0.0
 20
0.0
 30
0.0
  0
INSERT
  5
1DD
330
1F
100
AcDbEntity
  8
Default
100
AcDbBlockReference
  2
SE2
 10
0.0
 20
0.0
 30
0.0
  0
INSERT
  5
272
330
1F
100
AcDbEntity
  8
Default
100
AcDbBlockReference
  2
GDimGGroup
 10
0.0
 20
0.0
 30
0.0
  0
INSERT
  5
27F
330
1F
100
AcDbEntity
  8
Default
100
AcDbBlockReference
  2
GDimGGroup1
 10
0.0
 20
0.0
 30
0.0
  0
INSERT
  5
28B
330
1F
100
AcDbEntity
  8
Default
100
AcDbBlockReference
  2
GDimGGroup2
 10
0.0
 20
0.0
 30
0.0
  0
INSERT
  5
297
330
1F
100
AcDbEntity
  8
Default
100
AcDbBlockReference
  2
GDimGGroup3
 10
0.0
 20
0.0
 30
0.0
  0
INSERT
  5
2A3
330
1F
100
AcDbEntity
  8
Default
100
AcDbBlockReference
  2
GDimGGroup4
 10
0.0
 20
0.0
 30
0.0
  0
INSERT
  5
2AE
330
1F
100
AcDbEntity
  8
Default
100
AcDbBlockReference
  2
GDimGGroup5
 10
0.0
 20
0.0
 30
0.0
  0
INSERT
  5
2BB
330
1F
100
AcDbEntity
  8
Default
100
AcDbBlockReference
  2
GDimGGroup6
 10
0.0
 20
0.0
 30
0.0
  0
INSERT
  5
2C6
330
1F
100
AcDbEntity
  8
Default
100
AcDbBlockReference
  2
GDimGGroup7
 10
0.0
 20
0.0
 30
0.0
  0
INSERT
  5
2D1
330
1F
100
AcDbEntity
  8
Default
100
AcDbBlockReference
  2
GDimGGroup8
 10
0.0
 20
0.0
 30
0.0
  0
INSERT
  5
2DE
330
1F
100
AcDbEntity
  8
Default
100
AcDbBlockReference
  2
GDimGGroup9
 10
0.0
 20
0.0
 30
0.0
  0
INSERT
  5
2EB
330
1F
100
AcDbEntity
  8
Default
100
AcDbBlockReference
  2
GDimGGroup10
 10
0.0
 20
0.0
 30
0.0
  0
INSERT
  5
2F6
330
1F
100
AcDbEntity
  8
Default
100
AcDbBlockReference
  2
GDimGGroup11
 10
0.0
 20
0.0
 30
0.0
  0
INSERT
  5
302
330
1F
100
AcDbEntity
  8
Default
100
AcDbBlockReference
  2
GDimGGroup12
 10
0.0
 20
0.0
 30
0.0
  0
INSERT
  5
30E
330
1F
100
AcDbEntity
  8
Default
100
AcDbBlockReference
  2
GDimGGroup13
 10
0.0
 20
0.0
 30
0.0
  0
INSERT
  5
31A
330
1F
100
AcDbEntity
  8
Default
100
AcDbBlockReference
  2
GDimGGroup14
 10
0.0
 20
0.0
 30
0.0
  0
INSERT
  5
326
330
1F
100
AcDbEntity
  8
Default
100
AcDbBlockReference
  2
GDimGGroup15
 10
0.0
 20
0.0
 30
0.0
  0
INSERT
  5
334
330
1F
100
AcDbEntity
  8
Default
100
AcDbBlockReference
  2
GDimGGroup16
 10
0.0
 20
0.0
 30
0.0
  0
INSERT
  5
342
330
1F
100
AcDbEntity
  8
Default
100
AcDbBlockReference
  2
GDimGGroup17
 10
0.0
 20
0.0
 30
0.0
  0
INSERT
  5
34E
330
1F
100
AcDbEntity
  8
Default
100
AcDbBlockReference
  2
GDimGGroup18
 10
0.0
 20
0.0
 30
0.0
  0
INSERT
  5
35A
330
1F
100
AcDbEntity
  8
Default
100
AcDbBlockReference
  2
GDimGGroup19
 10
0.0
 20
0.0
 30
0.0
  0
INSERT
  5
366
330
1F
100
AcDbEntity
  8
Default
100
AcDbBlockReference
  2
GDimGGroup20
 10
0.0
 20
0.0
 30
0.0
  0
INSERT
  5
371
330
1F
100
AcDbEntity
  8
Default
100
AcDbBlockReference
  2
GDimGGroup21
 10
0.0
 20
0.0
 30
0.0
  0
INSERT
  5
37D
330
1F
100
AcDbEntity
  8
Default
100
AcDbBlockReference
  2
GDimGGroup22
 10
0.0
 20
0.0
 30
0.0
  0
INSERT
  5
389
330
1F
100
AcDbEntity
  8
Default
100
AcDbBlockReference
  2
GDimGGroup23
 10
0.0
 20
0.0
 30
0.0
  0
INSERT
  5
395
330
1F
100
AcDbEntity
  8
Default
100
AcDbBlockReference
  2
GDimGGroup24
 10
0.0
 20
0.0
 30
0.0
  0
INSERT
  5
3A1
330
1F
100
AcDbEntity
  8
Default
100
AcDbBlockReference
  2
GDimGGroup25
 10
0.0
 20
0.0
 30
0.0
  0
INSERT
  5
3AE
330
1F
100
AcDbEntity
  8
Default
100
AcDbBlockReference
  2
GDimGGroup26
 10
0.0
 20
0.0
 30
0.0
  0
INSERT
  5
3BC
330
1F
100
AcDbEntity
  8
Default
100
AcDbBlockReference
  2
GDimGGroup27
 10
0.0
 20
0.0
 30
0.0
  0
INSERT
  5
3C9
330
1F
100
AcDbEntity
  8
Default
100
AcDbBlockReference
  2
GDimGGroup28
 10
0.0
 20
0.0
 30
0.0
  0
INSERT
  5
3D4
330
1F
100
AcDbEntity
  8
Default
100
AcDbBlockReference
  2
GDimGGroup29
 10
0.0
 20
0.0
 30
0.0
  0
LINE
  5
3E2
330
1F
100
AcDbEntity
  8
BORDER
  6
Continuous
 62
     7
 48
25.4
100
AcDbLine
 10
6.2292620399
 20
410.0
 30
0.0
 11
586.2292620399
 21
410.0
 31
0.0
  0
LINE
  5
3E3
330
1F
100
AcDbEntity
  8
BORDER
  6
Continuous
 62
     7
 48
25.4
100
AcDbLine
 10
6.2292620399
 20
410.0
 30
0.0
 11
6.2292620399
 21
10.0
 31
0.0
  0
LINE
  5
3E4
330
1F
100
AcDbEntity
  8
BORDER
  6
Continuous
 62
     7
 48
25.4
100
AcDbLine
 10
6.2292620399
 20
10.0
 30
0.0
 11
586.2292620399
 21
10.0
 31
0.0
  0
LINE
  5
3E5
330
1F
100
AcDbEntity
  8
BORDER
  6
Continuous
 62
     7
 48
25.4
100
AcDbLine
 10
586.2292620399
 20
10.0
 30
0.0
 11
586.2292620399
 21
410.0
 31
0.0
  0
LINE
  5
3E6
330
1F
100
AcDbEntity
  8
Default
  6
Continuous
 62
     7
 48
25.4
100
AcDbLine
 10
3.7292620399
 20
412.5
 30
0.0
 11
588.7292620399
 21
412.5
 31
0.0
  0
LINE
  5
3E7
330
1F
100
AcDbEntity
  8
Default
  6
Continuous
 62
     7
 48
25.4
100
AcDbLine
 10
588.7292620399
 20
412.5
 30
0.0
 11
588.7292620399
 21
7.5
 31
0.0
  0
LINE
  5
3E8
330
1F
100
AcDbEntity
  8
Default
  6
Continuous
 62
     7
 48
25.4
100
AcDbLine
 10
588.7292620399
 20
7.5
 30
0.0
 11
3.7292620399
 21
7.5
 31
0.0
  0
LINE
  5
3E9
330
1F
100
AcDbEntity
  8
Default
  6
Continuous
 62
     7
 48
25.4
100
AcDbLine
 10
3.7292620399
 20
7.5
 30
0.0
 11
3.7292620399
 21
412.5
 31
0.0
  0
TEXT
  5
3EA
330
1F
100
AcDbEntity
  8
Default
  6
Continuous
 62
     7
 48
25.4
100
AcDbText
 10
473.5242219525
 20
28.1561611714
 30
0.0
 40
5.0
  1
TITLE :
  7
SEACAD_arial_ttf
 11
473.5242219525
 21
33.1561611714
 31
0.0
100
AcDbText
 73
     3
  0
TEXT
  5
3EB
330
1F
100
AcDbEntity
  8
Default
  6
Continuous
 62
     7
 48
25.4
100
AcDbText
 10
473.4498030642
 20
40.2710242694
 30
0.0
 40
5.0
  1
KITAGAWA EUROPE LIMITED
  7
SEACAD_arial_ttf
 11
473.4498030642
 21
45.2710242694
 31
0.0
100
AcDbText
 73
     3
  0
TEXT
  5
3EC
330
1F
100
AcDbEntity
  8
Default
  6
Continuous
 62
     7
 48
25.4
100
AcDbText
 10
474.4044215056
 20
15.7611952147
 30
0.0
 40
5.0
  1
www.kitagawaeurope.com
  7
SEACAD_arial_ttf
 11
474.4044215056
 21
20.7611952147
 31
0.0
100
AcDbText
 73
     3
  0
TEXT
  5
3ED
330
1F
100
AcDbEntity
  8
Default
  6
Continuous
 62
     7
 48
25.4
100
AcDbText
 10
497.8463064412
 20
27.8559210467
 30
0.0
 40
5.0
  1
B210A8 POWER CHUCK
  7
SEACAD_arial_ttf
 11
497.8463064412
 21
32.8559210467
 31
0.0
100
AcDbText
 73
     3
  0
LINE
  5
3EE
330
1F
100
AcDbEntity
  8
Default
  6
Continuous
 62
     7
 48
25.4
100
AcDbLine
 10
471.5030858285
 20
50.0
 30
0.0
 11
586.2292620399
 21
50.0
 31
0.0
  0
LINE
  5
3EF
330
1F
100
AcDbEntity
  8
Default
  6
Continuous
 62
     7
 48
25.4
100
AcDbLine
 10
471.5030858285
 20
36.7
 30
0.0
 11
586.2292620399
 21
36.7
 31
0.0
  0
LINE
  5
3F0
330
1F
100
AcDbEntity
  8
Default
  6
Continuous
 62
     7
 48
25.4
100
AcDbLine
 10
586.2292620399
 20
23.4
 30
0.0
 11
471.5030858285
 21
23.4
 31
0.0
  0
LINE
  5
3F1
330
1F
100
AcDbEntity
  8
Default
  6
Continuous
 62
     7
 48
25.4
100
AcDbLine
 10
471.5030858285
 20
50.0
 30
0.0
 11
471.5030858285
 21
10.0
 31
0.0
  0
ENDSEC
  0
SECTION
  2
OBJECTS
  0
DICTIONARY
  5
C
330
0
100
AcDbDictionary
281
     1
  3
ACAD_GROUP
350
D
  3
ACAD_LAYOUT
350
1A
  3
ACAD_MLINESTYLE
350
17
  3
ACAD_PLOTSETTINGS
350
19
  3
ACAD_PLOTSTYLENAME
350
E
  0
DICTIONARY
  5
D
102
{ACAD_REACTORS
330
C
102
}
330
C
100
AcDbDictionary
281
     1
  0
DICTIONARY
  5
1A
102
{ACAD_REACTORS
330
C
102
}
330
C
100
AcDbDictionary
281
     1
  3
Layout1
350
1E
  3
Model
350
22
  0
DICTIONARY
  5
17
102
{ACAD_REACTORS
330
C
102
}
330
C
100
AcDbDictionary
281
     1
  3
Standard
350
18
  0
DICTIONARY
  5
19
102
{ACAD_REACTORS
330
C
102
}
330
C
100
AcDbDictionary
281
     1
  0
ACDBDICTIONARYWDFLT
  5
E
102
{ACAD_REACTORS
330
C
102
}
330
C
100
AcDbDictionary
281
     1
  3
Normal
350
F
100
AcDbDictionaryWithDefault
340
F
  0
LAYOUT
  5
1E
102
{ACAD_REACTORS
330
1A
102
}
330
1A
100
AcDbPlotSettings
  1

  2

  4

  6

 40
0.0
 41
0.0
 42
0.0
 43
0.0
 44
0.0
 45
0.0
 46
0.0
 47
0.0
 48
0.0
 49
0.0
140
0.0
141
0.0
142
1.0
143
1.0
 70
   688
 72
     0
 73
     0
 74
     5
  7

 75
    16
147
1.0
148
0.0
149
0.0
100
AcDbLayout
  1
Layout1
 70
     1
 71
     1
 10
0.0
 20
0.0
 11
594.0
 21
420.0
 12
0.0
 22
0.0
 32
0.0
 14
0.0
 24
0.0
 34
0.0
 15
594.0
 25
420.0
 35
0.0
146
0.0
 13
0.0
 23
0.0
 33
0.0
 16
1.0
 26
0.0
 36
0.0
 17
0.0
 27
1.0
 37
0.0
 76
     0
330
1B
  0
LAYOUT
  5
22
102
{ACAD_REACTORS
330
1A
102
}
330
1A
100
AcDbPlotSettings
  1

  2

  4

  6

 40
0.0
 41
0.0
 42
0.0
 43
0.0
 44
0.0
 45
0.0
 46
0.0
 47
0.0
 48
0.0
 49
0.0
140
0.0
141
0.0
142
1.0
143
1.0
 70
  1712
 72
     0
 73
     0
 74
     0
  7

 75
     0
147
1.0
148
0.0
149
0.0
100
AcDbLayout
  1
Model
 70
     1
 71
     0
 10
0.0
 20
0.0
 11
594.0
 21
420.0
 12
0.0
 22
0.0
 32
0.0
 14
0.0
 24
0.0
 34
0.0
 15
594.0
 25
420.0
 35
0.0
146
0.0
 13
0.0
 23
0.0
 33
0.0
 16
1.0
 26
0.0
 36
0.0
 17
0.0
 27
1.0
 37
0.0
 76
     0
330
1F
  0
MLINESTYLE
  5
18
102
{ACAD_REACTORS
330
17
102
}
330
17
100
AcDbMlineStyle
  2
Standard
 70
     0
  3

 62
   256
 51
90.0
 52
90.0
 71
     2
 49
0.5
 62
   256
  6
BYLAYER
 49
-0.5
 62
   256
  6
BYLAYER
  0
ACDBPLACEHOLDER
  5
F
102
{ACAD_REACTORS
330
E
102
}
330
E
  0
ENDSEC
  0
EOF
