  0
SECTION
  2
HEADER
  9
$ACADVER
  1
AC1015
  9
$ACADMAINTVER
 70
     6
  9
$DWGCODEPAGE
  3
ANSI_1252
  9
$INSBASE
 10
0.0
 20
0.0
 30
0.0
  9
$EXTMIN
 10
0.0
 20
0.0
 30
0.0
  9
$EXTMAX
 10
594.0
 20
420.0
 30
0.0
  9
$LIMMIN
 10
0.0
 20
0.0
  9
$LIMMAX
 10
594.0
 20
420.0
  9
$ORTHOMODE
 70
     0
  9
$REGENMODE
 70
     1
  9
$FILLMODE
 70
     1
  9
$QTEXTMODE
 70
     0
  9
$MIRRTEXT
 70
     1
  9
$LTSCALE
 40
1.0
  9
$ATTMODE
 70
     1
  9
$TEXTSIZE
 40
0.2
  9
$TRACEWID
 40
0.05
  9
$TEXTSTYLE
  7
Standard
  9
$CLAYER
  8
0
  9
$CELTYPE
  6
ByLayer
  9
$CECOLOR
 62
   256
  9
$CELTSCALE
 40
25.4
  9
$DISPSILH
 70
     0
  9
$DIMSCALE
 40
1.0
  9
$DIMASZ
 40
0.18
  9
$DIMEXO
 40
0.0625
  9
$DIMDLI
 40
0.38
  9
$DIMRND
 40
0.0
  9
$DIMDLE
 40
0.0
  9
$DIMEXE
 40
0.18
  9
$DIMTP
 40
0.0
  9
$DIMTM
 40
0.0
  9
$DIMTXT
 40
0.18
  9
$DIMCEN
 40
0.09
  9
$DIMTSZ
 40
0.0
  9
$DIMTOL
 70
     0
  9
$DIMLIM
 70
     0
  9
$DIMTIH
 70
     1
  9
$DIMTOH
 70
     1
  9
$DIMSE1
 70
     0
  9
$DIMSE2
 70
     0
  9
$DIMTAD
 70
     0
  9
$DIMZIN
 70
     0
  9
$DIMBLK
  1

  9
$DIMASO
 70
     1
  9
$DIMSHO
 70
     1
  9
$DIMPOST
  1

  9
$DIMAPOST
  1

  9
$DIMALT
 70
     0
  9
$DIMALTD
 70
     2
  9
$DIMALTF
 40
25.4
  9
$DIMLFAC
 40
1.0
  9
$DIMTOFL
 70
     0
  9
$DIMTVP
 40
0.0
  9
$DIMTIX
 70
     0
  9
$DIMSOXD
 70
     0
  9
$DIMSAH
 70
     0
  9
$DIMBLK1
  1

  9
$DIMBLK2
  1

  9
$DIMSTYLE
  2
Standard
  9
$DIMCLRD
 70
     0
  9
$DIMCLRE
 70
     0
  9
$DIMCLRT
 70
     0
  9
$DIMTFAC
 40
1.0
  9
$DIMGAP
 40
0.09
  9
$DIMJUST
 70
     0
  9
$DIMSD1
 70
     0
  9
$DIMSD2
 70
     0
  9
$DIMTOLJ
 70
     1
  9
$DIMTZIN
 70
     0
  9
$DIMALTZ
 70
     0
  9
$DIMALTTZ
 70
     0
  9
$DIMUPT
 70
     0
  9
$DIMDEC
 70
     4
  9
$DIMTDEC
 70
     4
  9
$DIMALTU
 70
     2
  9
$DIMALTTD
 70
     2
  9
$DIMTXSTY
  7
Standard
  9
$DIMAUNIT
 70
     0
  9
$DIMADEC
 70
     0
  9
$DIMALTRND
 40
0.0
  9
$DIMAZIN
 70
     0
  9
$DIMDSEP
 70
    46
  9
$DIMATFIT
 70
     3
  9
$DIMFRAC
 70
     0
  9
$DIMLDRBLK
  1

  9
$DIMLUNIT
 70
     2
  9
$DIMLWD
 70
    -2
  9
$DIMLWE
 70
    -2
  9
$DIMTMOVE
 70
     0
  9
$LUNITS
 70
     2
  9
$LUPREC
 70
     4
  9
$SKETCHINC
 40
0.1
  9
$FILLETRAD
 40
0.5
  9
$AUNITS
 70
     0
  9
$AUPREC
 70
     0
  9
$MENU
  1
.
  9
$ELEVATION
 40
0.0
  9
$PELEVATION
 40
0.0
  9
$THICKNESS
 40
0.0
  9
$LIMCHECK
 70
     0
  9
$CHAMFERA
 40
0.5
  9
$CHAMFERB
 40
0.5
  9
$CHAMFERC
 40
1.0
  9
$CHAMFERD
 40
0.0
  9
$SKPOLY
 70
     0
  9
$TDCREATE
 40
2454936.349406713
  9
$TDUCREATE
 40
2454936.307740046
  9
$TDUPDATE
 40
2454936.349406724
  9
$TDUUPDATE
 40
2454936.307740058
  9
$TDINDWG
 40
0.0000000116
  9
$TDUSRTIMER
 40
0.0000000116
  9
$USRTIMER
 70
     1
  9
$ANGBASE
 50
0.0
  9
$ANGDIR
 70
     0
  9
$PDMODE
 70
     0
  9
$PDSIZE
 40
0.0
  9
$PLINEWID
 40
0.0
  9
$SPLFRAME
 70
     0
  9
$SPLINETYPE
 70
     6
  9
$SPLINESEGS
 70
     8
  9
$HANDSEED
  5
4CA
  9
$SURFTAB1
 70
     6
  9
$SURFTAB2
 70
     6
  9
$SURFTYPE
 70
     6
  9
$SURFU
 70
     6
  9
$SURFV
 70
     6
  9
$UCSBASE
  2

  9
$UCSNAME
  2

  9
$UCSORG
 10
0.0
 20
0.0
 30
0.0
  9
$UCSXDIR
 10
1.0
 20
0.0
 30
0.0
  9
$UCSYDIR
 10
0.0
 20
1.0
 30
0.0
  9
$UCSORTHOREF
  2

  9
$UCSORTHOVIEW
 70
     0
  9
$UCSORGTOP
 10
0.0
 20
0.0
 30
0.0
  9
$UCSORGBOTTOM
 10
0.0
 20
0.0
 30
0.0
  9
$UCSORGLEFT
 10
0.0
 20
0.0
 30
0.0
  9
$UCSORGRIGHT
 10
0.0
 20
0.0
 30
0.0
  9
$UCSORGFRONT
 10
0.0
 20
0.0
 30
0.0
  9
$UCSORGBACK
 10
0.0
 20
0.0
 30
0.0
  9
$PUCSBASE
  2

  9
$PUCSNAME
  2

  9
$PUCSORG
 10
0.0
 20
0.0
 30
0.0
  9
$PUCSXDIR
 10
1.0
 20
0.0
 30
0.0
  9
$PUCSYDIR
 10
0.0
 20
1.0
 30
0.0
  9
$PUCSORTHOREF
  2

  9
$PUCSORTHOVIEW
 70
     0
  9
$PUCSORGTOP
 10
0.0
 20
0.0
 30
0.0
  9
$PUCSORGBOTTOM
 10
0.0
 20
0.0
 30
0.0
  9
$PUCSORGLEFT
 10
0.0
 20
0.0
 30
0.0
  9
$PUCSORGRIGHT
 10
0.0
 20
0.0
 30
0.0
  9
$PUCSORGFRONT
 10
0.0
 20
0.0
 30
0.0
  9
$PUCSORGBACK
 10
0.0
 20
0.0
 30
0.0
  9
$USERI1
 70
     0
  9
$USERI2
 70
     0
  9
$USERI3
 70
     0
  9
$USERI4
 70
     0
  9
$USERI5
 70
     0
  9
$USERR1
 40
0.0
  9
$USERR2
 40
0.0
  9
$USERR3
 40
0.0
  9
$USERR4
 40
0.0
  9
$USERR5
 40
0.0
  9
$WORLDVIEW
 70
     1
  9
$SHADEDGE
 70
     3
  9
$SHADEDIF
 70
    70
  9
$TILEMODE
 70
     1
  9
$MAXACTVP
 70
    64
  9
$PINSBASE
 10
0.0
 20
0.0
 30
0.0
  9
$PLIMCHECK
 70
     0
  9
$PEXTMIN
 10
0.0
 20
0.0
 30
0.0
  9
$PEXTMAX
 10
594.0
 20
420.0
 30
0.0
  9
$PLIMMIN
 10
0.0
 20
0.0
  9
$PLIMMAX
 10
594.0
 20
420.0
  9
$UNITMODE
 70
     0
  9
$VISRETAIN
 70
     1
  9
$PLINEGEN
 70
     0
  9
$PSLTSCALE
 70
     1
  9
$TREEDEPTH
 70
  3020
  9
$CMLSTYLE
  2
Standard
  9
$CMLJUST
 70
     0
  9
$CMLSCALE
 40
1.0
  9
$PROXYGRAPHICS
 70
     1
  9
$MEASUREMENT
 70
     1
  9
$CELWEIGHT
370
    -1
  9
$ENDCAPS
280
     0
  9
$JOINSTYLE
280
     0
  9
$LWDISPLAY
290
     0
  9
$INSUNITS
 70
     1
  9
$HYPERLINKBASE
  1

  9
$STYLESHEET
  1

  9
$XEDIT
290
     1
  9
$CEPSNTYPE
380
     0
  9
$PSTYLEMODE
290
     1
  9
$FINGERPRINTGUID
  2
{F10B02F8-B464-47F7-8A30-6A88679DFF90}
  9
$VERSIONGUID
  2
{FAEB1C32-E019-11D5-929B-00C0DF256EC4}
  9
$EXTNAMES
290
     1
  9
$PSVPSCALE
 40
0.0
  9
$OLESTARTUP
290
     0
  0
ENDSEC
  0
SECTION
  2
CLASSES
  0
CLASS
  1
ACDBDICTIONARYWDFLT
  2
AcDbDictionaryWithDefault
  3
ObjectDBX Classes
 90
        0
280
     0
281
     0
  0
CLASS
  1
ACDBPLACEHOLDER
  2
AcDbPlaceHolder
  3
ObjectDBX Classes
 90
        0
280
     0
281
     0
  0
CLASS
  1
LAYOUT
  2
AcDbLayout
  3
ObjectDBX Classes
 90
        0
280
     0
281
     0
  0
ENDSEC
  0
SECTION
  2
TABLES
  0
TABLE
  2
VPORT
  5
8
330
0
100
AcDbSymbolTable
 70
     1
  0
VPORT
  5
29
330
8
100
AcDbSymbolTableRecord
100
AcDbViewportTableRecord
  2
*Active
 70
     0
 10
0.0
 20
0.0
 11
1.0
 21
1.0
 12
10.4299065421
 22
4.5
 13
0.0
 23
0.0
 14
0.5
 24
0.5
 15
0.5
 25
0.5
 16
0.0
 26
0.0
 36
1.0
 17
0.0
 27
0.0
 37
0.0
 40
9.0
 41
1.9729729729
 42
50.0
 43
0.0
 44
0.0
 50
0.0
 51
0.0
 71
     0
 72
   100
 73
     1
 74
     3
 75
     0
 76
     0
 77
     0
 78
     0
281
     0
 65
     1
110
0.0
120
0.0
130
0.0
111
1.0
121
0.0
131
0.0
112
0.0
122
1.0
132
0.0
 79
     0
146
0.0
  0
ENDTAB
  0
TABLE
  2
LTYPE
  5
5
330
0
100
AcDbSymbolTable
 70
     3
  0
LTYPE
  5
14
330
5
100
AcDbSymbolTableRecord
100
AcDbLinetypeTableRecord
  2
ByBlock
 70
     0
  3

 72
    65
 73
     0
 40
0.0
  0
LTYPE
  5
15
330
5
100
AcDbSymbolTableRecord
100
AcDbLinetypeTableRecord
  2
ByLayer
 70
     0
  3

 72
    65
 73
     0
 40
0.0
  0
LTYPE
  5
16
330
5
100
AcDbSymbolTableRecord
100
AcDbLinetypeTableRecord
  2
Continuous
 70
     0
  3
Solid line
 72
    65
 73
     0
 40
0.0
  0
LTYPE
  5
5E
330
5
100
AcDbSymbolTableRecord
100
AcDbLinetypeTableRecord
  2
CENTER2
 70
     0
  3
___ _ ___ _ ___ _ ___ _ ___ _ ___ _ ___ _ ___ _
 72
    65
 73
     4
 40
1.125
 49
0.75
 74
     4
 75
     0
340
0
 46
0.0
 50
0.0
 44
0.0
 45
0.0
 49
-0.125
 74
     4
 75
     0
340
0
 46
0.0
 50
0.0
 44
0.0
 45
0.0
 49
0.125
 74
     4
 75
     0
340
0
 46
0.0
 50
0.0
 44
0.0
 45
0.0
 49
-0.125
 74
     4
 75
     0
340
0
 46
0.0
 50
0.0
 44
0.0
 45
0.0
  0
LTYPE
  5
A5
330
5
100
AcDbSymbolTableRecord
100
AcDbLinetypeTableRecord
  2
HIDDEN2
 70
     0
  3
_ _ _ _ _ _ _ _ _ _ _ _ _ _ _ _ _ _ _ _ _ _ _ _
 72
    65
 73
     2
 40
0.1875
 49
0.125
 74
     4
 75
     0
340
0
 46
0.0
 50
0.0
 44
0.0
 45
0.0
 49
-0.0625
 74
     4
 75
     0
340
0
 46
0.0
 50
0.0
 44
0.0
 45
0.0
  0
ENDTAB
  0
TABLE
  2
LAYER
  5
2
330
0
100
AcDbSymbolTable
 70
     6
  0
LAYER
  5
10
330
2
100
AcDbSymbolTableRecord
100
AcDbLayerTableRecord
  2
0
 70
     0
 62
     7
  6
Continuous
370
    -3
390
F
  0
LAYER
  5
2A
330
2
100
AcDbSymbolTableRecord
100
AcDbLayerTableRecord
  2
Default
 70
     0
 62
     7
  6
Continuous
370
    -3
390
F
  0
LAYER
  5
53
330
2
100
AcDbSymbolTableRecord
100
AcDbLayerTableRecord
  2
DV1_Default
 70
     0
 62
     7
  6
Continuous
370
    -3
390
F
  0
LAYER
  5
1AB
330
2
100
AcDbSymbolTableRecord
100
AcDbLayerTableRecord
  2
DV2_Default
 70
     0
 62
     7
  6
Continuous
370
    -3
390
F
  0
LAYER
  5
276
330
2
100
AcDbSymbolTableRecord
100
AcDbLayerTableRecord
  2
DV3_Default
 70
     0
 62
     7
  6
Continuous
370
    -3
390
F
  0
LAYER
  5
4B9
330
2
100
AcDbSymbolTableRecord
100
AcDbLayerTableRecord
  2
BORDER
 70
     0
 62
     7
  6
Continuous
370
    -3
390
F
  0
ENDTAB
  0
TABLE
  2
STYLE
  5
3
330
0
100
AcDbSymbolTable
 70
     3
  0
STYLE
  5
11
330
3
100
AcDbSymbolTableRecord
100
AcDbTextStyleTableRecord
  2
Standard
 70
     0
 40
0.0
 41
1.0
 50
0.0
 71
     0
 42
0.2
  3
txt
  4

  0
STYLE
  5
31
330
3
100
AcDbSymbolTableRecord
100
AcDbTextStyleTableRecord
  2
SEACAD_arial_ttf
 70
     0
 40
0.2
 41
1.0
 50
0.0
 71
     0
 42
0.2
  3
arial.ttf
  4

  0
STYLE
  5
32C
330
3
100
AcDbSymbolTableRecord
100
AcDbTextStyleTableRecord
  2
SEACAD_semeca1_ttf
 70
     0
 40
0.2
 41
1.0
 50
0.0
 71
     0
 42
0.2
  3
semeca1.ttf
  4

  0
ENDTAB
  0
TABLE
  2
VIEW
  5
6
330
0
100
AcDbSymbolTable
 70
     0
  0
ENDTAB
  0
TABLE
  2
UCS
  5
7
330
0
100
AcDbSymbolTable
 70
     0
  0
ENDTAB
  0
TABLE
  2
APPID
  5
9
330
0
100
AcDbSymbolTable
 70
     1
  0
APPID
  5
12
330
9
100
AcDbSymbolTableRecord
100
AcDbRegAppTableRecord
  2
ACAD
 70
     0
  0
ENDTAB
  0
TABLE
  2
DIMSTYLE
  5
A
330
0
100
AcDbSymbolTable
 70
     1
100
AcDbDimStyleTable
  0
DIMSTYLE
105
27
330
A
100
AcDbSymbolTableRecord
100
AcDbDimStyleTableRecord
  2
Standard
 70
     0
340
11
  0
ENDTAB
  0
TABLE
  2
BLOCK_RECORD
  5
1
330
0
100
AcDbSymbolTable
 70
    43
  0
BLOCK_RECORD
  5
1F
330
1
100
AcDbSymbolTableRecord
100
AcDbBlockTableRecord
  2
*Model_Space
340
22
  0
BLOCK_RECORD
  5
1B
330
1
100
AcDbSymbolTableRecord
100
AcDbBlockTableRecord
  2
*Paper_Space
340
1E
  0
BLOCK_RECORD
  5
2B
330
1
100
AcDbSymbolTableRecord
100
AcDbBlockTableRecord
  2
SEANNOT_GROUP
340
0
102
{BLKREFS
331
2C
102
}
  0
BLOCK_RECORD
  5
35
330
1
100
AcDbSymbolTableRecord
100
AcDbBlockTableRecord
  2
SEANNOT_GROUP1
340
0
102
{BLKREFS
331
36
102
}
  0
BLOCK_RECORD
  5
3F
330
1
100
AcDbSymbolTableRecord
100
AcDbBlockTableRecord
  2
SEANNOT_GROUP2
340
0
102
{BLKREFS
331
40
102
}
  0
BLOCK_RECORD
  5
48
330
1
100
AcDbSymbolTableRecord
100
AcDbBlockTableRecord
  2
SEANNOT_GROUP3
340
0
102
{BLKREFS
331
49
102
}
  0
BLOCK_RECORD
  5
51
330
1
100
AcDbSymbolTableRecord
100
AcDbBlockTableRecord
  2
SE
340
0
102
{BLKREFS
331
52
102
}
  0
BLOCK_RECORD
  5
1A9
330
1
100
AcDbSymbolTableRecord
100
AcDbBlockTableRecord
  2
SE1
340
0
102
{BLKREFS
331
1AA
102
}
  0
BLOCK_RECORD
  5
274
330
1
100
AcDbSymbolTableRecord
100
AcDbBlockTableRecord
  2
SE2
340
0
102
{BLKREFS
331
275
102
}
  0
BLOCK_RECORD
  5
316
330
1
100
AcDbSymbolTableRecord
100
AcDbBlockTableRecord
  2
GDimGGroup
340
0
102
{BLKREFS
331
317
102
}
  0
BLOCK_RECORD
  5
322
330
1
100
AcDbSymbolTableRecord
100
AcDbBlockTableRecord
  2
GDimGGroup1
340
0
102
{BLKREFS
331
323
102
}
  0
BLOCK_RECORD
  5
330
330
1
100
AcDbSymbolTableRecord
100
AcDbBlockTableRecord
  2
GDimGGroup2
340
0
102
{BLKREFS
331
331
102
}
  0
BLOCK_RECORD
  5
33C
330
1
100
AcDbSymbolTableRecord
100
AcDbBlockTableRecord
  2
GDimGGroup3
340
0
102
{BLKREFS
331
33D
102
}
  0
BLOCK_RECORD
  5
347
330
1
100
AcDbSymbolTableRecord
100
AcDbBlockTableRecord
  2
GDimGGroup4
340
0
102
{BLKREFS
331
348
102
}
  0
BLOCK_RECORD
  5
353
330
1
100
AcDbSymbolTableRecord
100
AcDbBlockTableRecord
  2
GDimGGroup5
340
0
102
{BLKREFS
331
354
102
}
  0
BLOCK_RECORD
  5
35F
330
1
100
AcDbSymbolTableRecord
100
AcDbBlockTableRecord
  2
GDimGGroup6
340
0
102
{BLKREFS
331
360
102
}
  0
BLOCK_RECORD
  5
36B
330
1
100
AcDbSymbolTableRecord
100
AcDbBlockTableRecord
  2
GDimGGroup7
340
0
102
{BLKREFS
331
36C
102
}
  0
BLOCK_RECORD
  5
375
330
1
100
AcDbSymbolTableRecord
100
AcDbBlockTableRecord
  2
GDimGGroup8
340
0
102
{BLKREFS
331
376
102
}
  0
BLOCK_RECORD
  5
37F
330
1
100
AcDbSymbolTableRecord
100
AcDbBlockTableRecord
  2
GDimGGroup9
340
0
102
{BLKREFS
331
380
102
}
  0
BLOCK_RECORD
  5
38B
330
1
100
AcDbSymbolTableRecord
100
AcDbBlockTableRecord
  2
GDimGGroup10
340
0
102
{BLKREFS
331
38C
102
}
  0
BLOCK_RECORD
  5
397
330
1
100
AcDbSymbolTableRecord
100
AcDbBlockTableRecord
  2
GDimGGroup11
340
0
102
{BLKREFS
331
398
102
}
  0
BLOCK_RECORD
  5
3A3
330
1
100
AcDbSymbolTableRecord
100
AcDbBlockTableRecord
  2
GDimGGroup12
340
0
102
{BLKREFS
331
3A4
102
}
  0
BLOCK_RECORD
  5
3B0
330
1
100
AcDbSymbolTableRecord
100
AcDbBlockTableRecord
  2
GDimGGroup13
340
0
102
{BLKREFS
331
3B1
102
}
  0
BLOCK_RECORD
  5
3BC
330
1
100
AcDbSymbolTableRecord
100
AcDbBlockTableRecord
  2
GDimGGroup14
340
0
102
{BLKREFS
331
3BD
102
}
  0
BLOCK_RECORD
  5
3C8
330
1
100
AcDbSymbolTableRecord
100
AcDbBlockTableRecord
  2
GDimGGroup15
340
0
102
{BLKREFS
331
3C9
102
}
  0
BLOCK_RECORD
  5
3D5
330
1
100
AcDbSymbolTableRecord
100
AcDbBlockTableRecord
  2
GDimGGroup16
340
0
102
{BLKREFS
331
3D6
102
}
  0
BLOCK_RECORD
  5
3E0
330
1
100
AcDbSymbolTableRecord
100
AcDbBlockTableRecord
  2
GDimGGroup17
340
0
102
{BLKREFS
331
3E1
102
}
  0
BLOCK_RECORD
  5
3EB
330
1
100
AcDbSymbolTableRecord
100
AcDbBlockTableRecord
  2
GDimGGroup18
340
0
102
{BLKREFS
331
3EC
102
}
  0
BLOCK_RECORD
  5
3F6
330
1
100
AcDbSymbolTableRecord
100
AcDbBlockTableRecord
  2
GDimGGroup19
340
0
102
{BLKREFS
331
3F7
102
}
  0
BLOCK_RECORD
  5
403
330
1
100
AcDbSymbolTableRecord
100
AcDbBlockTableRecord
  2
GDimGGroup20
340
0
102
{BLKREFS
331
404
102
}
  0
BLOCK_RECORD
  5
410
330
1
100
AcDbSymbolTableRecord
100
AcDbBlockTableRecord
  2
GDimGGroup21
340
0
102
{BLKREFS
331
411
102
}
  0
BLOCK_RECORD
  5
41C
330
1
100
AcDbSymbolTableRecord
100
AcDbBlockTableRecord
  2
GDimGGroup22
340
0
102
{BLKREFS
331
41D
102
}
  0
BLOCK_RECORD
  5
428
330
1
100
AcDbSymbolTableRecord
100
AcDbBlockTableRecord
  2
GDimGGroup23
340
0
102
{BLKREFS
331
429
102
}
  0
BLOCK_RECORD
  5
432
330
1
100
AcDbSymbolTableRecord
100
AcDbBlockTableRecord
  2
GDimGGroup24
340
0
102
{BLKREFS
331
433
102
}
  0
BLOCK_RECORD
  5
43D
330
1
100
AcDbSymbolTableRecord
100
AcDbBlockTableRecord
  2
GDimGGroup25
340
0
102
{BLKREFS
331
43E
102
}
  0
BLOCK_RECORD
  5
447
330
1
100
AcDbSymbolTableRecord
100
AcDbBlockTableRecord
  2
GDimGGroup26
340
0
102
{BLKREFS
331
448
102
}
  0
BLOCK_RECORD
  5
455
330
1
100
AcDbSymbolTableRecord
100
AcDbBlockTableRecord
  2
GDimGGroup27
340
0
102
{BLKREFS
331
456
102
}
  0
BLOCK_RECORD
  5
463
330
1
100
AcDbSymbolTableRecord
100
AcDbBlockTableRecord
  2
GDimGGroup28
340
0
102
{BLKREFS
331
464
102
}
  0
BLOCK_RECORD
  5
46F
330
1
100
AcDbSymbolTableRecord
100
AcDbBlockTableRecord
  2
GDimGGroup29
340
0
102
{BLKREFS
331
470
102
}
  0
BLOCK_RECORD
  5
47B
330
1
100
AcDbSymbolTableRecord
100
AcDbBlockTableRecord
  2
GDimGGroup30
340
0
102
{BLKREFS
331
47C
102
}
  0
BLOCK_RECORD
  5
487
330
1
100
AcDbSymbolTableRecord
100
AcDbBlockTableRecord
  2
GDimGGroup31
340
0
102
{BLKREFS
331
488
102
}
  0
BLOCK_RECORD
  5
493
330
1
100
AcDbSymbolTableRecord
100
AcDbBlockTableRecord
  2
GDimGGroup32
340
0
102
{BLKREFS
331
494
102
}
  0
BLOCK_RECORD
  5
49F
330
1
100
AcDbSymbolTableRecord
100
AcDbBlockTableRecord
  2
GDimGGroup33
340
0
102
{BLKREFS
331
4A0
102
}
  0
BLOCK_RECORD
  5
4AD
330
1
100
AcDbSymbolTableRecord
100
AcDbBlockTableRecord
  2
GDimGGroup34
340
0
102
{BLKREFS
331
4AE
102
}
  0
ENDTAB
  0
ENDSEC
  0
SECTION
  2
BLOCKS
  0
BLOCK
  5
20
330
1F
100
AcDbEntity
  8
0
100
AcDbBlockBegin
  2
*Model_Space
 70
     0
 71
     0
 10
0.0
 20
0.0
 30
0.0
  3
*Model_Space
  1

  0
ENDBLK
  5
21
330
1F
100
AcDbEntity
  8
0
100
AcDbBlockEnd
  0
BLOCK
  5
1C
330
1B
100
AcDbEntity
 67
     1
  8
0
100
AcDbBlockBegin
  2
*Paper_Space
 70
     0
 71
     0
 10
0.0
 20
0.0
 30
0.0
  3
*Paper_Space
  1

  0
ENDBLK
  5
1D
330
1B
100
AcDbEntity
 67
     1
  8
0
100
AcDbBlockEnd
  0
BLOCK
  5
33
330
2B
100
AcDbEntity
  8
0
100
AcDbBlockBegin
  2
SEANNOT_GROUP
 70
     0
 71
     0
 10
0.0
 20
0.0
 30
0.0
  3
SEANNOT_GROUP
  1

  0
LWPOLYLINE
  5
2D
330
2B
100
AcDbEntity
  8
Default
  6
Continuous
 62
     7
 48
25.4
100
AcDbPolyline
 90
        2
 70
     0
 43
0.0
 10
112.8104010086
 20
218.7859279954
 10
128.1949936836
 20
240.1148224036
  0
HATCH
  5
2E
330
2B
100
AcDbEntity
  8
Default
  6
Continuous
 62
     7
 48
25.4
100
AcDbHatch
 10
0.0
 20
0.0
 30
0.0
210
0.0
220
0.0
230
1.0
  2
SOLID
 70
     1
 71
     0
 91
        1
 92
        1
 93
        3
 72
     1
 10
126.3956805787729
 20
236.4806899958508
 11
128.1949936836015
 21
240.1148224036443
 72
     1
 10
128.1949936836015
 20
240.1148224036443
 11
125.3143032089387
 21
237.2606905924327
 72
     1
 10
125.3143032089387
 20
237.2606905924327
 11
126.3956805787729
 21
236.4806899958508
 97
        0
 75
     0
 76
     1
 98
        0
  0
LWPOLYLINE
  5
2F
330
2B
100
AcDbEntity
  8
Default
  6
Continuous
 62
     7
 48
25.4
370
    20
100
AcDbPolyline
 90
        4
 70
     1
 43
0.0
 10
126.3956805788
 20
236.4806899959
 10
128.1949936836
 20
240.1148224036
 10
125.3143032089
 20
237.2606905924
 10
126.3956805788
 20
236.4806899959
  0
LINE
  5
30
330
2B
100
AcDbEntity
  8
Default
  6
Continuous
 62
     7
 48
25.4
100
AcDbLine
 10
112.8104010086
 20
218.7859279954
 30
0.0
 11
93.139581971
 21
218.7859279954
 31
0.0
  0
TEXT
  5
32
330
2B
100
AcDbEntity
  8
Default
  6
Continuous
 62
     7
 48
25.4
100
AcDbText
 10
93.139581971
 20
219.7859279954
 30
0.0
 40
4.0
  1
6 - M12
  7
SEACAD_arial_ttf
 11
93.139581971
 21
223.7859279954
 31
0.0
100
AcDbText
 73
     3
  0
ENDBLK
  5
34
330
2B
100
AcDbEntity
  8
0
100
AcDbBlockEnd
  0
BLOCK
  5
3D
330
35
100
AcDbEntity
  8
0
100
AcDbBlockBegin
  2
SEANNOT_GROUP1
 70
     0
 71
     0
 10
0.0
 20
0.0
 30
0.0
  3
SEANNOT_GROUP1
  1

  0
LWPOLYLINE
  5
37
330
35
100
AcDbEntity
  8
Default
  6
Continuous
 62
     7
 48
25.4
100
AcDbPolyline
 90
        2
 70
     0
 43
0.0
 10
259.5333061303
 20
395.6264377819
 10
217.4323299061
 20
373.2210875194
  0
HATCH
  5
38
330
35
100
AcDbEntity
  8
Default
  6
Continuous
 62
     7
 48
25.4
100
AcDbHatch
 10
0.0
 20
0.0
 30
0.0
210
0.0
220
0.0
230
1.0
  2
SOLID
 70
     1
 71
     0
 91
        1
 92
        1
 93
        3
 72
     1
 10
220.6502320892249
 20
375.6887891922938
 11
217.4323299061292
 21
373.2210875193578
 72
     1
 10
217.4323299061292
 20
373.2210875193578
 11
221.2766271083881
 21
374.5117559614013
 72
     1
 10
221.2766271083881
 20
374.5117559614013
 11
220.6502320892249
 21
375.6887891922938
 97
        0
 75
     0
 76
     1
 98
        0
  0
LWPOLYLINE
  5
39
330
35
100
AcDbEntity
  8
Default
  6
Continuous
 62
     7
 48
25.4
370
    20
100
AcDbPolyline
 90
        4
 70
     1
 43
0.0
 10
220.6502320892
 20
375.6887891923
 10
217.4323299061
 20
373.2210875194
 10
221.2766271084
 20
374.5117559614
 10
220.6502320892
 20
375.6887891923
  0
LINE
  5
3A
330
35
100
AcDbEntity
  8
Default
  6
Continuous
 62
     7
 48
25.4
100
AcDbLine
 10
259.5333061303
 20
395.6264377819
 30
0.0
 11
331.3738858405
 21
395.6264377819
 31
0.0
  0
TEXT
  5
3B
330
35
100
AcDbEntity
  8
Default
  6
Continuous
 62
     7
 48
25.4
100
AcDbText
 10
259.5333061303
 20
396.6264377819
 30
0.0
 40
4.0
  1
SERRATION PITCH 1.5X60
  7
SEACAD_arial_ttf
 11
259.5333061303
 21
400.6264377819
 31
0.0
100
AcDbText
 73
     3
  0
TEXT
  5
3C
330
35
100
AcDbEntity
  8
Default
  6
Continuous
 62
     7
 48
25.4
100
AcDbText
 10
329.7072191738
 20
396.6264377819
 30
0.0
 40
4.0
  1
°
  7
SEACAD_arial_ttf
 11
329.7072191738
 21
400.6264377819
 31
0.0
100
AcDbText
 73
     3
  0
ENDBLK
  5
3E
330
35
100
AcDbEntity
  8
0
100
AcDbBlockEnd
  0
BLOCK
  5
46
330
3F
100
AcDbEntity
  8
0
100
AcDbBlockBegin
  2
SEANNOT_GROUP2
 70
     0
 71
     0
 10
0.0
 20
0.0
 30
0.0
  3
SEANNOT_GROUP2
  1

  0
LWPOLYLINE
  5
41
330
3F
100
AcDbEntity
  8
Default
  6
Continuous
 62
     7
 48
25.4
100
AcDbPolyline
 90
        2
 70
     0
 43
0.0
 10
366.4044971112
 20
354.229030121
 10
379.5128082231
 20
330.0351351316
  0
HATCH
  5
42
330
3F
100
AcDbEntity
  8
Default
  6
Continuous
 62
     7
 48
25.4
100
AcDbHatch
 10
0.0
 20
0.0
 30
0.0
210
0.0
220
0.0
230
1.0
  2
SOLID
 70
     1
 71
     0
 91
        1
 92
        1
 93
        3
 72
     1
 10
377.0211450434171
 20
333.2345195420302
 11
379.5128082231081
 21
330.0351351316232
 72
     1
 10
379.5128082231081
 20
330.0351351316231
 11
378.1934677267757
 21
333.8696868213673
 72
     1
 10
378.1934677267756
 20
333.8696868213673
 11
377.0211450434171
 21
333.2345195420301
 97
        0
 75
     0
 76
     1
 98
        0
  0
LWPOLYLINE
  5
43
330
3F
100
AcDbEntity
  8
Default
  6
Continuous
 62
     7
 48
25.4
370
    20
100
AcDbPolyline
 90
        4
 70
     1
 43
0.0
 10
377.0211450434
 20
333.234519542
 10
379.5128082231
 20
330.0351351316
 10
378.1934677268
 20
333.8696868214
 10
377.0211450434
 20
333.234519542
  0
LINE
  5
44
330
3F
100
AcDbEntity
  8
Default
  6
Continuous
 62
     7
 48
25.4
100
AcDbLine
 10
366.4044971112
 20
354.229030121
 30
0.0
 11
353.7088449373
 21
354.229030121
 31
0.0
  0
TEXT
  5
45
330
3F
100
AcDbEntity
  8
Default
  6
Continuous
 62
     7
 48
25.4
100
AcDbText
 10
353.7088449373
 20
355.229030121
 30
0.0
 40
4.0
  1
3-M6
  7
SEACAD_arial_ttf
 11
353.7088449373
 21
359.229030121
 31
0.0
100
AcDbText
 73
     3
  0
ENDBLK
  5
47
330
3F
100
AcDbEntity
  8
0
100
AcDbBlockEnd
  0
BLOCK
  5
4F
330
48
100
AcDbEntity
  8
0
100
AcDbBlockBegin
  2
SEANNOT_GROUP3
 70
     0
 71
     0
 10
0.0
 20
0.0
 30
0.0
  3
SEANNOT_GROUP3
  1

  0
LWPOLYLINE
  5
4A
330
48
100
AcDbEntity
  8
Default
  6
Continuous
 62
     7
 48
25.4
100
AcDbPolyline
 90
        2
 70
     0
 43
0.0
 10
32.2075081231
 20
267.2429141527
 10
57.5029122566
 20
290.3958786858
  0
HATCH
  5
4B
330
48
100
AcDbEntity
  8
Default
  6
Continuous
 62
     7
 48
25.4
100
AcDbHatch
 10
0.0
 20
0.0
 30
0.0
210
0.0
220
0.0
230
1.0
  2
SOLID
 70
     1
 71
     0
 91
        1
 92
        1
 93
        3
 72
     1
 10
55.00241106324357
 20
287.2033969257229
 11
57.50291225664162
 21
290.3958786857957
 72
     1
 10
57.50291225664162
 20
290.3958786857958
 11
54.10217380016038
 21
288.1869368673695
 72
     1
 10
54.10217380016038
 20
288.1869368673695
 11
55.00241106324357
 21
287.2033969257229
 97
        0
 75
     0
 76
     1
 98
        0
  0
LWPOLYLINE
  5
4C
330
48
100
AcDbEntity
  8
Default
  6
Continuous
 62
     7
 48
25.4
370
    20
100
AcDbPolyline
 90
        4
 70
     1
 43
0.0
 10
55.0024110632
 20
287.2033969257
 10
57.5029122566
 20
290.3958786858
 10
54.1021738002
 20
288.1869368674
 10
55.0024110632
 20
287.2033969257
  0
LINE
  5
4D
330
48
100
AcDbEntity
  8
Default
  6
Continuous
 62
     7
 48
25.4
100
AcDbLine
 10
32.2075081231
 20
267.2429141527
 30
0.0
 11
9.9466385578
 21
267.2429141527
 31
0.0
  0
TEXT
  5
4E
330
48
100
AcDbEntity
  8
Default
  6
Continuous
 62
     7
 48
25.4
100
AcDbText
 10
9.9466385578
 20
268.2429141527
 30
0.0
 40
4.0
  1
M20X2.5
  7
SEACAD_arial_ttf
 11
9.9466385578
 21
272.2429141527
 31
0.0
100
AcDbText
 73
     3
  0
ENDBLK
  5
50
330
48
100
AcDbEntity
  8
0
100
AcDbBlockEnd
  0
BLOCK
  5
1A7
330
51
100
AcDbEntity
  8
0
100
AcDbBlockBegin
  2
SE
 70
     0
 71
     0
 10
0.0
 20
0.0
 30
0.0
  3
SE
  1

  0
LINE
  5
54
330
51
100
AcDbEntity
  8
DV1_Default
  6
Continuous
 62
     7
 48
25.4
100
AcDbLine
 10
201.3946214222
 20
253.0358786858
 30
0.0
 11
201.3946214222
 21
237.0358786858
 31
0.0
  0
LINE
  5
55
330
51
100
AcDbEntity
  8
DV1_Default
  6
Continuous
 62
     7
 48
25.4
100
AcDbLine
 10
201.3946214222
 20
253.0358786858
 30
0.0
 11
213.3977488953
 21
253.0358786858
 31
0.0
  0
LINE
  5
56
330
51
100
AcDbEntity
  8
DV1_Default
  6
Continuous
 62
     7
 48
25.4
100
AcDbLine
 10
201.3946214222
 20
237.0358786858
 30
0.0
 11
213.3977488953
 21
237.0358786858
 31
0.0
  0
LINE
  5
57
330
51
100
AcDbEntity
  8
DV1_Default
  6
Continuous
 62
     7
 48
25.4
100
AcDbLine
 10
201.3946214222
 20
252.0924234786
 30
0.0
 11
210.5327412069
 21
252.0924234786
 31
0.0
  0
LINE
  5
58
330
51
100
AcDbEntity
  8
DV1_Default
  6
Continuous
 62
     7
 48
25.4
100
AcDbLine
 10
201.3946214222
 20
237.8358786858
 30
0.0
 11
210.5327412069
 21
237.8358786858
 31
0.0
  0
LINE
  5
59
330
51
100
AcDbEntity
  8
DV1_Default
  6
Continuous
 62
     7
 48
25.4
100
AcDbLine
 10
210.9946214222
 20
238.6358786858
 30
0.0
 11
210.9946214222
 21
251.2924234786
 31
0.0
  0
LINE
  5
5A
330
51
100
AcDbEntity
  8
DV1_Default
  6
Continuous
 62
     7
 48
25.4
100
AcDbLine
 10
210.5327412069
 20
237.8358786858
 30
0.0
 11
210.9946214222
 21
238.6358786858
 31
0.0
  0
LINE
  5
5B
330
51
100
AcDbEntity
  8
DV1_Default
  6
Continuous
 62
     7
 48
25.4
100
AcDbLine
 10
210.5327412069
 20
252.0924234786
 30
0.0
 11
210.9946214222
 21
251.2924234786
 31
0.0
  0
LINE
  5
5C
330
51
100
AcDbEntity
  8
DV1_Default
  6
Continuous
 62
     7
 48
25.4
100
AcDbLine
 10
210.5327412069
 20
252.0924234786
 30
0.0
 11
210.5327412069
 21
237.8358786858
 31
0.0
  0
LINE
  5
5D
330
51
100
AcDbEntity
  8
DV1_Default
  6
Continuous
 62
     7
 48
25.4
100
AcDbLine
 10
146.9977488953
 20
214.3958786858
 30
0.0
 11
211.7977488953
 21
214.3958786858
 31
0.0
  0
LINE
  5
5F
330
51
100
AcDbEntity
  8
DV1_Default
  6
CENTER2
 62
     7
 48
25.4
100
AcDbLine
 10
31.8594701777
 20
298.3958786858
 30
0.0
 11
268.2847785993
 21
298.3958786858
 31
0.0
  0
LINE
  5
60
330
51
100
AcDbEntity
  8
DV1_Default
  6
Continuous
 62
     7
 48
25.4
100
AcDbLine
 10
145.3977488953
 20
215.9958786858
 30
0.0
 11
145.3977488953
 21
230.3958786858
 31
0.0
  0
LINE
  5
61
330
51
100
AcDbEntity
  8
DV1_Default
  6
Continuous
 62
     7
 48
25.4
100
AcDbLine
 10
216.5977488953
 20
383.1729368538
 30
0.0
 11
216.5977488953
 21
322.8454092782
 31
0.0
  0
LINE
  5
62
330
51
100
AcDbEntity
  8
DV1_Default
  6
Continuous
 62
     7
 48
25.4
100
AcDbLine
 10
218.5977488953
 20
307.9958786858
 30
0.0
 11
246.9977488953
 21
307.9958786858
 31
0.0
  0
LINE
  5
63
330
51
100
AcDbEntity
  8
DV1_Default
  6
Continuous
 62
     7
 48
25.4
100
AcDbLine
 10
246.9977488953
 20
307.9958786858
 30
0.0
 11
246.9977488953
 21
383.9958786858
 31
0.0
  0
LINE
  5
64
330
51
100
AcDbEntity
  8
DV1_Default
  6
Continuous
 62
     7
 48
25.4
100
AcDbLine
 10
246.9977488953
 20
383.9958786858
 30
0.0
 11
217.4206907273
 21
383.9958786858
 31
0.0
  0
ARC
  5
65
330
51
100
AcDbEntity
  8
DV1_Default
  6
Continuous
 62
     7
 48
25.4
100
AcDbCircle
 10
219.087223842
 20
325.1339388046
 30
0.0
 40
3.381545933929019
100
AcDbArc
 50
222.5917679133
 51
261.6772630227
  0
LINE
  5
66
330
51
100
AcDbEntity
  8
DV1_Default
  6
Continuous
 62
     7
 48
25.4
100
AcDbLine
 10
219.5180417946
 20
336.2588205178
 30
0.0
 11
219.5180417946
 21
377.3138724328
 31
0.0
  0
LINE
  5
67
330
51
100
AcDbEntity
  8
DV1_Default
  6
Continuous
 62
     7
 48
25.4
100
AcDbLine
 10
219.5180417946
 20
377.3138724328
 30
0.0
 11
217.4206907273
 21
377.3138724328
 31
0.0
  0
LINE
  5
68
330
51
100
AcDbEntity
  8
DV1_Default
  6
Continuous
 62
     7
 48
25.4
100
AcDbLine
 10
246.9977488953
 20
372.3958786858
 30
0.0
 11
228.5977488953
 21
372.3958786858
 31
0.0
  0
LINE
  5
69
330
51
100
AcDbEntity
  8
DV1_Default
  6
Continuous
 62
     7
 48
25.4
100
AcDbLine
 10
228.5977488953
 20
372.3958786858
 30
0.0
 11
228.5977488953
 21
357.1958786858
 31
0.0
  0
LINE
  5
6A
330
51
100
AcDbEntity
  8
DV1_Default
  6
Continuous
 62
     7
 48
25.4
100
AcDbLine
 10
228.5977488953
 20
357.1958786858
 30
0.0
 11
246.9977488953
 21
357.1958786858
 31
0.0
  0
LINE
  5
6B
330
51
100
AcDbEntity
  8
DV1_Default
  6
Continuous
 62
     7
 48
25.4
100
AcDbLine
 10
228.5977488953
 20
369.8012375794
 30
0.0
 11
219.5180417946
 21
369.8012375794
 31
0.0
  0
LINE
  5
6C
330
51
100
AcDbEntity
  8
DV1_Default
  6
Continuous
 62
     7
 48
25.4
100
AcDbLine
 10
219.5180417946
 20
359.4012375794
 30
0.0
 11
228.5977488953
 21
359.4012375794
 31
0.0
  0
LINE
  5
6D
330
51
100
AcDbEntity
  8
DV1_Default
  6
Continuous
 62
     7
 48
25.4
100
AcDbLine
 10
224.0578953449
 20
369.2223876515
 30
0.0
 11
219.5180417946
 21
369.2223876515
 31
0.0
  0
LINE
  5
6E
330
51
100
AcDbEntity
  8
DV1_Default
  6
Continuous
 62
     7
 48
25.4
100
AcDbLine
 10
224.0578953449
 20
360.03482778
 30
0.0
 11
219.5180417946
 21
360.03482778
 31
0.0
  0
LINE
  5
6F
330
51
100
AcDbEntity
  8
DV1_Default
  6
Continuous
 62
     7
 48
25.4
100
AcDbLine
 10
228.5977488953
 20
370.4473956343
 30
0.0
 11
220.5977488953
 21
370.4473956343
 31
0.0
  0
LINE
  5
70
330
51
100
AcDbEntity
  8
DV1_Default
  6
Continuous
 62
     7
 48
25.4
100
AcDbLine
 10
220.5977488953
 20
358.8098197971
 30
0.0
 11
228.5977488953
 21
358.8098197971
 31
0.0
  0
LINE
  5
71
330
51
100
AcDbEntity
  8
DV1_Default
  6
Continuous
 62
     7
 48
25.4
100
AcDbLine
 10
228.5977488953
 20
371.8319376655
 30
0.0
 11
235.9382668021
 21
371.8319376655
 31
0.0
  0
LINE
  5
72
330
51
100
AcDbEntity
  8
DV1_Default
  6
Continuous
 62
     7
 48
25.4
100
AcDbLine
 10
236.7382668021
 20
371.0319376655
 30
0.0
 11
236.7382668021
 21
358.5563974457
 31
0.0
  0
LINE
  5
73
330
51
100
AcDbEntity
  8
DV1_Default
  6
Continuous
 62
     7
 48
25.4
100
AcDbLine
 10
235.9382668021
 20
357.7563974457
 30
0.0
 11
228.5977488953
 21
357.7563974457
 31
0.0
  0
LINE
  5
74
330
51
100
AcDbEntity
  8
DV1_Default
  6
Continuous
 62
     7
 48
25.4
100
AcDbLine
 10
236.7382668021
 20
371.0319376655
 30
0.0
 11
235.9382668021
 21
371.8319376655
 31
0.0
  0
LINE
  5
75
330
51
100
AcDbEntity
  8
DV1_Default
  6
Continuous
 62
     7
 48
25.4
100
AcDbLine
 10
235.9382668021
 20
357.7563974457
 30
0.0
 11
236.7382668021
 21
358.5563974457
 31
0.0
  0
LINE
  5
76
330
51
100
AcDbEntity
  8
DV1_Default
  6
Continuous
 62
     7
 48
25.4
100
AcDbLine
 10
235.9382668021
 20
371.8319376655
 30
0.0
 11
235.9382668021
 21
357.7563974457
 31
0.0
  0
LINE
  5
77
330
51
100
AcDbEntity
  8
DV1_Default
  6
Continuous
 62
     7
 48
25.4
100
AcDbLine
 10
246.9977488953
 20
337.1958786858
 30
0.0
 11
228.5977488953
 21
337.1958786858
 31
0.0
  0
LINE
  5
78
330
51
100
AcDbEntity
  8
DV1_Default
  6
Continuous
 62
     7
 48
25.4
100
AcDbLine
 10
228.5977488953
 20
337.1958786858
 30
0.0
 11
228.5977488953
 21
352.3958786858
 31
0.0
  0
LINE
  5
79
330
51
100
AcDbEntity
  8
DV1_Default
  6
Continuous
 62
     7
 48
25.4
100
AcDbLine
 10
228.5977488953
 20
352.3958786858
 30
0.0
 11
246.9977488953
 21
352.3958786858
 31
0.0
  0
LINE
  5
7A
330
51
100
AcDbEntity
  8
DV1_Default
  6
Continuous
 62
     7
 48
25.4
100
AcDbLine
 10
228.5977488953
 20
339.7905197922
 30
0.0
 11
219.5180417946
 21
339.7905197922
 31
0.0
  0
LINE
  5
7B
330
51
100
AcDbEntity
  8
DV1_Default
  6
Continuous
 62
     7
 48
25.4
100
AcDbLine
 10
219.5180417946
 20
350.1905197922
 30
0.0
 11
228.5977488953
 21
350.1905197922
 31
0.0
  0
LINE
  5
7C
330
51
100
AcDbEntity
  8
DV1_Default
  6
Continuous
 62
     7
 48
25.4
100
AcDbLine
 10
224.0578953449
 20
340.3693697201
 30
0.0
 11
219.5180417946
 21
340.3693697201
 31
0.0
  0
LINE
  5
7D
330
51
100
AcDbEntity
  8
DV1_Default
  6
Continuous
 62
     7
 48
25.4
100
AcDbLine
 10
224.0578953449
 20
349.5569295916
 30
0.0
 11
219.5180417946
 21
349.5569295916
 31
0.0
  0
LINE
  5
7E
330
51
100
AcDbEntity
  8
DV1_Default
  6
Continuous
 62
     7
 48
25.4
100
AcDbLine
 10
228.5977488953
 20
339.1443617373
 30
0.0
 11
220.5977488953
 21
339.1443617373
 31
0.0
  0
LINE
  5
7F
330
51
100
AcDbEntity
  8
DV1_Default
  6
Continuous
 62
     7
 48
25.4
100
AcDbLine
 10
220.5977488953
 20
350.7819375745
 30
0.0
 11
228.5977488953
 21
350.7819375745
 31
0.0
  0
LINE
  5
80
330
51
100
AcDbEntity
  8
DV1_Default
  6
Continuous
 62
     7
 48
25.4
100
AcDbLine
 10
228.5977488953
 20
337.7598197061
 30
0.0
 11
235.9382668021
 21
337.7598197061
 31
0.0
  0
LINE
  5
81
330
51
100
AcDbEntity
  8
DV1_Default
  6
Continuous
 62
     7
 48
25.4
100
AcDbLine
 10
236.7382668021
 20
338.5598197061
 30
0.0
 11
236.7382668021
 21
351.0353599259
 31
0.0
  0
LINE
  5
82
330
51
100
AcDbEntity
  8
DV1_Default
  6
Continuous
 62
     7
 48
25.4
100
AcDbLine
 10
235.9382668021
 20
351.8353599259
 30
0.0
 11
228.5977488953
 21
351.8353599259
 31
0.0
  0
LINE
  5
83
330
51
100
AcDbEntity
  8
DV1_Default
  6
Continuous
 62
     7
 48
25.4
100
AcDbLine
 10
236.7382668021
 20
338.5598197061
 30
0.0
 11
235.9382668021
 21
337.7598197061
 31
0.0
  0
LINE
  5
84
330
51
100
AcDbEntity
  8
DV1_Default
  6
Continuous
 62
     7
 48
25.4
100
AcDbLine
 10
235.9382668021
 20
351.8353599259
 30
0.0
 11
236.7382668021
 21
351.0353599259
 31
0.0
  0
LINE
  5
85
330
51
100
AcDbEntity
  8
DV1_Default
  6
Continuous
 62
     7
 48
25.4
100
AcDbLine
 10
235.9382668021
 20
337.7598197061
 30
0.0
 11
235.9382668021
 21
351.8353599259
 31
0.0
  0
LINE
  5
86
330
51
100
AcDbEntity
  8
DV1_Default
  6
Continuous
 62
     7
 48
25.4
100
AcDbLine
 10
145.3977488953
 20
380.7958786858
 30
0.0
 11
146.9977488953
 21
382.3958786858
 31
0.0
  0
LINE
  5
87
330
51
100
AcDbEntity
  8
DV1_Default
  6
Continuous
 62
     7
 48
25.4
100
AcDbLine
 10
211.7977488953
 20
382.3958786858
 30
0.0
 11
213.3977488953
 21
380.7958786858
 31
0.0
  0
LINE
  5
88
330
51
100
AcDbEntity
  8
DV1_Default
  6
Continuous
 62
     7
 48
25.4
100
AcDbLine
 10
146.9977488953
 20
214.3958786858
 30
0.0
 11
145.3977488953
 21
215.9958786858
 31
0.0
  0
LINE
  5
89
330
51
100
AcDbEntity
  8
DV1_Default
  6
Continuous
 62
     7
 48
25.4
100
AcDbLine
 10
211.7977488953
 20
214.3958786858
 30
0.0
 11
213.3977488953
 21
215.9958786858
 31
0.0
  0
LINE
  5
8A
330
51
100
AcDbEntity
  8
DV1_Default
  6
Continuous
 62
     7
 48
25.4
100
AcDbLine
 10
217.4206907273
 20
383.9958786858
 30
0.0
 11
216.5977488953
 21
383.1729368538
 31
0.0
  0
LINE
  5
8B
330
51
100
AcDbEntity
  8
DV1_Default
  6
Continuous
 62
     7
 48
25.4
100
AcDbLine
 10
148.5977488953
 20
230.3958786858
 30
0.0
 11
136.5977488953
 21
230.3958786858
 31
0.0
  0
LINE
  5
8C
330
51
100
AcDbEntity
  8
DV1_Default
  6
Continuous
 62
     7
 48
25.4
100
AcDbLine
 10
136.5977488953
 20
366.3958786858
 30
0.0
 11
148.5977488953
 21
366.3958786858
 31
0.0
  0
LINE
  5
8D
330
51
100
AcDbEntity
  8
DV1_Default
  6
Continuous
 62
     7
 48
25.4
100
AcDbLine
 10
135.7977488953
 20
365.5958786858
 30
0.0
 11
136.5977488953
 21
366.3958786858
 31
0.0
  0
LINE
  5
8E
330
51
100
AcDbEntity
  8
DV1_Default
  6
Continuous
 62
     7
 48
25.4
100
AcDbLine
 10
135.7977488953
 20
231.1958786858
 30
0.0
 11
136.5977488953
 21
230.3958786858
 31
0.0
  0
LINE
  5
8F
330
51
100
AcDbEntity
  8
DV1_Default
  6
Continuous
 62
     7
 48
25.4
100
AcDbLine
 10
140.6008236733
 20
362.2526931408
 30
0.0
 11
135.8008236733
 21
362.2526931408
 31
0.0
  0
LINE
  5
90
330
51
100
AcDbEntity
  8
DV1_Default
  6
Continuous
 62
     7
 48
25.4
100
AcDbLine
 10
140.6008236733
 20
359.7566931408
 30
0.0
 11
155.8008236733
 21
359.7566931408
 31
0.0
  0
LINE
  5
91
330
51
100
AcDbEntity
  8
DV1_Default
  6
Continuous
 62
     7
 48
25.4
100
AcDbLine
 10
155.8008236733
 20
359.7566931408
 30
0.0
 11
155.8008236733
 21
354.9566931408
 31
0.0
  0
LINE
  5
92
330
51
100
AcDbEntity
  8
DV1_Default
  6
Continuous
 62
     7
 48
25.4
100
AcDbLine
 10
155.8008236733
 20
354.9566931408
 30
0.0
 11
140.6008236733
 21
354.9566931408
 31
0.0
  0
LINE
  5
93
330
51
100
AcDbEntity
  8
DV1_Default
  6
Continuous
 62
     7
 48
25.4
100
AcDbLine
 10
140.6008236733
 20
359.4079497495
 30
0.0
 11
155.8008236733
 21
359.4079497495
 31
0.0
  0
LINE
  5
94
330
51
100
AcDbEntity
  8
DV1_Default
  6
Continuous
 62
     7
 48
25.4
100
AcDbLine
 10
140.6008236733
 20
355.2528402087
 30
0.0
 11
155.8008236733
 21
355.2528402087
 31
0.0
  0
LINE
  5
95
330
51
100
AcDbEntity
  8
DV1_Default
  6
Continuous
 62
     7
 48
25.4
100
AcDbLine
 10
140.6008236733
 20
361.7420359411
 30
0.0
 11
136.406791043
 21
361.7420359411
 31
0.0
  0
LINE
  5
96
330
51
100
AcDbEntity
  8
DV1_Default
  6
Continuous
 62
     7
 48
25.4
100
AcDbLine
 10
136.406791043
 20
352.9420359411
 30
0.0
 11
140.6008236733
 21
352.9420359411
 31
0.0
  0
LINE
  5
97
330
51
100
AcDbEntity
  8
DV1_Default
  6
Continuous
 62
     7
 48
25.4
100
AcDbLine
 10
136.1758509353
 20
361.3420359411
 30
0.0
 11
136.1758509353
 21
353.3420359411
 31
0.0
  0
LINE
  5
98
330
51
100
AcDbEntity
  8
DV1_Default
  6
Continuous
 62
     7
 48
25.4
100
AcDbLine
 10
136.406791043
 20
361.7420359411
 30
0.0
 11
136.1758509353
 21
361.3420359411
 31
0.0
  0
LINE
  5
99
330
51
100
AcDbEntity
  8
DV1_Default
  6
Continuous
 62
     7
 48
25.4
100
AcDbLine
 10
136.406791043
 20
352.9420359411
 30
0.0
 11
136.1758509353
 21
353.3420359411
 31
0.0
  0
LINE
  5
9A
330
51
100
AcDbEntity
  8
DV1_Default
  6
Continuous
 62
     7
 48
25.4
100
AcDbLine
 10
136.406791043
 20
361.7420359411
 30
0.0
 11
136.406791043
 21
352.9420359411
 31
0.0
  0
LINE
  5
9B
330
51
100
AcDbEntity
  8
DV1_Default
  6
Continuous
 62
     7
 48
25.4
100
AcDbLine
 10
140.6008236733
 20
362.2526931408
 30
0.0
 11
140.6008236733
 21
352.4602454662
 31
0.0
  0
LINE
  5
9C
330
51
100
AcDbEntity
  8
DV1_Default
  6
Continuous
 62
     7
 48
25.4
100
AcDbLine
 10
140.6008236733
 20
352.4602454662
 30
0.0
 11
135.8008236733
 21
352.4602454662
 31
0.0
  0
LINE
  5
9D
330
51
100
AcDbEntity
  8
DV1_Default
  6
Continuous
 62
     7
 48
25.4
100
AcDbLine
 10
135.8008236733
 20
362.2526931408
 30
0.0
 11
135.8008236733
 21
352.4602454662
 31
0.0
  0
LINE
  5
9E
330
51
100
AcDbEntity
  8
DV1_Default
  6
Continuous
 62
     7
 48
25.4
100
AcDbLine
 10
140.6008236733
 20
354.5544308061
 30
0.0
 11
149.3977488953
 21
354.5544308061
 31
0.0
  0
LINE
  5
9F
330
51
100
AcDbEntity
  8
DV1_Default
  6
Continuous
 62
     7
 48
25.4
100
AcDbLine
 10
140.6009302052
 20
359.0499943583
 30
0.0
 11
149.3977488953
 21
359.0499943583
 31
0.0
  0
LINE
  5
A0
330
51
100
AcDbEntity
  8
DV1_Default
  6
Continuous
 62
     7
 48
25.4
100
AcDbLine
 10
224.0578953449
 20
369.8012375794
 30
0.0
 11
224.0578953449
 21
359.4012375794
 31
0.0
  0
LINE
  5
A1
330
51
100
AcDbEntity
  8
DV1_Default
  6
Continuous
 62
     7
 48
25.4
100
AcDbLine
 10
220.5977488953
 20
359.4012375794
 30
0.0
 11
220.5977488953
 21
350.1905197922
 31
0.0
  0
LINE
  5
A2
330
51
100
AcDbEntity
  8
DV1_Default
  6
Continuous
 62
     7
 48
25.4
100
AcDbLine
 10
224.0578953449
 20
350.1905197922
 30
0.0
 11
224.0578953449
 21
339.7905197922
 31
0.0
  0
LINE
  5
A3
330
51
100
AcDbEntity
  8
DV1_Default
  6
Continuous
 62
     7
 48
25.4
100
AcDbLine
 10
220.5977488953
 20
339.4034357572
 30
0.0
 11
220.5977488953
 21
307.9958786858
 31
0.0
  0
LINE
  5
A4
330
51
100
AcDbEntity
  8
DV1_Default
  6
Continuous
 62
     7
 48
25.4
100
AcDbLine
 10
146.9977488953
 20
382.3958786858
 30
0.0
 11
174.2821490559
 21
382.3958786858
 31
0.0
  0
LINE
  5
A6
330
51
100
AcDbEntity
  8
DV1_Default
  6
HIDDEN2
 62
     7
 48
25.4
100
AcDbLine
 10
174.2821490559
 20
382.3958786858
 30
0.0
 11
211.7977488953
 21
382.3958786858
 31
0.0
  0
LINE
  5
A7
330
51
100
AcDbEntity
  8
DV1_Default
  6
Continuous
 62
     7
 48
25.4
100
AcDbLine
 10
217.4206907273
 20
383.9958786858
 30
0.0
 11
217.4206907273
 21
322.1444920671
 31
0.0
  0
LINE
  5
A8
330
51
100
AcDbEntity
  8
DV1_Default
  6
Continuous
 62
     7
 48
25.4
100
AcDbLine
 10
217.4206907273
 20
383.1729368538
 30
0.0
 11
174.2821490559
 21
383.1729368538
 31
0.0
  0
LINE
  5
A9
330
51
100
AcDbEntity
  8
DV1_Default
  6
Continuous
 62
     7
 48
25.4
100
AcDbLine
 10
174.2821490559
 20
383.1729368538
 30
0.0
 11
174.2821490559
 21
377.5958786858
 31
0.0
  0
LINE
  5
AA
330
51
100
AcDbEntity
  8
DV1_Default
  6
Continuous
 62
     7
 48
25.4
100
AcDbLine
 10
148.5977488953
 20
230.3958786858
 30
0.0
 11
149.3977488953
 21
231.1958786858
 31
0.0
  0
LINE
  5
AB
330
51
100
AcDbEntity
  8
DV1_Default
  6
Continuous
 62
     7
 48
25.4
100
AcDbLine
 10
149.3977488953
 20
365.5958786858
 30
0.0
 11
148.5977488953
 21
366.3958786858
 31
0.0
  0
LINE
  5
AC
330
51
100
AcDbEntity
  8
DV1_Default
  6
Continuous
 62
     7
 48
25.4
100
AcDbLine
 10
213.3977488953
 20
263.1168792707
 30
0.0
 11
208.9977488953
 21
263.1168792707
 31
0.0
  0
LINE
  5
AD
330
51
100
AcDbEntity
  8
DV1_Default
  6
Continuous
 62
     7
 48
25.4
100
AcDbLine
 10
208.9977488953
 20
263.1168792707
 30
0.0
 11
208.9977488953
 21
255.1168792707
 31
0.0
  0
LINE
  5
AE
330
51
100
AcDbEntity
  8
DV1_Default
  6
Continuous
 62
     7
 48
25.4
100
AcDbLine
 10
208.9977488953
 20
255.1168792707
 30
0.0
 11
213.3977488953
 21
255.1168792707
 31
0.0
  0
LINE
  5
AF
330
51
100
AcDbEntity
  8
DV1_Default
  6
Continuous
 62
     7
 48
25.4
100
AcDbLine
 10
212.1977488953
 20
262.5168792707
 30
0.0
 11
208.9977488953
 21
262.5168792707
 31
0.0
  0
LINE
  5
B0
330
51
100
AcDbEntity
  8
DV1_Default
  6
Continuous
 62
     7
 48
25.4
100
AcDbLine
 10
212.5977488953
 20
262.1168792707
 30
0.0
 11
212.5977488953
 21
256.1168792707
 31
0.0
  0
LINE
  5
B1
330
51
100
AcDbEntity
  8
DV1_Default
  6
Continuous
 62
     7
 48
25.4
100
AcDbLine
 10
212.1977488953
 20
255.7168792707
 30
0.0
 11
208.9977488953
 21
255.7168792707
 31
0.0
  0
LINE
  5
B2
330
51
100
AcDbEntity
  8
DV1_Default
  6
Continuous
 62
     7
 48
25.4
100
AcDbLine
 10
212.1977488953
 20
262.5168792707
 30
0.0
 11
212.5977488953
 21
262.1168792707
 31
0.0
  0
LINE
  5
B3
330
51
100
AcDbEntity
  8
DV1_Default
  6
Continuous
 62
     7
 48
25.4
100
AcDbLine
 10
212.1977488953
 20
255.7168792707
 30
0.0
 11
212.5977488953
 21
256.1168792707
 31
0.0
  0
LINE
  5
B4
330
51
100
AcDbEntity
  8
DV1_Default
  6
Continuous
 62
     7
 48
25.4
100
AcDbLine
 10
212.1977488953
 20
262.5168792707
 30
0.0
 11
212.1977488953
 21
255.7168792707
 31
0.0
  0
LINE
  5
B5
330
51
100
AcDbEntity
  8
DV1_Default
  6
Continuous
 62
     7
 48
25.4
100
AcDbLine
 10
213.3977488953
 20
254.2358786858
 30
0.0
 11
206.1977488953
 21
254.2358786858
 31
0.0
  0
LINE
  5
B6
330
51
100
AcDbEntity
  8
DV1_Default
  6
Continuous
 62
     7
 48
25.4
100
AcDbLine
 10
206.1977488953
 20
256.8199067684
 30
0.0
 11
208.9977488953
 21
256.8199067684
 31
0.0
  0
LINE
  5
B7
330
51
100
AcDbEntity
  8
DV1_Default
  6
Continuous
 62
     7
 48
25.4
100
AcDbLine
 10
206.1977488953
 20
261.3848050943
 30
0.0
 11
208.9977488953
 21
261.3848050943
 31
0.0
  0
LINE
  5
B8
330
51
100
AcDbEntity
  8
DV1_Default
  6
Continuous
 62
     7
 48
25.4
100
AcDbLine
 10
208.9977488953
 20
257.1112543686
 30
0.0
 11
199.3977488953
 21
257.1112543686
 31
0.0
  0
LINE
  5
B9
330
51
100
AcDbEntity
  8
DV1_Default
  6
Continuous
 62
     7
 48
25.4
100
AcDbLine
 10
199.3977488953
 20
257.1112543686
 30
0.0
 11
199.3977488953
 21
261.1112543686
 31
0.0
  0
LINE
  5
BA
330
51
100
AcDbEntity
  8
DV1_Default
  6
Continuous
 62
     7
 48
25.4
100
AcDbLine
 10
199.3977488953
 20
257.3805083172
 30
0.0
 11
208.9977488953
 21
257.3805083172
 31
0.0
  0
LINE
  5
BB
330
51
100
AcDbEntity
  8
DV1_Default
  6
Continuous
 62
     7
 48
25.4
100
AcDbLine
 10
199.3977488953
 20
260.8642465133
 30
0.0
 11
208.9977488953
 21
260.8642465133
 31
0.0
  0
LINE
  5
BC
330
51
100
AcDbEntity
  8
DV1_Default
  6
Continuous
 62
     7
 48
25.4
100
AcDbLine
 10
199.3977488953
 20
261.1112543686
 30
0.0
 11
208.9977488953
 21
261.1112543686
 31
0.0
  0
LINE
  5
BD
330
51
100
AcDbEntity
  8
DV1_Default
  6
Continuous
 62
     7
 48
25.4
100
AcDbLine
 10
206.1977488953
 20
254.2358786858
 30
0.0
 11
206.1977488953
 21
257.3805083172
 31
0.0
  0
LINE
  5
BE
330
51
100
AcDbEntity
  8
DV1_Default
  6
Continuous
 62
     7
 48
25.4
100
AcDbLine
 10
213.3977488953
 20
288.3958786858
 30
0.0
 11
185.7977488953
 21
288.3958786858
 31
0.0
  0
LINE
  5
BF
330
51
100
AcDbEntity
  8
DV1_Default
  6
Continuous
 62
     7
 48
25.4
100
AcDbLine
 10
181.3977488953
 20
298.3958786858
 30
0.0
 11
181.3977488953
 21
283.1958786858
 31
0.0
  0
LINE
  5
C0
330
51
100
AcDbEntity
  8
DV1_Default
  6
Continuous
 62
     7
 48
25.4
100
AcDbLine
 10
181.3977488953
 20
283.1958786858
 30
0.0
 11
149.3977488953
 21
283.1958786858
 31
0.0
  0
LINE
  5
C1
330
51
100
AcDbEntity
  8
DV1_Default
  6
Continuous
 62
     7
 48
25.4
100
AcDbLine
 10
149.3977488953
 20
283.1958786858
 30
0.0
 11
66.1977488953
 21
283.1958786858
 31
0.0
  0
LINE
  5
C2
330
51
100
AcDbEntity
  8
DV1_Default
  6
Continuous
 62
     7
 48
25.4
100
AcDbLine
 10
64.5977488953
 20
284.7958786858
 30
0.0
 11
64.5977488953
 21
291.3844584476
 31
0.0
  0
LINE
  5
C3
330
51
100
AcDbEntity
  8
DV1_Default
  6
Continuous
 62
     7
 48
25.4
100
AcDbLine
 10
181.3977488953
 20
298.3958786858
 30
0.0
 11
181.3977488953
 21
286.3958786858
 31
0.0
  0
LINE
  5
C4
330
51
100
AcDbEntity
  8
DV1_Default
  6
Continuous
 62
     7
 48
25.4
100
AcDbLine
 10
121.1356456449
 20
287.1958786858
 30
0.0
 11
105.9356456449
 21
287.1958786858
 31
0.0
  0
LINE
  5
C5
330
51
100
AcDbEntity
  8
DV1_Default
  6
Continuous
 62
     7
 48
25.4
100
AcDbLine
 10
181.3977488953
 20
286.3958786858
 30
0.0
 11
105.9356456449
 21
286.3958786858
 31
0.0
  0
LINE
  5
C6
330
51
100
AcDbEntity
  8
DV1_Default
  6
Continuous
 62
     7
 48
25.4
100
AcDbLine
 10
105.9356456449
 20
286.3958786858
 30
0.0
 11
105.9356456449
 21
298.3958786858
 31
0.0
  0
LINE
  5
C7
330
51
100
AcDbEntity
  8
DV1_Default
  6
Continuous
 62
     7
 48
25.4
100
AcDbLine
 10
121.9356456449
 20
287.9958786858
 30
0.0
 11
121.9356456449
 21
298.3958786858
 31
0.0
  0
LINE
  5
C8
330
51
100
AcDbEntity
  8
DV1_Default
  6
Continuous
 62
     7
 48
25.4
100
AcDbLine
 10
121.1356456449
 20
287.1958786858
 30
0.0
 11
121.9356456449
 21
287.9958786858
 31
0.0
  0
LINE
  5
C9
330
51
100
AcDbEntity
  8
DV1_Default
  6
Continuous
 62
     7
 48
25.4
100
AcDbLine
 10
121.1356456449
 20
287.1958786858
 30
0.0
 11
121.1356456449
 21
298.3958786858
 31
0.0
  0
LINE
  5
CA
330
51
100
AcDbEntity
  8
DV1_Default
  6
Continuous
 62
     7
 48
25.4
100
AcDbLine
 10
84.5977488953
 20
288.0644584476
 30
0.0
 11
84.5977488953
 21
291.3844584476
 31
0.0
  0
LINE
  5
CB
330
51
100
AcDbEntity
  8
DV1_Default
  6
Continuous
 62
     7
 48
25.4
100
AcDbLine
 10
105.9356456449
 20
290.3958786858
 30
0.0
 11
64.5977488953
 21
290.3958786858
 31
0.0
  0
LINE
  5
CC
330
51
100
AcDbEntity
  8
DV1_Default
  6
Continuous
 62
     7
 48
25.4
100
AcDbLine
 10
64.5977488953
 20
290.3958786858
 30
0.0
 11
37.3977488953
 21
290.3958786858
 31
0.0
  0
LINE
  5
CD
330
51
100
AcDbEntity
  8
DV1_Default
  6
Continuous
 62
     7
 48
25.4
100
AcDbLine
 10
35.7977488953
 20
291.9958786858
 30
0.0
 11
35.7977488953
 21
298.3958786858
 31
0.0
  0
LINE
  5
CE
330
51
100
AcDbEntity
  8
DV1_Default
  6
Continuous
 62
     7
 48
25.4
100
AcDbLine
 10
37.3977488953
 20
290.3958786858
 30
0.0
 11
35.7977488953
 21
291.9958786858
 31
0.0
  0
LINE
  5
CF
330
51
100
AcDbEntity
  8
DV1_Default
  6
Continuous
 62
     7
 48
25.4
100
AcDbLine
 10
37.3977488953
 20
290.3958786858
 30
0.0
 11
37.3977488953
 21
298.3958786858
 31
0.0
  0
LINE
  5
D0
330
51
100
AcDbEntity
  8
DV1_Default
  6
Continuous
 62
     7
 48
25.4
100
AcDbLine
 10
88.5672191607
 20
290.3958786858
 30
0.0
 11
88.5672191607
 21
298.3958786858
 31
0.0
  0
LINE
  5
D1
330
51
100
AcDbEntity
  8
DV1_Default
  6
Continuous
 62
     7
 48
25.4
100
AcDbLine
 10
37.3977488953
 20
291.3844584476
 30
0.0
 11
88.5672191607
 21
291.3844584476
 31
0.0
  0
LINE
  5
D2
330
51
100
AcDbEntity
  8
DV1_Default
  6
Continuous
 62
     7
 48
25.4
100
AcDbLine
 10
64.5977488953
 20
284.7958786858
 30
0.0
 11
66.1977488953
 21
283.1958786858
 31
0.0
  0
LINE
  5
D3
330
51
100
AcDbEntity
  8
DV1_Default
  6
Continuous
 62
     7
 48
25.4
100
AcDbLine
 10
37.3977488953
 20
291.3844584476
 30
0.0
 11
36.4091691334
 21
291.3844584476
 31
0.0
  0
LINE
  5
D4
330
51
100
AcDbEntity
  8
DV1_Default
  6
CENTER2
 62
     7
 48
25.4
100
AcDbLine
 10
81.5704779415
 20
286.1844584476
 30
0.0
 11
98.1499598372
 21
286.1844584476
 31
0.0
  0
CIRCLE
  5
D5
330
51
100
AcDbEntity
  8
DV1_Default
  6
Continuous
 62
     7
 48
25.4
100
AcDbCircle
 10
85.6417421466
 20
286.1844584476
 30
0.0
 40
1.88
  0
LINE
  5
D6
330
51
100
AcDbEntity
  8
DV1_Default
  6
Continuous
 62
     7
 48
25.4
100
AcDbLine
 10
84.5977488953
 20
288.0644584476
 30
0.0
 11
96.5977488953
 21
288.0644584476
 31
0.0
  0
LINE
  5
D7
330
51
100
AcDbEntity
  8
DV1_Default
  6
Continuous
 62
     7
 48
25.4
100
AcDbLine
 10
96.5977488953
 20
288.0644584476
 30
0.0
 11
97.6831674013
 21
286.1844584476
 31
0.0
  0
LINE
  5
D8
330
51
100
AcDbEntity
  8
DV1_Default
  6
Continuous
 62
     7
 48
25.4
100
AcDbLine
 10
97.6831674013
 20
286.1844584476
 30
0.0
 11
96.5977488953
 21
284.3044584476
 31
0.0
  0
LINE
  5
D9
330
51
100
AcDbEntity
  8
DV1_Default
  6
Continuous
 62
     7
 48
25.4
100
AcDbLine
 10
96.5977488953
 20
284.3044584476
 30
0.0
 11
84.5977488953
 21
284.3044584476
 31
0.0
  0
LINE
  5
DA
330
51
100
AcDbEntity
  8
DV1_Default
  6
Continuous
 62
     7
 48
25.4
100
AcDbLine
 10
96.5977488953
 20
288.0644584476
 30
0.0
 11
96.5977488953
 21
284.3044584476
 31
0.0
  0
LINE
  5
DB
330
51
100
AcDbEntity
  8
DV1_Default
  6
Continuous
 62
     7
 48
25.4
100
AcDbLine
 10
84.5977488953
 20
288.0644584476
 30
0.0
 11
83.4270142722
 21
286.1844584476
 31
0.0
  0
LINE
  5
DC
330
51
100
AcDbEntity
  8
DV1_Default
  6
Continuous
 62
     7
 48
25.4
100
AcDbLine
 10
83.4270142722
 20
286.1844584476
 30
0.0
 11
84.5977488953
 21
284.3044584476
 31
0.0
  0
LINE
  5
DD
330
51
100
AcDbEntity
  8
DV1_Default
  6
Continuous
 62
     7
 48
25.4
100
AcDbLine
 10
87.5217421466
 20
286.1844584476
 30
0.0
 11
87.5217421466
 21
287.7844584476
 31
0.0
  0
LINE
  5
DE
330
51
100
AcDbEntity
  8
DV1_Default
  6
Continuous
 62
     7
 48
25.4
100
AcDbLine
 10
87.5217421466
 20
286.1844584476
 30
0.0
 11
87.5217421466
 21
284.5844584476
 31
0.0
  0
LINE
  5
DF
330
51
100
AcDbEntity
  8
DV1_Default
  6
Continuous
 62
     7
 48
25.4
100
AcDbLine
 10
87.5217421466
 20
284.5844584476
 30
0.0
 11
88.3791795624
 21
287.7844584476
 31
0.0
  0
LINE
  5
E0
330
51
100
AcDbEntity
  8
DV1_Default
  6
Continuous
 62
     7
 48
25.4
100
AcDbLine
 10
88.3791795624
 20
287.7844584476
 30
0.0
 11
88.3791795624
 21
284.5844584476
 31
0.0
  0
LINE
  5
E1
330
51
100
AcDbEntity
  8
DV1_Default
  6
Continuous
 62
     7
 48
25.4
100
AcDbLine
 10
88.3791795624
 20
284.5844584476
 30
0.0
 11
89.2366169782
 21
287.7844584476
 31
0.0
  0
LINE
  5
E2
330
51
100
AcDbEntity
  8
DV1_Default
  6
Continuous
 62
     7
 48
25.4
100
AcDbLine
 10
89.2366169782
 20
287.7844584476
 30
0.0
 11
89.2366169782
 21
284.5844584476
 31
0.0
  0
LINE
  5
E3
330
51
100
AcDbEntity
  8
DV1_Default
  6
Continuous
 62
     7
 48
25.4
100
AcDbLine
 10
89.2366169782
 20
284.5844584476
 30
0.0
 11
90.094054394
 21
287.7844584476
 31
0.0
  0
LINE
  5
E4
330
51
100
AcDbEntity
  8
DV1_Default
  6
Continuous
 62
     7
 48
25.4
100
AcDbLine
 10
90.094054394
 20
287.7844584476
 30
0.0
 11
90.094054394
 21
284.5844584476
 31
0.0
  0
LINE
  5
E5
330
51
100
AcDbEntity
  8
DV1_Default
  6
Continuous
 62
     7
 48
25.4
100
AcDbLine
 10
90.094054394
 20
284.5844584476
 30
0.0
 11
90.9514918097
 21
287.7844584476
 31
0.0
  0
LINE
  5
E6
330
51
100
AcDbEntity
  8
DV1_Default
  6
Continuous
 62
     7
 48
25.4
100
AcDbLine
 10
90.9514918097
 20
287.7844584476
 30
0.0
 11
90.9514918097
 21
284.5844584476
 31
0.0
  0
LINE
  5
E7
330
51
100
AcDbEntity
  8
DV1_Default
  6
Continuous
 62
     7
 48
25.4
100
AcDbLine
 10
90.9514918097
 20
284.5844584476
 30
0.0
 11
91.8089292255
 21
287.7844584476
 31
0.0
  0
LINE
  5
E8
330
51
100
AcDbEntity
  8
DV1_Default
  6
Continuous
 62
     7
 48
25.4
100
AcDbLine
 10
91.8089292255
 20
287.7844584476
 30
0.0
 11
91.8089292255
 21
284.5844584476
 31
0.0
  0
LINE
  5
E9
330
51
100
AcDbEntity
  8
DV1_Default
  6
Continuous
 62
     7
 48
25.4
100
AcDbLine
 10
91.8089292255
 20
284.5844584476
 30
0.0
 11
92.6315540011
 21
287.6545359057
 31
0.0
  0
LINE
  5
EA
330
51
100
AcDbEntity
  8
DV1_Default
  6
Continuous
 62
     7
 48
25.4
100
AcDbLine
 10
92.6315540011
 20
287.6545359057
 30
0.0
 11
92.6315540011
 21
284.5844584476
 31
0.0
  0
LINE
  5
EB
330
51
100
AcDbEntity
  8
DV1_Default
  6
Continuous
 62
     7
 48
25.4
100
AcDbLine
 10
92.6315540011
 20
284.5844584476
 30
0.0
 11
93.4541787767
 21
287.6545359057
 31
0.0
  0
LINE
  5
EC
330
51
100
AcDbEntity
  8
DV1_Default
  6
Continuous
 62
     7
 48
25.4
100
AcDbLine
 10
93.4541787767
 20
287.6545359057
 30
0.0
 11
93.4541787767
 21
284.5844584476
 31
0.0
  0
LINE
  5
ED
330
51
100
AcDbEntity
  8
DV1_Default
  6
Continuous
 62
     7
 48
25.4
100
AcDbLine
 10
93.4541787767
 20
284.5844584476
 30
0.0
 11
94.2768035523
 21
287.6545359057
 31
0.0
  0
LINE
  5
EE
330
51
100
AcDbEntity
  8
DV1_Default
  6
Continuous
 62
     7
 48
25.4
100
AcDbLine
 10
94.2768035523
 20
287.6545359057
 30
0.0
 11
94.2768035523
 21
284.5844584476
 31
0.0
  0
LINE
  5
EF
330
51
100
AcDbEntity
  8
DV1_Default
  6
Continuous
 62
     7
 48
25.4
100
AcDbLine
 10
94.2768035523
 20
284.5844584476
 30
0.0
 11
95.0994283279
 21
287.6545359057
 31
0.0
  0
LINE
  5
F0
330
51
100
AcDbEntity
  8
DV1_Default
  6
Continuous
 62
     7
 48
25.4
100
AcDbLine
 10
95.0994283279
 20
287.6545359057
 30
0.0
 11
95.0994283279
 21
284.5844584476
 31
0.0
  0
LINE
  5
F1
330
51
100
AcDbEntity
  8
DV1_Default
  6
Continuous
 62
     7
 48
25.4
100
AcDbLine
 10
95.0994283279
 20
284.5844584476
 30
0.0
 11
95.9220531035
 21
287.6545359057
 31
0.0
  0
LINE
  5
F2
330
51
100
AcDbEntity
  8
DV1_Default
  6
Continuous
 62
     7
 48
25.4
100
AcDbLine
 10
95.9220531035
 20
287.6545359057
 30
0.0
 11
95.9220531035
 21
284.5844584476
 31
0.0
  0
LINE
  5
F3
330
51
100
AcDbEntity
  8
DV1_Default
  6
Continuous
 62
     7
 48
25.4
100
AcDbLine
 10
95.9220531035
 20
284.5844584476
 30
0.0
 11
96.5977488953
 21
287.6545359057
 31
0.0
  0
LINE
  5
F4
330
51
100
AcDbEntity
  8
DV1_Default
  6
Continuous
 62
     7
 48
25.4
100
AcDbLine
 10
72.1977488953
 20
283.1958786858
 30
0.0
 11
72.1977488953
 21
288.7958786858
 31
0.0
  0
LINE
  5
F5
330
51
100
AcDbEntity
  8
DV1_Default
  6
Continuous
 62
     7
 48
25.4
100
AcDbLine
 10
78.5977488953
 20
288.7958786858
 30
0.0
 11
78.5977488953
 21
283.1958786858
 31
0.0
  0
LINE
  5
F6
330
51
100
AcDbEntity
  8
DV1_Default
  6
Continuous
 62
     7
 48
25.4
100
AcDbLine
 10
72.9977488953
 20
288.7958786858
 30
0.0
 11
72.9977488953
 21
283.1958786858
 31
0.0
  0
LINE
  5
F7
330
51
100
AcDbEntity
  8
DV1_Default
  6
Continuous
 62
     7
 48
25.4
100
AcDbLine
 10
77.7977488953
 20
288.7958786858
 30
0.0
 11
77.7977488953
 21
283.1958786858
 31
0.0
  0
LINE
  5
F8
330
51
100
AcDbEntity
  8
DV1_Default
  6
Continuous
 62
     7
 48
25.4
100
AcDbLine
 10
72.1977488953
 20
288.7958786858
 30
0.0
 11
78.5977488953
 21
288.7958786858
 31
0.0
  0
LINE
  5
F9
330
51
100
AcDbEntity
  8
DV1_Default
  6
Continuous
 62
     7
 48
25.4
100
AcDbLine
 10
73.2431284235
 20
283.9958786858
 30
0.0
 11
77.5523693671
 21
283.9958786858
 31
0.0
  0
LINE
  5
FA
330
51
100
AcDbEntity
  8
DV1_Default
  6
Continuous
 62
     7
 48
25.4
100
AcDbLine
 10
73.2431284235
 20
283.9958786858
 30
0.0
 11
72.1977488953
 21
284.5994288378
 31
0.0
  0
LINE
  5
FB
330
51
100
AcDbEntity
  8
DV1_Default
  6
Continuous
 62
     7
 48
25.4
100
AcDbLine
 10
72.1977488953
 20
284.5994288378
 30
0.0
 11
78.5977488953
 21
284.5994288378
 31
0.0
  0
LINE
  5
FC
330
51
100
AcDbEntity
  8
DV1_Default
  6
Continuous
 62
     7
 48
25.4
100
AcDbLine
 10
78.5977488953
 20
284.5994288378
 30
0.0
 11
77.5523693671
 21
283.9958786858
 31
0.0
  0
LINE
  5
FD
330
51
100
AcDbEntity
  8
DV1_Default
  6
Continuous
 62
     7
 48
25.4
100
AcDbLine
 10
72.1977488953
 20
288.7958786858
 30
0.0
 11
73.7977488953
 21
290.3958786858
 31
0.0
  0
LINE
  5
FE
330
51
100
AcDbEntity
  8
DV1_Default
  6
Continuous
 62
     7
 48
25.4
100
AcDbLine
 10
78.5977488953
 20
288.7958786858
 30
0.0
 11
76.9977488953
 21
290.3958786858
 31
0.0
  0
LINE
  5
FF
330
51
100
AcDbEntity
  8
DV1_Default
  6
CENTER2
 62
     7
 48
25.4
100
AcDbLine
 10
75.3977488953
 20
282.4089740363
 30
0.0
 11
75.3977488953
 21
292.1769589145
 31
0.0
  0
LINE
  5
100
330
51
100
AcDbEntity
  8
DV1_Default
  6
Continuous
 62
     7
 48
25.4
100
AcDbLine
 10
208.5977488953
 20
263.5958005057
 30
0.0
 11
206.1977488953
 21
263.5958005057
 31
0.0
  0
LINE
  5
101
330
51
100
AcDbEntity
  8
DV1_Default
  6
Continuous
 62
     7
 48
25.4
100
AcDbLine
 10
208.5977488953
 20
285.9958786858
 30
0.0
 11
181.3977488953
 21
285.9958786858
 31
0.0
  0
ARC
  5
102
330
51
100
AcDbEntity
  8
DV1_Default
  6
Continuous
 62
     7
 48
25.4
100
AcDbCircle
 10
208.5977488953
 20
285.1958786858
 30
0.0
 40
0.8
100
AcDbArc
 50
0.0
 51
90.0
  0
LINE
  5
103
330
51
100
AcDbEntity
  8
DV1_Default
  6
Continuous
 62
     7
 48
25.4
100
AcDbLine
 10
205.3977488953
 20
263.9958786858
 30
0.0
 11
149.3977488953
 21
263.9958786858
 31
0.0
  0
LINE
  5
104
330
51
100
AcDbEntity
  8
DV1_Default
  6
CENTER2
 62
     7
 48
25.4
100
AcDbLine
 10
219.3875426438
 20
245.0358786858
 30
0.0
 11
116.0309685346
 21
245.0358786858
 31
0.0
  0
LINE
  5
105
330
51
100
AcDbEntity
  8
DV1_Default
  6
Continuous
 62
     7
 48
25.4
100
AcDbLine
 10
213.3977488953
 20
335.4358786858
 30
0.0
 11
213.3977488953
 21
215.9958786858
 31
0.0
  0
LINE
  5
106
330
51
100
AcDbEntity
  8
DV1_Default
  6
CENTER2
 62
     7
 48
25.4
100
AcDbLine
 10
196.5977491495
 20
259.1100612077
 30
0.0
 11
215.3977486411
 21
259.1180724316
 31
0.0
  0
LINE
  5
107
330
51
100
AcDbEntity
  8
DV1_Default
  6
Continuous
 62
     7
 48
25.4
100
AcDbLine
 10
206.1977488953
 20
285.9958786858
 30
0.0
 11
206.1977488953
 21
264.7958786858
 31
0.0
  0
ARC
  5
108
330
51
100
AcDbEntity
  8
DV1_Default
  6
Continuous
 62
     7
 48
25.4
100
AcDbCircle
 10
208.5977488953
 20
264.3958005057
 30
0.0
 40
0.8
100
AcDbArc
 50
270.0
 51
360.0
  0
LINE
  5
109
330
51
100
AcDbEntity
  8
DV1_Default
  6
Continuous
 62
     7
 48
25.4
100
AcDbLine
 10
121.3977488953
 20
240.1148224036
 30
0.0
 11
200.4906214222
 21
240.1148224036
 31
0.0
  0
LINE
  5
10A
330
51
100
AcDbEntity
  8
DV1_Default
  6
Continuous
 62
     7
 48
25.4
100
AcDbLine
 10
121.3977488953
 20
249.7148224036
 30
0.0
 11
200.4906214222
 21
249.7148224036
 31
0.0
  0
LINE
  5
10B
330
51
100
AcDbEntity
  8
DV1_Default
  6
Continuous
 62
     7
 48
25.4
100
AcDbLine
 10
149.3977488953
 20
239.5148224036
 30
0.0
 11
200.4906214222
 21
239.5148224036
 31
0.0
  0
LINE
  5
10C
330
51
100
AcDbEntity
  8
DV1_Default
  6
Continuous
 62
     7
 48
25.4
100
AcDbLine
 10
149.3977488953
 20
250.3148224036
 30
0.0
 11
200.4906214222
 21
250.3148224036
 31
0.0
  0
LINE
  5
10D
330
51
100
AcDbEntity
  8
DV1_Default
  6
Continuous
 62
     7
 48
25.4
100
AcDbLine
 10
155.6308770761
 20
249.7148224036
 30
0.0
 11
155.6308770761
 21
240.1148224036
 31
0.0
  0
LINE
  5
10E
330
51
100
AcDbEntity
  8
DV1_Default
  6
Continuous
 62
     7
 48
25.4
100
AcDbLine
 10
121.3977488953
 20
248.9148224036
 30
0.0
 11
155.6308770761
 21
248.9148224036
 31
0.0
  0
LINE
  5
10F
330
51
100
AcDbEntity
  8
DV1_Default
  6
Continuous
 62
     7
 48
25.4
100
AcDbLine
 10
121.3977488953
 20
240.9148224036
 30
0.0
 11
155.6308770761
 21
240.9148224036
 31
0.0
  0
LINE
  5
110
330
51
100
AcDbEntity
  8
DV1_Default
  6
Continuous
 62
     7
 48
25.4
100
AcDbLine
 10
200.4906214222
 20
250.3148224036
 30
0.0
 11
201.3946214222
 21
250.3148224036
 31
0.0
  0
LINE
  5
111
330
51
100
AcDbEntity
  8
DV1_Default
  6
Continuous
 62
     7
 48
25.4
100
AcDbLine
 10
200.4906214222
 20
249.7148224036
 30
0.0
 11
201.3946214222
 21
249.7148224036
 31
0.0
  0
LINE
  5
112
330
51
100
AcDbEntity
  8
DV1_Default
  6
Continuous
 62
     7
 48
25.4
100
AcDbLine
 10
200.4906214222
 20
240.1148224036
 30
0.0
 11
201.3946214222
 21
240.1148224036
 31
0.0
  0
LINE
  5
113
330
51
100
AcDbEntity
  8
DV1_Default
  6
Continuous
 62
     7
 48
25.4
100
AcDbLine
 10
200.4906214222
 20
239.5148224036
 30
0.0
 11
201.3946214222
 21
239.5148224036
 31
0.0
  0
ARC
  5
114
330
51
100
AcDbEntity
  8
DV1_Default
  6
Continuous
 62
     7
 48
25.4
100
AcDbCircle
 10
205.3977488953
 20
264.7958786858
 30
0.0
 40
0.8
100
AcDbArc
 50
270.0
 51
360.0
  0
LINE
  5
115
330
51
100
AcDbEntity
  8
DV1_Default
  6
Continuous
 62
     7
 48
25.4
100
AcDbLine
 10
206.1977488953
 20
264.7958786858
 30
0.0
 11
206.1977488953
 21
260.8642465133
 31
0.0
  0
LINE
  5
116
330
51
100
AcDbEntity
  8
DV1_Default
  6
Continuous
 62
     7
 48
25.4
100
AcDbLine
 10
209.3977488953
 20
285.1958786858
 30
0.0
 11
209.3977488953
 21
264.3958005057
 31
0.0
  0
ARC
  5
117
330
51
100
AcDbEntity
  8
DV1_Default
  6
Continuous
 62
     7
 48
25.4
100
AcDbCircle
 10
166.9890104876
 20
264.7958786858
 30
0.0
 40
0.8
100
AcDbArc
 50
180.0
 51
270.0
  0
ARC
  5
118
330
51
100
AcDbEntity
  8
DV1_Default
  6
Continuous
 62
     7
 48
25.4
100
AcDbCircle
 10
165.3890104876
 20
275.9958786858
 30
0.0
 40
0.8
100
AcDbArc
 50
0.0
 51
90.0
  0
LINE
  5
119
330
51
100
AcDbEntity
  8
DV1_Default
  6
Continuous
 62
     7
 48
25.4
100
AcDbLine
 10
161.3890104876
 20
277.5958786858
 30
0.0
 11
161.3890104876
 21
283.1958786858
 31
0.0
  0
LINE
  5
11A
330
51
100
AcDbEntity
  8
DV1_Default
  6
Continuous
 62
     7
 48
25.4
100
AcDbLine
 10
165.3890104876
 20
283.1958786858
 30
0.0
 11
165.3890104876
 21
277.5958786858
 31
0.0
  0
LINE
  5
11B
330
51
100
AcDbEntity
  8
DV1_Default
  6
Continuous
 62
     7
 48
25.4
100
AcDbLine
 10
161.7890104876
 20
277.5958786858
 30
0.0
 11
161.7890104876
 21
283.1958786858
 31
0.0
  0
LINE
  5
11C
330
51
100
AcDbEntity
  8
DV1_Default
  6
Continuous
 62
     7
 48
25.4
100
AcDbLine
 10
164.9890104876
 20
277.5958786858
 30
0.0
 11
164.9890104876
 21
283.1958786858
 31
0.0
  0
LINE
  5
11D
330
51
100
AcDbEntity
  8
DV1_Default
  6
Continuous
 62
     7
 48
25.4
100
AcDbLine
 10
161.3890104876
 20
282.3958786858
 30
0.0
 11
165.3890104876
 21
282.3958786858
 31
0.0
  0
LINE
  5
11E
330
51
100
AcDbEntity
  8
DV1_Default
  6
Continuous
 62
     7
 48
25.4
100
AcDbLine
 10
161.3890104876
 20
278.3958786858
 30
0.0
 11
165.3890104876
 21
278.3958786858
 31
0.0
  0
LINE
  5
11F
330
51
100
AcDbEntity
  8
DV1_Default
  6
Continuous
 62
     7
 48
25.4
100
AcDbLine
 10
161.3890104876
 20
282.3958786858
 30
0.0
 11
162.4682286747
 21
283.1958786858
 31
0.0
  0
LINE
  5
120
330
51
100
AcDbEntity
  8
DV1_Default
  6
Continuous
 62
     7
 48
25.4
100
AcDbLine
 10
164.3098286747
 20
283.1958786858
 30
0.0
 11
165.3890104876
 21
282.3958786858
 31
0.0
  0
LINE
  5
121
330
51
100
AcDbEntity
  8
DV1_Default
  6
Continuous
 62
     7
 48
25.4
100
AcDbLine
 10
161.3890104876
 20
278.3958786858
 30
0.0
 11
162.0818308107
 21
277.9958786858
 31
0.0
  0
LINE
  5
122
330
51
100
AcDbEntity
  8
DV1_Default
  6
Continuous
 62
     7
 48
25.4
100
AcDbLine
 10
165.3890104876
 20
278.3958786858
 30
0.0
 11
164.6961901646
 21
277.9958786858
 31
0.0
  0
LINE
  5
123
330
51
100
AcDbEntity
  8
DV1_Default
  6
Continuous
 62
     7
 48
25.4
100
AcDbLine
 10
164.6961901646
 20
277.9958786858
 30
0.0
 11
162.0818308107
 21
277.9958786858
 31
0.0
  0
LINE
  5
124
330
51
100
AcDbEntity
  8
DV1_Default
  6
Continuous
 62
     7
 48
25.4
100
AcDbLine
 10
157.7907418796
 20
283.1958786858
 30
0.0
 11
157.7907418796
 21
283.9958786858
 31
0.0
  0
LINE
  5
125
330
51
100
AcDbEntity
  8
DV1_Default
  6
Continuous
 62
     7
 48
25.4
100
AcDbLine
 10
181.3977488953
 20
283.1958786858
 30
0.0
 11
181.3977488953
 21
282.7958786858
 31
0.0
  0
LINE
  5
126
330
51
100
AcDbEntity
  8
DV1_Default
  6
Continuous
 62
     7
 48
25.4
100
AcDbLine
 10
181.3977488953
 20
282.7958786858
 30
0.0
 11
178.9977488953
 21
282.7958786858
 31
0.0
  0
LINE
  5
127
330
51
100
AcDbEntity
  8
DV1_Default
  6
Continuous
 62
     7
 48
25.4
100
AcDbLine
 10
178.9977488953
 20
282.7958786858
 30
0.0
 11
178.9977488953
 21
283.9958786858
 31
0.0
  0
LINE
  5
128
330
51
100
AcDbEntity
  8
DV1_Default
  6
Continuous
 62
     7
 48
25.4
100
AcDbLine
 10
160.5890104876
 20
277.5958786858
 30
0.0
 11
160.5890104876
 21
283.1958786858
 31
0.0
  0
ARC
  5
129
330
51
100
AcDbEntity
  8
DV1_Default
  6
Continuous
 62
     7
 48
25.4
100
AcDbCircle
 10
165.3890104876
 20
275.9958786858
 30
0.0
 40
0.8
100
AcDbArc
 50
0.0
 51
90.0
  0
LINE
  5
12A
330
51
100
AcDbEntity
  8
DV1_Default
  6
Continuous
 62
     7
 48
25.4
100
AcDbLine
 10
161.7890104876
 20
277.5958786858
 30
0.0
 11
161.7890104876
 21
283.1958786858
 31
0.0
  0
LINE
  5
12B
330
51
100
AcDbEntity
  8
DV1_Default
  6
Continuous
 62
     7
 48
25.4
100
AcDbLine
 10
161.3890104876
 20
278.3958786858
 30
0.0
 11
162.0818308107
 21
277.9958786858
 31
0.0
  0
LINE
  5
12C
330
51
100
AcDbEntity
  8
DV1_Default
  6
Continuous
 62
     7
 48
25.4
100
AcDbLine
 10
165.3890104876
 20
278.3958786858
 30
0.0
 11
164.6961901646
 21
277.9958786858
 31
0.0
  0
LINE
  5
12D
330
51
100
AcDbEntity
  8
DV1_Default
  6
Continuous
 62
     7
 48
25.4
100
AcDbLine
 10
157.7907418796
 20
283.1958786858
 30
0.0
 11
157.7907418796
 21
283.9958786858
 31
0.0
  0
LINE
  5
12E
330
51
100
AcDbEntity
  8
DV1_Default
  6
Continuous
 62
     7
 48
25.4
100
AcDbLine
 10
181.3977488953
 20
283.1958786858
 30
0.0
 11
181.3977488953
 21
282.7958786858
 31
0.0
  0
LINE
  5
12F
330
51
100
AcDbEntity
  8
DV1_Default
  6
Continuous
 62
     7
 48
25.4
100
AcDbLine
 10
181.3977488953
 20
282.7958786858
 30
0.0
 11
178.9977488953
 21
282.7958786858
 31
0.0
  0
LINE
  5
130
330
51
100
AcDbEntity
  8
DV1_Default
  6
Continuous
 62
     7
 48
25.4
100
AcDbLine
 10
178.9977488953
 20
282.7958786858
 30
0.0
 11
178.9977488953
 21
283.9958786858
 31
0.0
  0
LINE
  5
131
330
51
100
AcDbEntity
  8
DV1_Default
  6
Continuous
 62
     7
 48
25.4
100
AcDbLine
 10
160.5890104876
 20
277.5958786858
 30
0.0
 11
160.5890104876
 21
283.1958786858
 31
0.0
  0
ARC
  5
132
330
51
100
AcDbEntity
  8
DV1_Default
  6
Continuous
 62
     7
 48
25.4
100
AcDbCircle
 10
165.3890104876
 20
275.9958786858
 30
0.0
 40
0.8
100
AcDbArc
 50
0.0
 51
90.0
  0
LINE
  5
133
330
51
100
AcDbEntity
  8
DV1_Default
  6
Continuous
 62
     7
 48
25.4
100
AcDbLine
 10
161.7890104876
 20
277.5958786858
 30
0.0
 11
161.7890104876
 21
283.1958786858
 31
0.0
  0
LINE
  5
134
330
51
100
AcDbEntity
  8
DV1_Default
  6
Continuous
 62
     7
 48
25.4
100
AcDbLine
 10
161.3890104876
 20
278.3958786858
 30
0.0
 11
162.0818308107
 21
277.9958786858
 31
0.0
  0
LINE
  5
135
330
51
100
AcDbEntity
  8
DV1_Default
  6
Continuous
 62
     7
 48
25.4
100
AcDbLine
 10
165.3890104876
 20
278.3958786858
 30
0.0
 11
164.6961901646
 21
277.9958786858
 31
0.0
  0
LINE
  5
136
330
51
100
AcDbEntity
  8
DV1_Default
  6
Continuous
 62
     7
 48
25.4
100
AcDbLine
 10
157.7907418796
 20
283.1958786858
 30
0.0
 11
157.7907418796
 21
283.9958786858
 31
0.0
  0
LINE
  5
137
330
51
100
AcDbEntity
  8
DV1_Default
  6
Continuous
 62
     7
 48
25.4
100
AcDbLine
 10
181.3977488953
 20
283.1958786858
 30
0.0
 11
181.3977488953
 21
282.7958786858
 31
0.0
  0
LINE
  5
138
330
51
100
AcDbEntity
  8
DV1_Default
  6
Continuous
 62
     7
 48
25.4
100
AcDbLine
 10
181.3977488953
 20
282.7958786858
 30
0.0
 11
178.9977488953
 21
282.7958786858
 31
0.0
  0
LINE
  5
139
330
51
100
AcDbEntity
  8
DV1_Default
  6
Continuous
 62
     7
 48
25.4
100
AcDbLine
 10
178.9977488953
 20
282.7958786858
 30
0.0
 11
178.9977488953
 21
283.9958786858
 31
0.0
  0
LINE
  5
13A
330
51
100
AcDbEntity
  8
DV1_Default
  6
Continuous
 62
     7
 48
25.4
100
AcDbLine
 10
160.5890104876
 20
277.5958786858
 30
0.0
 11
160.5890104876
 21
283.1958786858
 31
0.0
  0
LINE
  5
13B
330
51
100
AcDbEntity
  8
DV1_Default
  6
Continuous
 62
     7
 48
25.4
100
AcDbLine
 10
166.1890104876
 20
275.9958786858
 30
0.0
 11
166.1890104876
 21
264.7958786858
 31
0.0
  0
LINE
  5
13C
330
51
100
AcDbEntity
  8
DV1_Default
  6
Continuous
 62
     7
 48
25.4
100
AcDbLine
 10
160.5890104876
 20
277.5958786858
 30
0.0
 11
161.3890104876
 21
276.7958786858
 31
0.0
  0
LINE
  5
13D
330
51
100
AcDbEntity
  8
DV1_Default
  6
Continuous
 62
     7
 48
25.4
100
AcDbLine
 10
157.7907418796
 20
283.9958786858
 30
0.0
 11
181.3977488953
 21
283.9958786858
 31
0.0
  0
LINE
  5
13E
330
51
100
AcDbEntity
  8
DV1_Default
  6
Continuous
 62
     7
 48
25.4
100
AcDbLine
 10
213.3977488953
 20
308.3958786858
 30
0.0
 11
185.7977488953
 21
308.3958786858
 31
0.0
  0
LINE
  5
13F
330
51
100
AcDbEntity
  8
DV1_Default
  6
Continuous
 62
     7
 48
25.4
100
AcDbLine
 10
181.3977488953
 20
298.3958786858
 30
0.0
 11
181.3977488953
 21
313.5958786858
 31
0.0
  0
LINE
  5
140
330
51
100
AcDbEntity
  8
DV1_Default
  6
Continuous
 62
     7
 48
25.4
100
AcDbLine
 10
181.3977488953
 20
313.5958786858
 30
0.0
 11
149.3977488953
 21
313.5958786858
 31
0.0
  0
LINE
  5
141
330
51
100
AcDbEntity
  8
DV1_Default
  6
Continuous
 62
     7
 48
25.4
100
AcDbLine
 10
149.3977488953
 20
313.5958786858
 30
0.0
 11
66.1977488953
 21
313.5958786858
 31
0.0
  0
LINE
  5
142
330
51
100
AcDbEntity
  8
DV1_Default
  6
Continuous
 62
     7
 48
25.4
100
AcDbLine
 10
64.5977488953
 20
311.9958786858
 30
0.0
 11
64.5977488953
 21
305.407298924
 31
0.0
  0
LINE
  5
143
330
51
100
AcDbEntity
  8
DV1_Default
  6
Continuous
 62
     7
 48
25.4
100
AcDbLine
 10
181.3977488953
 20
298.3958786858
 30
0.0
 11
181.3977488953
 21
310.3958786858
 31
0.0
  0
LINE
  5
144
330
51
100
AcDbEntity
  8
DV1_Default
  6
Continuous
 62
     7
 48
25.4
100
AcDbLine
 10
121.1356456449
 20
309.5958786858
 30
0.0
 11
105.9356456449
 21
309.5958786858
 31
0.0
  0
LINE
  5
145
330
51
100
AcDbEntity
  8
DV1_Default
  6
Continuous
 62
     7
 48
25.4
100
AcDbLine
 10
181.3977488953
 20
310.3958786858
 30
0.0
 11
105.9356456449
 21
310.3958786858
 31
0.0
  0
LINE
  5
146
330
51
100
AcDbEntity
  8
DV1_Default
  6
Continuous
 62
     7
 48
25.4
100
AcDbLine
 10
105.9356456449
 20
310.3958786858
 30
0.0
 11
105.9356456449
 21
298.3958786858
 31
0.0
  0
LINE
  5
147
330
51
100
AcDbEntity
  8
DV1_Default
  6
Continuous
 62
     7
 48
25.4
100
AcDbLine
 10
121.9356456449
 20
308.7958786858
 30
0.0
 11
121.9356456449
 21
298.3958786858
 31
0.0
  0
LINE
  5
148
330
51
100
AcDbEntity
  8
DV1_Default
  6
Continuous
 62
     7
 48
25.4
100
AcDbLine
 10
121.1356456449
 20
309.5958786858
 30
0.0
 11
121.9356456449
 21
308.7958786858
 31
0.0
  0
LINE
  5
149
330
51
100
AcDbEntity
  8
DV1_Default
  6
Continuous
 62
     7
 48
25.4
100
AcDbLine
 10
121.1356456449
 20
309.5958786858
 30
0.0
 11
121.1356456449
 21
298.3958786858
 31
0.0
  0
LINE
  5
14A
330
51
100
AcDbEntity
  8
DV1_Default
  6
Continuous
 62
     7
 48
25.4
100
AcDbLine
 10
105.9356456449
 20
306.3958786858
 30
0.0
 11
64.5977488953
 21
306.3958786858
 31
0.0
  0
LINE
  5
14B
330
51
100
AcDbEntity
  8
DV1_Default
  6
Continuous
 62
     7
 48
25.4
100
AcDbLine
 10
64.5977488953
 20
306.3958786858
 30
0.0
 11
37.3977488953
 21
306.3958786858
 31
0.0
  0
LINE
  5
14C
330
51
100
AcDbEntity
  8
DV1_Default
  6
Continuous
 62
     7
 48
25.4
100
AcDbLine
 10
35.7977488953
 20
304.7958786858
 30
0.0
 11
35.7977488953
 21
298.3958786858
 31
0.0
  0
LINE
  5
14D
330
51
100
AcDbEntity
  8
DV1_Default
  6
Continuous
 62
     7
 48
25.4
100
AcDbLine
 10
37.3977488953
 20
306.3958786858
 30
0.0
 11
35.7977488953
 21
304.7958786858
 31
0.0
  0
LINE
  5
14E
330
51
100
AcDbEntity
  8
DV1_Default
  6
Continuous
 62
     7
 48
25.4
100
AcDbLine
 10
37.3977488953
 20
306.3958786858
 30
0.0
 11
37.3977488953
 21
298.3958786858
 31
0.0
  0
LINE
  5
14F
330
51
100
AcDbEntity
  8
DV1_Default
  6
Continuous
 62
     7
 48
25.4
100
AcDbLine
 10
88.5672191607
 20
306.3958786858
 30
0.0
 11
88.5672191607
 21
298.3958786858
 31
0.0
  0
LINE
  5
150
330
51
100
AcDbEntity
  8
DV1_Default
  6
Continuous
 62
     7
 48
25.4
100
AcDbLine
 10
37.3977488953
 20
305.407298924
 30
0.0
 11
88.5672191607
 21
305.407298924
 31
0.0
  0
LINE
  5
151
330
51
100
AcDbEntity
  8
DV1_Default
  6
Continuous
 62
     7
 48
25.4
100
AcDbLine
 10
64.5977488953
 20
311.9958786858
 30
0.0
 11
66.1977488953
 21
313.5958786858
 31
0.0
  0
LINE
  5
152
330
51
100
AcDbEntity
  8
DV1_Default
  6
Continuous
 62
     7
 48
25.4
100
AcDbLine
 10
37.3977488953
 20
305.407298924
 30
0.0
 11
36.4091691334
 21
305.407298924
 31
0.0
  0
LINE
  5
153
330
51
100
AcDbEntity
  8
DV1_Default
  6
Continuous
 62
     7
 48
25.4
100
AcDbLine
 10
208.5977488953
 20
310.7958786858
 30
0.0
 11
181.3977488953
 21
310.7958786858
 31
0.0
  0
ARC
  5
154
330
51
100
AcDbEntity
  8
DV1_Default
  6
Continuous
 62
     7
 48
25.4
100
AcDbCircle
 10
208.5977488953
 20
311.5958786858
 30
0.0
 40
0.8
100
AcDbArc
 50
270.0
 51
360.0
  0
ARC
  5
155
330
51
100
AcDbEntity
  8
DV1_Default
  6
Continuous
 62
     7
 48
25.4
100
AcDbCircle
 10
165.3890104876
 20
320.7958786858
 30
0.0
 40
0.8
100
AcDbArc
 50
270.0
 51
360.0
  0
LINE
  5
156
330
51
100
AcDbEntity
  8
DV1_Default
  6
Continuous
 62
     7
 48
25.4
100
AcDbLine
 10
157.7907418796
 20
313.5958786858
 30
0.0
 11
157.7907418796
 21
312.7958786858
 31
0.0
  0
LINE
  5
157
330
51
100
AcDbEntity
  8
DV1_Default
  6
Continuous
 62
     7
 48
25.4
100
AcDbLine
 10
181.3977488953
 20
313.5958786858
 30
0.0
 11
181.3977488953
 21
313.9958786858
 31
0.0
  0
LINE
  5
158
330
51
100
AcDbEntity
  8
DV1_Default
  6
Continuous
 62
     7
 48
25.4
100
AcDbLine
 10
181.3977488953
 20
313.9958786858
 30
0.0
 11
178.9977488953
 21
313.9958786858
 31
0.0
  0
LINE
  5
159
330
51
100
AcDbEntity
  8
DV1_Default
  6
Continuous
 62
     7
 48
25.4
100
AcDbLine
 10
178.9977488953
 20
313.9958786858
 30
0.0
 11
178.9977488953
 21
312.7958786858
 31
0.0
  0
ARC
  5
15A
330
51
100
AcDbEntity
  8
DV1_Default
  6
Continuous
 62
     7
 48
25.4
100
AcDbCircle
 10
165.3890104876
 20
320.7958786858
 30
0.0
 40
0.8
100
AcDbArc
 50
270.0
 51
360.0
  0
LINE
  5
15B
330
51
100
AcDbEntity
  8
DV1_Default
  6
Continuous
 62
     7
 48
25.4
100
AcDbLine
 10
157.7907418796
 20
313.5958786858
 30
0.0
 11
157.7907418796
 21
312.7958786858
 31
0.0
  0
LINE
  5
15C
330
51
100
AcDbEntity
  8
DV1_Default
  6
Continuous
 62
     7
 48
25.4
100
AcDbLine
 10
181.3977488953
 20
313.5958786858
 30
0.0
 11
181.3977488953
 21
313.9958786858
 31
0.0
  0
LINE
  5
15D
330
51
100
AcDbEntity
  8
DV1_Default
  6
Continuous
 62
     7
 48
25.4
100
AcDbLine
 10
181.3977488953
 20
313.9958786858
 30
0.0
 11
178.9977488953
 21
313.9958786858
 31
0.0
  0
LINE
  5
15E
330
51
100
AcDbEntity
  8
DV1_Default
  6
Continuous
 62
     7
 48
25.4
100
AcDbLine
 10
178.9977488953
 20
313.9958786858
 30
0.0
 11
178.9977488953
 21
312.7958786858
 31
0.0
  0
ARC
  5
15F
330
51
100
AcDbEntity
  8
DV1_Default
  6
Continuous
 62
     7
 48
25.4
100
AcDbCircle
 10
165.3890104876
 20
320.7958786858
 30
0.0
 40
0.8
100
AcDbArc
 50
270.0
 51
360.0
  0
LINE
  5
160
330
51
100
AcDbEntity
  8
DV1_Default
  6
Continuous
 62
     7
 48
25.4
100
AcDbLine
 10
157.7907418796
 20
313.5958786858
 30
0.0
 11
157.7907418796
 21
312.7958786858
 31
0.0
  0
LINE
  5
161
330
51
100
AcDbEntity
  8
DV1_Default
  6
Continuous
 62
     7
 48
25.4
100
AcDbLine
 10
181.3977488953
 20
313.5958786858
 30
0.0
 11
181.3977488953
 21
313.9958786858
 31
0.0
  0
LINE
  5
162
330
51
100
AcDbEntity
  8
DV1_Default
  6
Continuous
 62
     7
 48
25.4
100
AcDbLine
 10
181.3977488953
 20
313.9958786858
 30
0.0
 11
178.9977488953
 21
313.9958786858
 31
0.0
  0
LINE
  5
163
330
51
100
AcDbEntity
  8
DV1_Default
  6
Continuous
 62
     7
 48
25.4
100
AcDbLine
 10
178.9977488953
 20
313.9958786858
 30
0.0
 11
178.9977488953
 21
312.7958786858
 31
0.0
  0
LINE
  5
164
330
51
100
AcDbEntity
  8
DV1_Default
  6
Continuous
 62
     7
 48
25.4
100
AcDbLine
 10
166.1890104876
 20
320.7958786858
 30
0.0
 11
166.1890104876
 21
331.9958786858
 31
0.0
  0
LINE
  5
165
330
51
100
AcDbEntity
  8
DV1_Default
  6
Continuous
 62
     7
 48
25.4
100
AcDbLine
 10
160.5890104876
 20
319.1958786858
 30
0.0
 11
161.3890104876
 21
319.9958786858
 31
0.0
  0
LINE
  5
166
330
51
100
AcDbEntity
  8
DV1_Default
  6
Continuous
 62
     7
 48
25.4
100
AcDbLine
 10
157.7907418796
 20
312.7958786858
 30
0.0
 11
181.3977488953
 21
312.7958786858
 31
0.0
  0
LINE
  5
167
330
51
100
AcDbEntity
  8
DV1_Default
  6
Continuous
 62
     7
 48
25.4
100
AcDbLine
 10
161.3890104876
 20
319.9958786858
 30
0.0
 11
165.3890104876
 21
319.9958786858
 31
0.0
  0
ARC
  5
168
330
51
100
AcDbEntity
  8
DV1_Default
  6
Continuous
 62
     7
 48
25.4
100
AcDbCircle
 10
166.9890104876
 20
331.9958786858
 30
0.0
 40
0.8
100
AcDbArc
 50
90.0
 51
180.0
  0
LINE
  5
169
330
51
100
AcDbEntity
  8
DV1_Default
  6
Continuous
 62
     7
 48
25.4
100
AcDbLine
 10
149.3977488953
 20
332.7958786858
 30
0.0
 11
168.9513517104
 21
332.7958786858
 31
0.0
  0
SPLINE
  5
16A
330
51
100
AcDbEntity
  8
DV1_Default
  6
Continuous
 62
     7
 48
25.4
100
AcDbSpline
210
0.0
220
0.0
230
1.0
 70
     8
 71
     3
 72
    14
 73
    10
 74
     0
 42
0.0000000001
 43
0.0000000001
 40
0.0
 40
0.0
 40
0.0
 40
0.0
 40
0.0513684717220794
 40
0.1029995586320741
 40
0.1417165792851665
 40
0.3495209398758616
 40
0.5819707404853275
 40
0.7018751155942392
 40
0.9999999999999999
 40
0.9999999999999999
 40
0.9999999999999999
 40
0.9999999999999999
 10
145.3977488952727
 20
371.0649640625302
 30
0.0
 10
146.9915208874086
 20
370.8975847753482
 30
0.0
 10
149.8523013419967
 20
370.8401141779189
 30
0.0
 10
152.9023873645651
 20
367.3014989836501
 30
0.0
 10
161.579757463608
 20
368.9314827337134
 30
0.0
 10
178.6300778788861
 20
361.3096200205162
 30
0.0
 10
165.3991380180582
 20
350.1651720019968
 30
0.0
 10
168.207779411925
 20
325.9075406827762
 30
0.0
 10
185.6599193091443
 20
318.7980451792169
 30
0.0
 10
185.8129357318424
 20
310.7958786857957
 30
0.0
  0
LINE
  5
16B
330
51
100
AcDbEntity
  8
DV1_Default
  6
Continuous
 62
     7
 48
25.4
100
AcDbLine
 10
213.3977488953
 20
298.3958786858
 30
0.0
 11
213.3977488953
 21
335.4358786858
 31
0.0
  0
LINE
  5
16C
330
51
100
AcDbEntity
  8
DV1_Default
  6
Continuous
 62
     7
 48
25.4
100
AcDbLine
 10
209.3977488953
 20
335.4358786858
 30
0.0
 11
209.3977488953
 21
311.5958786858
 31
0.0
  0
LINE
  5
16D
330
51
100
AcDbEntity
  8
DV1_Default
  6
Continuous
 62
     7
 48
25.4
100
AcDbLine
 10
209.3977488953
 20
335.4358786858
 30
0.0
 11
216.5977488953
 21
335.4358786858
 31
0.0
  0
LINE
  5
16E
330
51
100
AcDbEntity
  8
DV1_Default
  6
Continuous
 62
     7
 48
25.4
100
AcDbLine
 10
216.5977488953
 20
335.4358786858
 30
0.0
 11
217.4206907273
 21
336.2588205178
 31
0.0
  0
LINE
  5
16F
330
51
100
AcDbEntity
  8
DV1_Default
  6
Continuous
 62
     7
 48
25.4
100
AcDbLine
 10
217.4206907273
 20
336.2588205178
 30
0.0
 11
219.5180417946
 21
336.2588205178
 31
0.0
  0
LINE
  5
170
330
51
100
AcDbEntity
  8
DV1_Default
  6
Continuous
 62
     7
 48
25.4
100
AcDbLine
 10
209.3977488953
 20
332.0002610412
 30
0.0
 11
210.1977488953
 21
332.0002610412
 31
0.0
  0
LINE
  5
171
330
51
100
AcDbEntity
  8
DV1_Default
  6
Continuous
 62
     7
 48
25.4
100
AcDbLine
 10
210.1977488953
 20
332.0002610412
 30
0.0
 11
213.3977488953
 21
330.1527401798
 31
0.0
  0
LINE
  5
172
330
51
100
AcDbEntity
  8
DV1_Default
  6
HIDDEN2
 62
     7
 48
25.4
100
AcDbLine
 10
213.3977488953
 20
335.4358786858
 30
0.0
 11
213.3977488953
 21
380.7958786858
 31
0.0
  0
LINE
  5
173
330
51
100
AcDbEntity
  8
DV1_Default
  6
Continuous
 62
     7
 48
25.4
100
AcDbLine
 10
184.5977488953
 20
309.5958786858
 30
0.0
 11
185.7977488953
 21
308.3958786858
 31
0.0
  0
LINE
  5
174
330
51
100
AcDbEntity
  8
DV1_Default
  6
Continuous
 62
     7
 48
25.4
100
AcDbLine
 10
184.5977488953
 20
287.1958786858
 30
0.0
 11
185.7977488953
 21
288.3958786858
 31
0.0
  0
LINE
  5
175
330
51
100
AcDbEntity
  8
DV1_Default
  6
Continuous
 62
     7
 48
25.4
100
AcDbLine
 10
184.5977488953
 20
310.7958786858
 30
0.0
 11
184.5977488953
 21
285.9958786858
 31
0.0
  0
LINE
  5
176
330
51
100
AcDbEntity
  8
DV1_Default
  6
Continuous
 62
     7
 48
25.4
100
AcDbLine
 10
185.7977488953
 20
308.3958786858
 30
0.0
 11
185.7977488953
 21
288.3958786858
 31
0.0
  0
LINE
  5
177
330
51
100
AcDbEntity
  8
DV1_Default
  6
CENTER2
 62
     7
 48
25.4
100
AcDbLine
 10
149.3977488953
 20
346.3958786858
 30
0.0
 11
173.1575288224
 21
346.3958786858
 31
0.0
  0
LINE
  5
178
330
51
100
AcDbEntity
  8
DV1_Default
  6
Continuous
 62
     7
 48
25.4
100
AcDbLine
 10
149.3977488953
 20
345.3569104834
 30
0.0
 11
149.3977488953
 21
337.3569104834
 31
0.0
  0
LINE
  5
179
330
51
100
AcDbEntity
  8
DV1_Default
  6
Continuous
 62
     7
 48
25.4
100
AcDbLine
 10
149.3977488953
 20
338.3958786858
 30
0.0
 11
161.3977488953
 21
338.3958786858
 31
0.0
  0
LINE
  5
17A
330
51
100
AcDbEntity
  8
DV1_Default
  6
Continuous
 62
     7
 48
25.4
100
AcDbLine
 10
161.3977488953
 20
338.3958786858
 30
0.0
 11
161.3977488953
 21
346.3958786858
 31
0.0
  0
LINE
  5
17B
330
51
100
AcDbEntity
  8
DV1_Default
  6
Continuous
 62
     7
 48
25.4
100
AcDbLine
 10
151.7977488953
 20
340.3958786858
 30
0.0
 11
151.7977488953
 21
346.3958786858
 31
0.0
  0
LINE
  5
17C
330
51
100
AcDbEntity
  8
DV1_Default
  6
Continuous
 62
     7
 48
25.4
100
AcDbLine
 10
152.9977488953
 20
339.1958786858
 30
0.0
 11
161.3977488953
 21
339.1958786858
 31
0.0
  0
LINE
  5
17D
330
51
100
AcDbEntity
  8
DV1_Default
  6
Continuous
 62
     7
 48
25.4
100
AcDbLine
 10
161.3977488953
 20
341.5958786858
 30
0.0
 11
166.7794361334
 21
341.5958786858
 31
0.0
  0
LINE
  5
17E
330
51
100
AcDbEntity
  8
DV1_Default
  6
Continuous
 62
     7
 48
25.4
100
AcDbLine
 10
161.3977488953
 20
342.3958786858
 30
0.0
 11
166.7752729981
 21
342.3958786858
 31
0.0
  0
LINE
  5
17F
330
51
100
AcDbEntity
  8
DV1_Default
  6
Continuous
 62
     7
 48
25.4
100
AcDbLine
 10
152.9977488953
 20
339.1958786858
 30
0.0
 11
151.7977488953
 21
340.3958786858
 31
0.0
  0
LINE
  5
180
330
51
100
AcDbEntity
  8
DV1_Default
  6
Continuous
 62
     7
 48
25.4
100
AcDbLine
 10
152.9977488953
 20
339.1958786858
 30
0.0
 11
152.9977488953
 21
346.3958786858
 31
0.0
  0
LINE
  5
181
330
51
100
AcDbEntity
  8
DV1_Default
  6
Continuous
 62
     7
 48
25.4
100
AcDbLine
 10
149.3977488953
 20
345.3569104834
 30
0.0
 11
149.3977488953
 21
353.3569104834
 31
0.0
  0
LINE
  5
182
330
51
100
AcDbEntity
  8
DV1_Default
  6
Continuous
 62
     7
 48
25.4
100
AcDbLine
 10
149.3977488953
 20
354.3958786858
 30
0.0
 11
161.3977488953
 21
354.3958786858
 31
0.0
  0
LINE
  5
183
330
51
100
AcDbEntity
  8
DV1_Default
  6
Continuous
 62
     7
 48
25.4
100
AcDbLine
 10
161.3977488953
 20
354.3958786858
 30
0.0
 11
161.3977488953
 21
346.3958786858
 31
0.0
  0
LINE
  5
184
330
51
100
AcDbEntity
  8
DV1_Default
  6
Continuous
 62
     7
 48
25.4
100
AcDbLine
 10
151.7977488953
 20
352.3958786858
 30
0.0
 11
151.7977488953
 21
346.3958786858
 31
0.0
  0
LINE
  5
185
330
51
100
AcDbEntity
  8
DV1_Default
  6
Continuous
 62
     7
 48
25.4
100
AcDbLine
 10
152.9977488953
 20
353.5958786858
 30
0.0
 11
161.3977488953
 21
353.5958786858
 31
0.0
  0
LINE
  5
186
330
51
100
AcDbEntity
  8
DV1_Default
  6
Continuous
 62
     7
 48
25.4
100
AcDbLine
 10
152.9977488953
 20
353.5958786858
 30
0.0
 11
151.7977488953
 21
352.3958786858
 31
0.0
  0
LINE
  5
187
330
51
100
AcDbEntity
  8
DV1_Default
  6
Continuous
 62
     7
 48
25.4
100
AcDbLine
 10
152.9977488953
 20
353.5958786858
 30
0.0
 11
152.9977488953
 21
346.3958786858
 31
0.0
  0
LINE
  5
188
330
51
100
AcDbEntity
  8
DV1_Default
  6
Continuous
 62
     7
 48
25.4
100
AcDbLine
 10
168.6108127149
 20
350.3958786858
 30
0.0
 11
161.3977488953
 21
350.3958786858
 31
0.0
  0
LINE
  5
189
330
51
100
AcDbEntity
  8
DV1_Default
  6
Continuous
 62
     7
 48
25.4
100
AcDbLine
 10
168.9721914101
 20
351.1958786858
 30
0.0
 11
161.3977488953
 21
351.1958786858
 31
0.0
  0
LINE
  5
18A
330
51
100
AcDbEntity
  8
DV1_Default
  6
Continuous
 62
     7
 48
25.4
100
AcDbLine
 10
84.5977488953
 20
305.407298924
 30
0.0
 11
84.5977488953
 21
313.5958786858
 31
0.0
  0
LINE
  5
18B
330
51
100
AcDbEntity
  8
DV1_Default
  6
Continuous
 62
     7
 48
25.4
100
AcDbLine
 10
84.5977488953
 20
283.1958786858
 30
0.0
 11
84.5977488953
 21
284.3044584476
 31
0.0
  0
LINE
  5
18C
330
51
100
AcDbEntity
  8
DV1_Default
  6
Continuous
 62
     7
 48
25.4
100
AcDbLine
 10
135.7977488953
 20
365.5958786858
 30
0.0
 11
135.7977488953
 21
313.5958786858
 31
0.0
  0
LINE
  5
18D
330
51
100
AcDbEntity
  8
DV1_Default
  6
Continuous
 62
     7
 48
25.4
100
AcDbLine
 10
149.3977488953
 20
365.5958786858
 30
0.0
 11
149.3977488953
 21
313.5958786858
 31
0.0
  0
LINE
  5
18E
330
51
100
AcDbEntity
  8
DV1_Default
  6
Continuous
 62
     7
 48
25.4
100
AcDbLine
 10
220.5977488953
 20
369.8012375794
 30
0.0
 11
220.5977488953
 21
383.9958786858
 31
0.0
  0
LINE
  5
18F
330
51
100
AcDbEntity
  8
DV1_Default
  6
CENTER2
 62
     7
 48
25.4
100
AcDbLine
 10
212.0032338952
 20
364.7958786858
 30
0.0
 11
250.9217132841
 21
364.7958786858
 31
0.0
  0
LINE
  5
190
330
51
100
AcDbEntity
  8
DV1_Default
  6
Continuous
 62
     7
 48
25.4
100
AcDbLine
 10
220.5977488953
 20
339.7905197922
 30
0.0
 11
220.5977488953
 21
307.9958786858
 31
0.0
  0
LINE
  5
191
330
51
100
AcDbEntity
  8
DV1_Default
  6
Continuous
 62
     7
 48
25.4
100
AcDbLine
 10
218.5977488953
 20
321.7880058734
 30
0.0
 11
218.5977488953
 21
307.9958786858
 31
0.0
  0
LINE
  5
192
330
51
100
AcDbEntity
  8
DV1_Default
  6
CENTER2
 62
     7
 48
25.4
100
AcDbLine
 10
212.1100358503
 20
344.7958786858
 30
0.0
 11
249.3563634157
 21
344.7958786858
 31
0.0
  0
LINE
  5
193
330
51
100
AcDbEntity
  8
DV1_Default
  6
Continuous
 62
     7
 48
25.4
100
AcDbLine
 10
121.3977488953
 20
240.1148224036
 30
0.0
 11
121.3977488953
 21
249.7148224036
 31
0.0
  0
LINE
  5
194
330
51
100
AcDbEntity
  8
DV1_Default
  6
Continuous
 62
     7
 48
25.4
100
AcDbLine
 10
161.3890104876
 20
277.5958786858
 30
0.0
 11
161.3890104876
 21
276.7958786858
 31
0.0
  0
LINE
  5
195
330
51
100
AcDbEntity
  8
DV1_Default
  6
Continuous
 62
     7
 48
25.4
100
AcDbLine
 10
161.3890104876
 20
276.7958786858
 30
0.0
 11
165.3890104876
 21
276.7958786858
 31
0.0
  0
LINE
  5
196
330
51
100
AcDbEntity
  8
DV1_Default
  6
Continuous
 62
     7
 48
25.4
100
AcDbLine
 10
165.3890104876
 20
276.7958786858
 30
0.0
 11
165.3890104876
 21
277.5958786858
 31
0.0
  0
LINE
  5
197
330
51
100
AcDbEntity
  8
DV1_Default
  6
Continuous
 62
     7
 48
25.4
100
AcDbLine
 10
164.9890104876
 20
277.5958786858
 30
0.0
 11
164.9890104876
 21
276.7958786858
 31
0.0
  0
LINE
  5
198
330
51
100
AcDbEntity
  8
DV1_Default
  6
Continuous
 62
     7
 48
25.4
100
AcDbLine
 10
161.7890104876
 20
277.5958786858
 30
0.0
 11
161.7890104876
 21
276.7958786858
 31
0.0
  0
LINE
  5
199
330
51
100
AcDbEntity
  8
DV1_Default
  6
CENTER2
 62
     7
 48
25.4
100
AcDbLine
 10
163.3890104876
 20
273.9958786858
 30
0.0
 11
163.3890104876
 21
284.8799716866
 31
0.0
  0
LINE
  5
19A
330
51
100
AcDbEntity
  8
DV1_Default
  6
Continuous
 62
     7
 48
25.4
100
AcDbLine
 10
160.5890104876
 20
319.1958786858
 30
0.0
 11
160.5890104876
 21
312.7958786858
 31
0.0
  0
LINE
  5
19B
330
51
100
AcDbEntity
  8
DV1_Default
  6
Continuous
 62
     7
 48
25.4
100
AcDbLine
 10
145.3977488953
 20
380.7958786858
 30
0.0
 11
145.3977488953
 21
366.3958786858
 31
0.0
  0
LINE
  5
19C
330
51
100
AcDbEntity
  8
DV1_Default
  6
Continuous
 62
     7
 48
25.4
100
AcDbLine
 10
135.7977488953
 20
231.1958786858
 30
0.0
 11
135.7977488953
 21
240.1148224036
 31
0.0
  0
LINE
  5
19D
330
51
100
AcDbEntity
  8
DV1_Default
  6
Continuous
 62
     7
 48
25.4
100
AcDbLine
 10
149.3977488953
 20
231.1958786858
 30
0.0
 11
149.3977488953
 21
240.1148224036
 31
0.0
  0
LINE
  5
19E
330
51
100
AcDbEntity
  8
DV1_Default
  6
Continuous
 62
     7
 48
25.4
100
AcDbLine
 10
135.7977488953
 20
249.7148224036
 30
0.0
 11
135.7977488953
 21
283.1958786858
 31
0.0
  0
LINE
  5
19F
330
51
100
AcDbEntity
  8
DV1_Default
  6
Continuous
 62
     7
 48
25.4
100
AcDbLine
 10
149.3977488953
 20
249.7148224036
 30
0.0
 11
149.3977488953
 21
283.1958786858
 31
0.0
  0
LINE
  5
1A0
330
51
100
AcDbEntity
  8
DV1_Default
  6
CENTER2
 62
     7
 48
25.4
100
AcDbLine
 10
133.9435405687
 20
357.3564693035
 30
0.0
 11
161.613972301
 21
357.3564693035
 31
0.0
  0
LINE
  5
1A1
330
51
100
AcDbEntity
  8
DV1_Default
  6
Continuous
 62
     7
 48
25.4
100
AcDbLine
 10
135.7977488953
 20
340.9458786858
 30
0.0
 11
145.3976552739
 21
339.7671583964
 31
0.0
  0
LINE
  5
1A2
330
51
100
AcDbEntity
  8
DV1_Default
  6
Continuous
 62
     7
 48
25.4
100
AcDbLine
 10
145.3976552739
 20
339.7671583964
 30
0.0
 11
149.3977488953
 21
339.7671583964
 31
0.0
  0
LINE
  5
1A3
330
51
100
AcDbEntity
  8
DV1_Default
  6
Continuous
 62
     7
 48
25.4
100
AcDbLine
 10
145.3976552739
 20
339.7671583964
 30
0.0
 11
145.3976552739
 21
313.5958786858
 31
0.0
  0
LINE
  5
1A4
330
51
100
AcDbEntity
  8
DV1_Default
  6
Continuous
 62
     7
 48
25.4
100
AcDbLine
 10
135.7977488953
 20
255.8458786858
 30
0.0
 11
145.3976552739
 21
257.0245989752
 31
0.0
  0
LINE
  5
1A5
330
51
100
AcDbEntity
  8
DV1_Default
  6
Continuous
 62
     7
 48
25.4
100
AcDbLine
 10
145.3976552739
 20
257.0245989752
 30
0.0
 11
149.3977488953
 21
257.0245989752
 31
0.0
  0
LINE
  5
1A6
330
51
100
AcDbEntity
  8
DV1_Default
  6
Continuous
 62
     7
 48
25.4
100
AcDbLine
 10
145.3976552739
 20
257.0245989752
 30
0.0
 11
145.3976552739
 21
283.1958786858
 31
0.0
  0
ENDBLK
  5
1A8
330
51
100
AcDbEntity
  8
0
100
AcDbBlockEnd
  0
BLOCK
  5
272
330
1A9
100
AcDbEntity
  8
0
100
AcDbBlockBegin
  2
SE1
 70
     0
 71
     0
 10
0.0
 20
0.0
 30
0.0
  3
SE1
  1

  0
CIRCLE
  5
1AC
330
1A9
100
AcDbEntity
  8
DV2_Default
  6
Continuous
 62
     7
 48
25.4
100
AcDbCircle
 10
433.0623812206
 20
344.6390818369
 30
0.0
 40
7.6
  0
CIRCLE
  5
1AD
330
1A9
100
AcDbEntity
  8
DV2_Default
  6
Continuous
 62
     7
 48
25.4
100
AcDbCircle
 10
433.0623812206
 20
364.6390818369
 30
0.0
 40
7.6
  0
LINE
  5
1AE
330
1A9
100
AcDbEntity
  8
DV2_Default
  6
Continuous
 62
     7
 48
25.4
100
AcDbLine
 10
428.2623812206
 20
307.8390818369
 30
0.0
 11
437.8623812206
 21
307.8390818369
 31
0.0
  0
LINE
  5
1AF
330
1A9
100
AcDbEntity
  8
DV2_Default
  6
Continuous
 62
     7
 48
25.4
100
AcDbLine
 10
419.0623812206
 20
313.7342269636
 30
0.0
 11
419.0623812206
 21
383.8390818369
 31
0.0
  0
LINE
  5
1B0
330
1A9
100
AcDbEntity
  8
DV2_Default
  6
Continuous
 62
     7
 48
25.4
100
AcDbLine
 10
419.5423812206
 20
383.8390818369
 30
0.0
 11
446.5823812206
 21
383.8390818369
 31
0.0
  0
LINE
  5
1B1
330
1A9
100
AcDbEntity
  8
DV2_Default
  6
Continuous
 62
     7
 48
25.4
100
AcDbLine
 10
446.5823812206
 20
383.8390818369
 30
0.0
 11
447.0623812206
 21
383.8390818369
 31
0.0
  0
LINE
  5
1B2
330
1A9
100
AcDbEntity
  8
DV2_Default
  6
Continuous
 62
     7
 48
25.4
100
AcDbLine
 10
419.0623812206
 20
383.8390818369
 30
0.0
 11
419.5423812206
 21
383.8390818369
 31
0.0
  0
LINE
  5
1B3
330
1A9
100
AcDbEntity
  8
DV2_Default
  6
Continuous
 62
     7
 48
25.4
100
AcDbLine
 10
447.0623812206
 20
383.8390818369
 30
0.0
 11
447.0623812206
 21
313.7295385931
 31
0.0
  0
CIRCLE
  5
1B4
330
1A9
100
AcDbEntity
  8
DV2_Default
  6
Continuous
 62
     7
 48
25.4
100
AcDbCircle
 10
433.0623812206
 20
344.6390818369
 30
0.0
 40
7.311999999999999
  0
CIRCLE
  5
1B5
330
1A9
100
AcDbEntity
  8
DV2_Default
  6
Continuous
 62
     7
 48
25.4
100
AcDbCircle
 10
433.0623812206
 20
364.6390818369
 30
0.0
 40
7.311999999999999
  0
LINE
  5
1B6
330
1A9
100
AcDbEntity
  8
DV2_Default
  6
CENTER2
 62
     7
 48
25.4
100
AcDbLine
 10
422.6623812206
 20
364.6390818369
 30
0.0
 11
443.1743812206
 21
364.6390818369
 31
0.0
  0
LINE
  5
1B7
330
1A9
100
AcDbEntity
  8
DV2_Default
  6
CENTER2
 62
     7
 48
25.4
100
AcDbLine
 10
421.8434271038
 20
344.6722205352
 30
0.0
 11
443.1743767434
 21
344.6340746362
 31
0.0
  0
LINE
  5
1B8
330
1A9
100
AcDbEntity
  8
DV2_Default
  6
Continuous
 62
     7
 48
25.4
100
AcDbLine
 10
430.6625845896
 20
368.7959890972
 30
0.0
 11
428.262598743
 21
364.6390954547
 31
0.0
  0
LINE
  5
1B9
330
1A9
100
AcDbEntity
  8
DV2_Default
  6
Continuous
 62
     7
 48
25.4
100
AcDbLine
 10
428.262598743
 20
364.6390954547
 30
0.0
 11
430.662598743
 21
360.4821735165
 31
0.0
  0
LINE
  5
1BA
330
1A9
100
AcDbEntity
  8
DV2_Default
  6
Continuous
 62
     7
 48
25.4
100
AcDbLine
 10
430.6625845896
 20
368.7959890972
 30
0.0
 11
433.0625845896
 21
368.7959890972
 31
0.0
  0
LINE
  5
1BB
330
1A9
100
AcDbEntity
  8
DV2_Default
  6
Continuous
 62
     7
 48
25.4
100
AcDbLine
 10
430.662598743
 20
360.4821735165
 30
0.0
 11
433.062598743
 21
360.4821735165
 31
0.0
  0
LINE
  5
1BC
330
1A9
100
AcDbEntity
  8
DV2_Default
  6
Continuous
 62
     7
 48
25.4
100
AcDbLine
 10
435.4615505766
 20
368.7959890972
 30
0.0
 11
437.8615364231
 21
364.6390954547
 31
0.0
  0
LINE
  5
1BD
330
1A9
100
AcDbEntity
  8
DV2_Default
  6
Continuous
 62
     7
 48
25.4
100
AcDbLine
 10
437.8615364231
 20
364.6390954547
 30
0.0
 11
435.4615364231
 21
360.4821735165
 31
0.0
  0
LINE
  5
1BE
330
1A9
100
AcDbEntity
  8
DV2_Default
  6
Continuous
 62
     7
 48
25.4
100
AcDbLine
 10
435.4615505766
 20
368.7959890972
 30
0.0
 11
433.0615505766
 21
368.7959890972
 31
0.0
  0
LINE
  5
1BF
330
1A9
100
AcDbEntity
  8
DV2_Default
  6
Continuous
 62
     7
 48
25.4
100
AcDbLine
 10
435.4615364231
 20
360.4821735165
 30
0.0
 11
433.0615364231
 21
360.4821735165
 31
0.0
  0
LINE
  5
1C0
330
1A9
100
AcDbEntity
  8
DV2_Default
  6
Continuous
 62
     7
 48
25.4
100
AcDbLine
 10
430.6625845896
 20
340.4581047024
 30
0.0
 11
428.262598743
 21
344.614998345
 31
0.0
  0
LINE
  5
1C1
330
1A9
100
AcDbEntity
  8
DV2_Default
  6
Continuous
 62
     7
 48
25.4
100
AcDbLine
 10
428.262598743
 20
344.614998345
 30
0.0
 11
430.662598743
 21
348.7719202832
 31
0.0
  0
LINE
  5
1C2
330
1A9
100
AcDbEntity
  8
DV2_Default
  6
Continuous
 62
     7
 48
25.4
100
AcDbLine
 10
430.6625845896
 20
340.4581047024
 30
0.0
 11
433.0625845896
 21
340.4581047024
 31
0.0
  0
LINE
  5
1C3
330
1A9
100
AcDbEntity
  8
DV2_Default
  6
Continuous
 62
     7
 48
25.4
100
AcDbLine
 10
430.662598743
 20
348.7719202832
 30
0.0
 11
433.062598743
 21
348.7719202832
 31
0.0
  0
LINE
  5
1C4
330
1A9
100
AcDbEntity
  8
DV2_Default
  6
Continuous
 62
     7
 48
25.4
100
AcDbLine
 10
435.4615505766
 20
340.4581047024
 30
0.0
 11
437.8615364231
 21
344.614998345
 31
0.0
  0
LINE
  5
1C5
330
1A9
100
AcDbEntity
  8
DV2_Default
  6
Continuous
 62
     7
 48
25.4
100
AcDbLine
 10
437.8615364231
 20
344.614998345
 30
0.0
 11
435.4615364231
 21
348.7719202832
 31
0.0
  0
LINE
  5
1C6
330
1A9
100
AcDbEntity
  8
DV2_Default
  6
Continuous
 62
     7
 48
25.4
100
AcDbLine
 10
435.4615505766
 20
340.4581047024
 30
0.0
 11
433.0615505766
 21
340.4581047024
 31
0.0
  0
LINE
  5
1C7
330
1A9
100
AcDbEntity
  8
DV2_Default
  6
Continuous
 62
     7
 48
25.4
100
AcDbLine
 10
435.4615364231
 20
348.7719202832
 30
0.0
 11
433.0615364231
 21
348.7719202832
 31
0.0
  0
LINE
  5
1C8
330
1A9
100
AcDbEntity
  8
DV2_Default
  6
Continuous
 62
     7
 48
25.4
100
AcDbLine
 10
428.2623812206
 20
307.8390818369
 30
0.0
 11
419.0623812206
 21
313.1507043135
 31
0.0
  0
LINE
  5
1C9
330
1A9
100
AcDbEntity
  8
DV2_Default
  6
Continuous
 62
     7
 48
25.4
100
AcDbLine
 10
419.0623812206
 20
313.1507043135
 30
0.0
 11
419.0623812206
 21
313.7342269636
 31
0.0
  0
LINE
  5
1CA
330
1A9
100
AcDbEntity
  8
DV2_Default
  6
Continuous
 62
     7
 48
25.4
100
AcDbLine
 10
437.8623812206
 20
307.8390818369
 30
0.0
 11
447.0623812206
 21
313.1507043135
 31
0.0
  0
LINE
  5
1CB
330
1A9
100
AcDbEntity
  8
DV2_Default
  6
Continuous
 62
     7
 48
25.4
100
AcDbLine
 10
447.0623812206
 20
313.1507043135
 30
0.0
 11
447.0623812206
 21
313.7295385931
 31
0.0
  0
LINE
  5
1CC
330
1A9
100
AcDbEntity
  8
DV2_Default
  6
CENTER2
 62
     7
 48
25.4
100
AcDbLine
 10
433.0623812206
 20
392.1021091458
 30
0.0
 11
433.0623812206
 21
203.3571050332
 31
0.0
  0
LINE
  5
1CD
330
1A9
100
AcDbEntity
  8
DV2_Default
  6
CENTER2
 62
     7
 48
25.4
100
AcDbLine
 10
339.0109180595
 20
298.2356626804
 30
0.0
 11
527.4583552357
 21
298.2356626804
 31
0.0
  0
LINE
  5
1CE
330
1A9
100
AcDbEntity
  8
DV2_Default
  6
Continuous
 62
     7
 48
25.4
100
AcDbLine
 10
447.0623812206
 20
383.4334146732
 30
0.0
 11
447.4623812206
 21
383.4334146732
 31
0.0
  0
LINE
  5
1CF
330
1A9
100
AcDbEntity
  8
DV2_Default
  6
Continuous
 62
     7
 48
25.4
100
AcDbLine
 10
418.6623812206
 20
383.4334146732
 30
0.0
 11
410.9349746102
 21
381.3628623124
 31
0.0
  0
LINE
  5
1D0
330
1A9
100
AcDbEntity
  8
DV2_Default
  6
Continuous
 62
     7
 48
25.4
100
AcDbLine
 10
447.4623812206
 20
383.4334146732
 30
0.0
 11
455.1897878309
 21
381.3628623124
 31
0.0
  0
LINE
  5
1D1
330
1A9
100
AcDbEntity
  8
DV2_Default
  6
Continuous
 62
     7
 48
25.4
100
AcDbLine
 10
455.1897878309
 20
381.3628623124
 30
0.0
 11
455.1897878309
 21
379.2688526503
 31
0.0
  0
LINE
  5
1D2
330
1A9
100
AcDbEntity
  8
DV2_Default
  6
Continuous
 62
     7
 48
25.4
100
AcDbLine
 10
410.9349746102
 20
381.3628623124
 30
0.0
 11
410.9349746102
 21
379.2688526503
 31
0.0
  0
LINE
  5
1D3
330
1A9
100
AcDbEntity
  8
DV2_Default
  6
Continuous
 62
     7
 48
25.4
100
AcDbLine
 10
418.6623812206
 20
383.4334146732
 30
0.0
 11
419.0623812206
 21
383.4334146732
 31
0.0
  0
ARC
  5
1D4
330
1A9
100
AcDbEntity
  8
DV2_Default
  6
Continuous
 62
     7
 48
25.4
100
AcDbCircle
 10
466.748432899
 20
278.6876098201
 30
0.0
 40
5.999999999999998
100
AcDbArc
 50
60.2587557385
 51
240.0
  0
LINE
  5
1D5
330
1A9
100
AcDbEntity
  8
DV2_Default
  6
Continuous
 62
     7
 48
25.4
100
AcDbLine
 10
460.2843312839
 20
275.4914573974
 30
0.0
 11
456.0843096932
 21
268.2168066096
 31
0.0
  0
LINE
  5
1D6
330
1A9
100
AcDbEntity
  8
DV2_Default
  6
Continuous
 62
     7
 48
25.4
100
AcDbLine
 10
470.4843096932
 20
293.1583382386
 30
0.0
 11
466.2843006906
 21
285.8837092538
 31
0.0
  0
CIRCLE
  5
1D7
330
1A9
100
AcDbEntity
  8
DV2_Default
  6
Continuous
 62
     7
 48
25.4
100
AcDbCircle
 10
491.0049533311
 20
264.6831012191
 30
0.0
 40
4.0
  0
CIRCLE
  5
1D8
330
1A9
100
AcDbEntity
  8
DV2_Default
  6
Continuous
 62
     7
 48
25.4
100
AcDbCircle
 10
473.6844452554
 20
274.6831012191
 30
0.0
 40
4.0
  0
CIRCLE
  5
1D9
330
1A9
100
AcDbEntity
  8
DV2_Default
  6
Continuous
 62
     7
 48
25.4
100
AcDbCircle
 10
491.0049533311
 20
264.6831012191
 30
0.0
 40
4.800000000000002
  0
CIRCLE
  5
1DA
330
1A9
100
AcDbEntity
  8
DV2_Default
  6
Continuous
 62
     7
 48
25.4
100
AcDbCircle
 10
473.6844452554
 20
274.6831012191
 30
0.0
 40
4.800000000000002
  0
LINE
  5
1DB
330
1A9
100
AcDbEntity
  8
DV2_Default
  6
Continuous
 62
     7
 48
25.4
100
AcDbLine
 10
448.7115871524
 20
272.4734499532
 30
0.0
 11
463.1115871524
 21
297.4149815822
 31
0.0
  0
LINE
  5
1DC
330
1A9
100
AcDbEntity
  8
DV2_Default
  6
Continuous
 62
     7
 48
25.4
100
AcDbLine
 10
465.1115871524
 20
296.2602810438
 30
0.0
 11
450.7115871524
 21
271.3187494148
 31
0.0
  0
ARC
  5
1DD
330
1A9
100
AcDbEntity
  8
DV2_Default
  6
Continuous
 62
     7
 48
25.4
100
AcDbCircle
 10
466.0575918504
 20
279.0864317595
 30
0.0
 40
6.209028404560099
100
AcDbArc
 50
74.9103004712
 51
225.0896995288
  0
LINE
  5
1DE
330
1A9
100
AcDbEntity
  8
DV2_Default
  6
Continuous
 62
     7
 48
25.4
100
AcDbLine
 10
503.9319480959
 20
250.2914940815
 30
0.0
 11
463.748432899
 21
273.4914573974
 31
0.0
  0
LINE
  5
1DF
330
1A9
100
AcDbEntity
  8
DV2_Default
  6
Continuous
 62
     7
 48
25.4
100
AcDbLine
 10
509.9319175026
 20
260.6837459379
 30
0.0
 11
469.7249358358
 21
283.8972576266
 31
0.0
  0
LINE
  5
1E0
330
1A9
100
AcDbEntity
  8
DV2_Default
  6
Continuous
 62
     7
 48
25.4
100
AcDbLine
 10
495.6259279116
 20
255.0869770708
 30
0.0
 11
501.6258973184
 21
265.4792289272
 31
0.0
  0
LINE
  5
1E1
330
1A9
100
AcDbEntity
  8
DV2_Default
  6
Continuous
 62
     7
 48
25.4
100
AcDbLine
 10
463.7944270814
 20
276.7574162051
 30
0.0
 11
464.8381120591
 21
272.862330841
 31
0.0
  0
LINE
  5
1E2
330
1A9
100
AcDbEntity
  8
DV2_Default
  6
Continuous
 62
     7
 48
25.4
100
AcDbLine
 10
466.9944270814
 20
282.2999787893
 30
0.0
 11
470.7490003962
 21
283.306013677
 31
0.0
  0
LINE
  5
1E3
330
1A9
100
AcDbEntity
  8
DV2_Default
  6
Continuous
 62
     7
 48
25.4
100
AcDbLine
 10
463.7944270814
 20
276.7574162051
 30
0.0
 11
466.9944270814
 21
282.2999787893
 31
0.0
  0
LINE
  5
1E4
330
1A9
100
AcDbEntity
  8
DV2_Default
  6
Continuous
 62
     7
 48
25.4
100
AcDbLine
 10
461.6740246107
 20
274.6891175811
 30
0.0
 11
461.6699719299
 21
274.6914573974
 31
0.0
  0
LINE
  5
1E5
330
1A9
100
AcDbEntity
  8
DV2_Default
  6
Continuous
 62
     7
 48
25.4
100
AcDbLine
 10
467.6739940174
 20
285.0813694375
 30
0.0
 11
467.6464748668
 21
285.0972576266
 31
0.0
  0
LINE
  5
1E6
330
1A9
100
AcDbEntity
  8
DV2_Default
  6
Continuous
 62
     7
 48
25.4
100
AcDbLine
 10
463.748432899
 20
273.4914573974
 30
0.0
 11
460.2843312839
 21
275.4914573974
 31
0.0
  0
LINE
  5
1E7
330
1A9
100
AcDbEntity
  8
DV2_Default
  6
Continuous
 62
     7
 48
25.4
100
AcDbLine
 10
469.7249358358
 20
283.8972576266
 30
0.0
 11
466.2843006906
 21
285.8837092538
 31
0.0
  0
LINE
  5
1E8
330
1A9
100
AcDbEntity
  8
DV2_Default
  6
CENTER2
 62
     7
 48
25.4
100
AcDbLine
 10
470.6844452554
 20
269.4869487964
 30
0.0
 11
476.6844146622
 21
279.8792006527
 31
0.0
  0
LINE
  5
1E9
330
1A9
100
AcDbEntity
  8
DV2_Default
  6
CENTER2
 62
     7
 48
25.4
100
AcDbLine
 10
488.0049533311
 20
259.4869487964
 30
0.0
 11
494.0049227379
 21
269.8792006527
 31
0.0
  0
LINE
  5
1EA
330
1A9
100
AcDbEntity
  8
DV2_Default
  6
Continuous
 62
     7
 48
25.4
100
AcDbLine
 10
499.7319265052
 20
243.0168432937
 30
0.0
 11
448.7115871524
 21
272.4734499532
 31
0.0
  0
LINE
  5
1EB
330
1A9
100
AcDbEntity
  8
DV2_Default
  6
Continuous
 62
     7
 48
25.4
100
AcDbLine
 10
514.1319265052
 20
267.9583749227
 30
0.0
 11
463.1115871524
 21
297.4149815822
 31
0.0
  0
LINE
  5
1EC
330
1A9
100
AcDbEntity
  8
DV2_Default
  6
Continuous
 62
     7
 48
25.4
100
AcDbLine
 10
499.7319265052
 20
243.0168432937
 30
0.0
 11
514.1319265052
 21
267.9583749227
 31
0.0
  0
LINE
  5
1ED
330
1A9
100
AcDbEntity
  8
DV2_Default
  6
Continuous
 62
     7
 48
25.4
100
AcDbLine
 10
499.7319265052
 20
243.0168432937
 30
0.0
 11
494.0750722557
 21
237.3599890442
 31
0.0
  0
LINE
  5
1EE
330
1A9
100
AcDbEntity
  8
DV2_Default
  6
Continuous
 62
     7
 48
25.4
100
AcDbLine
 10
514.1319265052
 20
267.9583749227
 30
0.0
 11
516.202478866
 21
275.685781533
 31
0.0
  0
CIRCLE
  5
1EF
330
1A9
100
AcDbEntity
  8
DV2_Default
  6
HIDDEN2
 62
     7
 48
25.4
100
AcDbCircle
 10
485.109819022
 20
268.0866087379
 30
0.0
 40
2.4
  0
CIRCLE
  5
1F0
330
1A9
100
AcDbEntity
  8
DV2_Default
  6
HIDDEN2
 62
     7
 48
25.4
100
AcDbCircle
 10
485.109819022
 20
268.0866087379
 30
0.0
 40
2.0
  0
LINE
  5
1F1
330
1A9
100
AcDbEntity
  8
DV2_Default
  6
CENTER2
 62
     7
 48
25.4
100
AcDbLine
 10
433.0623812206
 20
298.2356626804
 30
0.0
 11
350.5373737977
 21
250.5898274299
 31
0.0
  0
LINE
  5
1F2
330
1A9
100
AcDbEntity
  8
DV2_Default
  6
Continuous
 62
     7
 48
25.4
100
AcDbLine
 10
494.0750722557
 20
237.3599890442
 30
0.0
 11
492.1120048554
 21
238.4933665362
 31
0.0
  0
LINE
  5
1F3
330
1A9
100
AcDbEntity
  8
DV2_Default
  6
Continuous
 62
     7
 48
25.4
100
AcDbLine
 10
516.202478866
 20
275.685781533
 30
0.0
 11
514.2801468099
 21
276.7956404631
 31
0.0
  0
ARC
  5
1F4
330
1A9
100
AcDbEntity
  8
DV2_Default
  6
Continuous
 62
     7
 48
25.4
100
AcDbCircle
 10
399.2902450099
 20
278.8367126037
 30
0.0
 40
5.999999999999998
100
AcDbArc
 50
300.2587557385
 51
120.0
  0
LINE
  5
1F5
330
1A9
100
AcDbEntity
  8
DV2_Default
  6
Continuous
 62
     7
 48
25.4
100
AcDbLine
 10
399.754346625
 20
286.0328650265
 30
0.0
 11
395.5543250344
 21
293.3075158143
 31
0.0
  0
LINE
  5
1F6
330
1A9
100
AcDbEntity
  8
DV2_Default
  6
Continuous
 62
     7
 48
25.4
100
AcDbLine
 10
409.9543250344
 20
268.3659841853
 30
0.0
 11
405.7543160318
 21
275.6406131701
 31
0.0
  0
CIRCLE
  5
1F7
330
1A9
100
AcDbEntity
  8
DV2_Default
  6
Continuous
 62
     7
 48
25.4
100
AcDbCircle
 10
375.0337245778
 20
264.8322040027
 30
0.0
 40
4.0
  0
CIRCLE
  5
1F8
330
1A9
100
AcDbEntity
  8
DV2_Default
  6
Continuous
 62
     7
 48
25.4
100
AcDbCircle
 10
392.3542326535
 20
274.8322040027
 30
0.0
 40
4.0
  0
CIRCLE
  5
1F9
330
1A9
100
AcDbEntity
  8
DV2_Default
  6
Continuous
 62
     7
 48
25.4
100
AcDbCircle
 10
375.0337245778
 20
264.8322040027
 30
0.0
 40
4.800000000000002
  0
CIRCLE
  5
1FA
330
1A9
100
AcDbEntity
  8
DV2_Default
  6
Continuous
 62
     7
 48
25.4
100
AcDbCircle
 10
392.3542326535
 20
274.8322040027
 30
0.0
 40
4.800000000000002
  0
LINE
  5
1FB
330
1A9
100
AcDbEntity
  8
DV2_Default
  6
Continuous
 62
     7
 48
25.4
100
AcDbLine
 10
402.9270475752
 20
297.5641591579
 30
0.0
 11
417.3270475752
 21
272.6226275289
 31
0.0
  0
LINE
  5
1FC
330
1A9
100
AcDbEntity
  8
DV2_Default
  6
Continuous
 62
     7
 48
25.4
100
AcDbLine
 10
415.3270475752
 20
271.4679269906
 30
0.0
 11
400.9270475752
 21
296.4094586195
 31
0.0
  0
ARC
  5
1FD
330
1A9
100
AcDbEntity
  8
DV2_Default
  6
Continuous
 62
     7
 48
25.4
100
AcDbCircle
 10
399.9810554653
 20
279.2355875321
 30
0.0
 40
6.209028404560099
100
AcDbArc
 50
314.9103004712
 51
105.0896995288
  0
LINE
  5
1FE
330
1A9
100
AcDbEntity
  8
DV2_Default
  6
Continuous
 62
     7
 48
25.4
100
AcDbLine
 10
356.106729813
 20
260.8329017106
 30
0.0
 11
396.2902450099
 21
284.0328650265
 31
0.0
  0
LINE
  5
1FF
330
1A9
100
AcDbEntity
  8
DV2_Default
  6
Continuous
 62
     7
 48
25.4
100
AcDbLine
 10
362.1066992198
 20
250.4406498542
 30
0.0
 11
402.3136808866
 21
273.6541615428
 31
0.0
  0
LINE
  5
200
330
1A9
100
AcDbEntity
  8
DV2_Default
  6
Continuous
 62
     7
 48
25.4
100
AcDbLine
 10
364.4127499973
 20
265.6283846998
 30
0.0
 11
370.412719404
 21
255.2361328434
 31
0.0
  0
LINE
  5
201
330
1A9
100
AcDbEntity
  8
DV2_Default
  6
Continuous
 62
     7
 48
25.4
100
AcDbLine
 10
399.0956512139
 20
282.3600534923
 30
0.0
 11
395.2005658497
 21
283.40373847
 31
0.0
  0
LINE
  5
202
330
1A9
100
AcDbEntity
  8
DV2_Default
  6
Continuous
 62
     7
 48
25.4
100
AcDbLine
 10
402.2956512139
 20
276.817490908
 30
0.0
 11
401.2896163262
 21
273.0629175932
 31
0.0
  0
LINE
  5
203
330
1A9
100
AcDbEntity
  8
DV2_Default
  6
Continuous
 62
     7
 48
25.4
100
AcDbLine
 10
399.0956512139
 20
282.3600534923
 30
0.0
 11
402.2956512139
 21
276.817490908
 31
0.0
  0
LINE
  5
204
330
1A9
100
AcDbEntity
  8
DV2_Default
  6
Continuous
 62
     7
 48
25.4
100
AcDbLine
 10
398.3646532982
 20
285.2305252101
 30
0.0
 11
398.368705979
 21
285.2328650265
 31
0.0
  0
LINE
  5
205
330
1A9
100
AcDbEntity
  8
DV2_Default
  6
Continuous
 62
     7
 48
25.4
100
AcDbLine
 10
404.364622705
 20
274.8382733537
 30
0.0
 11
404.3921418557
 21
274.8541615428
 31
0.0
  0
LINE
  5
206
330
1A9
100
AcDbEntity
  8
DV2_Default
  6
Continuous
 62
     7
 48
25.4
100
AcDbLine
 10
396.2902450099
 20
284.0328650265
 30
0.0
 11
399.754346625
 21
286.0328650265
 31
0.0
  0
LINE
  5
207
330
1A9
100
AcDbEntity
  8
DV2_Default
  6
Continuous
 62
     7
 48
25.4
100
AcDbLine
 10
402.3136808866
 20
273.6541615428
 30
0.0
 11
405.7543160318
 21
275.6406131701
 31
0.0
  0
LINE
  5
208
330
1A9
100
AcDbEntity
  8
DV2_Default
  6
CENTER2
 62
     7
 48
25.4
100
AcDbLine
 10
389.3542326535
 20
280.0283564254
 30
0.0
 11
395.3542020602
 21
269.636104569
 31
0.0
  0
LINE
  5
209
330
1A9
100
AcDbEntity
  8
DV2_Default
  6
CENTER2
 62
     7
 48
25.4
100
AcDbLine
 10
372.0337245778
 20
270.0283564254
 30
0.0
 11
378.0336939846
 21
259.636104569
 31
0.0
  0
LINE
  5
20A
330
1A9
100
AcDbEntity
  8
DV2_Default
  6
Continuous
 62
     7
 48
25.4
100
AcDbLine
 10
351.9067082224
 20
268.1075524984
 30
0.0
 11
402.9270475752
 21
297.5641591579
 31
0.0
  0
LINE
  5
20B
330
1A9
100
AcDbEntity
  8
DV2_Default
  6
Continuous
 62
     7
 48
25.4
100
AcDbLine
 10
366.3067082224
 20
243.1660208694
 30
0.0
 11
417.3270475752
 21
272.6226275289
 31
0.0
  0
LINE
  5
20C
330
1A9
100
AcDbEntity
  8
DV2_Default
  6
Continuous
 62
     7
 48
25.4
100
AcDbLine
 10
351.9067082224
 20
268.1075524984
 30
0.0
 11
366.3067082224
 21
243.1660208694
 31
0.0
  0
LINE
  5
20D
330
1A9
100
AcDbEntity
  8
DV2_Default
  6
Continuous
 62
     7
 48
25.4
100
AcDbLine
 10
351.9067082224
 20
268.1075524984
 30
0.0
 11
349.8361558616
 21
275.8349591087
 31
0.0
  0
LINE
  5
20E
330
1A9
100
AcDbEntity
  8
DV2_Default
  6
Continuous
 62
     7
 48
25.4
100
AcDbLine
 10
366.3067082224
 20
243.1660208694
 30
0.0
 11
371.9635624719
 21
237.5091666199
 31
0.0
  0
CIRCLE
  5
20F
330
1A9
100
AcDbEntity
  8
DV2_Default
  6
HIDDEN2
 62
     7
 48
25.4
100
AcDbCircle
 10
380.9288157056
 20
268.2357863137
 30
0.0
 40
2.4
  0
CIRCLE
  5
210
330
1A9
100
AcDbEntity
  8
DV2_Default
  6
HIDDEN2
 62
     7
 48
25.4
100
AcDbCircle
 10
380.9288157056
 20
268.2357863137
 30
0.0
 40
2.0
  0
LINE
  5
211
330
1A9
100
AcDbEntity
  8
DV2_Default
  6
Continuous
 62
     7
 48
25.4
100
AcDbLine
 10
349.8361558616
 20
275.8349591087
 30
0.0
 11
351.7992232618
 21
276.9683366007
 31
0.0
  0
LINE
  5
212
330
1A9
100
AcDbEntity
  8
DV2_Default
  6
Continuous
 62
     7
 48
25.4
100
AcDbLine
 10
371.9635624719
 20
237.5091666199
 30
0.0
 11
373.885894528
 21
238.61902555
 31
0.0
  0
CIRCLE
  5
213
330
1A9
100
AcDbEntity
  8
DV2_Default
  6
HIDDEN2
 62
     7
 48
25.4
100
AcDbCircle
 10
433.1485089341
 20
358.3845929895
 30
0.0
 40
2.4
  0
CIRCLE
  5
214
330
1A9
100
AcDbEntity
  8
DV2_Default
  6
HIDDEN2
 62
     7
 48
25.4
100
AcDbCircle
 10
433.1485089341
 20
358.3845929895
 30
0.0
 40
2.0
  0
LINE
  5
215
330
1A9
100
AcDbEntity
  8
DV2_Default
  6
CENTER2
 62
     7
 48
25.4
100
AcDbLine
 10
433.0623812206
 20
355.9861389005
 30
0.0
 11
433.0623812206
 21
360.7830470785
 31
0.0
  0
CIRCLE
  5
216
330
1A9
100
AcDbEntity
  8
DV2_Default
  6
HIDDEN2
 62
     7
 48
25.4
100
AcDbCircle
 10
433.0623812206
 20
238.2356626804
 30
0.0
 40
2.4
  0
CIRCLE
  5
217
330
1A9
100
AcDbEntity
  8
DV2_Default
  6
HIDDEN2
 62
     7
 48
25.4
100
AcDbCircle
 10
433.0623812206
 20
238.2356626804
 30
0.0
 40
2.0
  0
CIRCLE
  5
218
330
1A9
100
AcDbEntity
  8
DV2_Default
  6
Continuous
 62
     7
 48
25.4
100
AcDbCircle
 10
433.0623812206
 20
259.0356626804
 30
0.0
 40
3.799999999999999
  0
CIRCLE
  5
219
330
1A9
100
AcDbEntity
  8
DV2_Default
  6
Continuous
 62
     7
 48
25.4
100
AcDbCircle
 10
433.0623812206
 20
259.0356626804
 30
0.0
 40
3.4
  0
LINE
  5
21A
330
1A9
100
AcDbEntity
  8
DV2_Default
  6
Continuous
 62
     7
 48
25.4
100
AcDbLine
 10
433.0623812206
 20
257.4356626804
 30
0.0
 11
434.4480218666
 21
258.2356626804
 31
0.0
  0
LINE
  5
21B
330
1A9
100
AcDbEntity
  8
DV2_Default
  6
Continuous
 62
     7
 48
25.4
100
AcDbLine
 10
434.4480218666
 20
258.2356626804
 30
0.0
 11
434.4480218666
 21
259.8356626804
 31
0.0
  0
LINE
  5
21C
330
1A9
100
AcDbEntity
  8
DV2_Default
  6
Continuous
 62
     7
 48
25.4
100
AcDbLine
 10
434.4480218666
 20
259.8356626804
 30
0.0
 11
433.0623812206
 21
260.6356626804
 31
0.0
  0
LINE
  5
21D
330
1A9
100
AcDbEntity
  8
DV2_Default
  6
Continuous
 62
     7
 48
25.4
100
AcDbLine
 10
433.0623812206
 20
260.6356626804
 30
0.0
 11
431.6767405745
 21
259.8356626804
 31
0.0
  0
LINE
  5
21E
330
1A9
100
AcDbEntity
  8
DV2_Default
  6
Continuous
 62
     7
 48
25.4
100
AcDbLine
 10
431.6767405745
 20
259.8356626804
 30
0.0
 11
431.6767405745
 21
258.2356626804
 31
0.0
  0
LINE
  5
21F
330
1A9
100
AcDbEntity
  8
DV2_Default
  6
Continuous
 62
     7
 48
25.4
100
AcDbLine
 10
431.6767405745
 20
258.2356626804
 30
0.0
 11
433.0623812206
 21
257.4356626804
 31
0.0
  0
LINE
  5
220
330
1A9
100
AcDbEntity
  8
DV2_Default
  6
CENTER2
 62
     7
 48
25.4
100
AcDbLine
 10
433.0623812206
 20
262.8356626804
 30
0.0
 11
433.0623812206
 21
255.2356626804
 31
0.0
  0
ARC
  5
221
330
1A9
100
AcDbEntity
  8
DV2_Default
  6
CENTER2
 62
     7
 48
25.4
100
AcDbCircle
 10
433.0623812206
 20
298.2356626804
 30
0.0
 40
39.2
100
AcDbArc
 50
264.4436402664
 51
275.5563597336
  0
ARC
  5
222
330
1A9
100
AcDbEntity
  8
DV2_Default
  6
Continuous
 62
     7
 48
25.4
100
AcDbCircle
 10
433.0623812206
 20
298.2356626804
 30
0.0
 40
10.0
100
AcDbArc
 50
106.1900921681
 51
73.8099078319
  0
ARC
  5
223
330
1A9
100
AcDbEntity
  8
DV2_Default
  6
Continuous
 62
     7
 48
25.4
100
AcDbCircle
 10
433.0623812206
 20
298.2356626804
 30
0.0
 40
52.00000000000001
100
AcDbArc
 50
293.5830406391
 51
313.824564097
  0
ARC
  5
224
330
1A9
100
AcDbEntity
  8
DV2_Default
  6
Continuous
 62
     7
 48
25.4
100
AcDbCircle
 10
433.0623812206
 20
298.2356626804
 30
0.0
 40
44.00000000000001
100
AcDbArc
 50
348.9846771748
 51
71.446995465
  0
ARC
  5
225
330
1A9
100
AcDbEntity
  8
DV2_Default
  6
Continuous
 62
     7
 48
25.4
100
AcDbCircle
 10
433.0623812206
 20
298.2356626804
 30
0.0
 40
52.00000000000001
100
AcDbArc
 50
173.5830406391
 51
193.824564097
  0
ARC
  5
226
330
1A9
100
AcDbEntity
  8
DV2_Default
  6
Continuous
 62
     7
 48
25.4
100
AcDbCircle
 10
433.0623812206
 20
298.2356626804
 30
0.0
 40
44.00000000000001
100
AcDbArc
 50
108.553004535
 51
190.7779430637
  0
ARC
  5
227
330
1A9
100
AcDbEntity
  8
DV2_Default
  6
Continuous
 62
     7
 48
25.4
100
AcDbCircle
 10
433.0623812206
 20
298.2356626804
 30
0.0
 40
84.0
100
AcDbArc
 50
339.8112651897
 51
80.4059317731
  0
ARC
  5
228
330
1A9
100
AcDbEntity
  8
DV2_Default
  6
Continuous
 62
     7
 48
25.4
100
AcDbCircle
 10
433.0623812206
 20
298.2356626804
 30
0.0
 40
84.0
100
AcDbArc
 50
99.5940682269
 51
200.0694751789
  0
ARC
  5
229
330
1A9
100
AcDbEntity
  8
DV2_Default
  6
Continuous
 62
     7
 48
25.4
100
AcDbCircle
 10
433.0623812206
 20
298.2356626804
 30
0.0
 40
44.00000000000001
100
AcDbArc
 50
228.9846771748
 51
310.7779430637
  0
ARC
  5
22A
330
1A9
100
AcDbEntity
  8
DV2_Default
  6
Continuous
 62
     7
 48
25.4
100
AcDbCircle
 10
433.0623812206
 20
298.2356626804
 30
0.0
 40
52.00000000000001
100
AcDbArc
 50
345.9779128214
 51
6.4169593609
  0
ARC
  5
22B
330
1A9
100
AcDbEntity
  8
DV2_Default
  6
Continuous
 62
     7
 48
25.4
100
AcDbCircle
 10
433.0623812206
 20
298.2356626804
 30
0.0
 40
84.0
100
AcDbArc
 50
219.8112651897
 51
320.0694751789
  0
LINE
  5
22C
330
1A9
100
AcDbEntity
  8
DV2_Default
  6
CENTER2
 62
     7
 48
25.4
100
AcDbLine
 10
433.0623812206
 20
240.6356626804
 30
0.0
 11
433.0623812206
 21
235.8356626804
 31
0.0
  0
LINE
  5
22D
330
1A9
100
AcDbEntity
  8
DV2_Default
  6
CENTER2
 62
     7
 48
25.4
100
AcDbLine
 10
421.3223493347
 20
254.4212671999
 30
0.0
 11
417.1812446131
 21
238.9664539793
 31
0.0
  0
CIRCLE
  5
22E
330
1A9
100
AcDbEntity
  8
DV2_Default
  6
Continuous
 62
     7
 48
25.4
100
AcDbCircle
 10
419.2517969739
 20
246.6938605896
 30
0.0
 40
8.0
  0
CIRCLE
  5
22F
330
1A9
100
AcDbEntity
  8
DV2_Default
  6
Continuous
 62
     7
 48
25.4
100
AcDbCircle
 10
419.2517969739
 20
246.6938605896
 30
0.0
 40
6.4
  0
ARC
  5
230
330
1A9
100
AcDbEntity
  8
DV2_Default
  6
CENTER2
 62
     7
 48
25.4
100
AcDbCircle
 10
433.0623812206
 20
298.2356626804
 30
0.0
 40
53.36000000000001
100
AcDbArc
 50
246.4018625515
 51
263.5981374485
  0
ARC
  5
231
330
1A9
100
AcDbEntity
  8
DV2_Default
  6
Continuous
 62
     7
 48
25.4
100
AcDbCircle
 10
433.0623812206
 20
298.2356626804
 30
0.0
 40
60.0
100
AcDbArc
 50
223.8018337219
 51
250.4804864989
  0
ARC
  5
232
330
1A9
100
AcDbEntity
  8
DV2_Default
  6
Continuous
 62
     7
 48
25.4
100
AcDbCircle
 10
433.0623812206
 20
298.2356626804
 30
0.0
 40
52.00000000000001
100
AcDbArc
 50
225.9779128214
 51
246.4169593609
  0
LINE
  5
233
330
1A9
100
AcDbEntity
  8
DV2_Default
  6
CENTER2
 62
     7
 48
25.4
100
AcDbLine
 10
444.8024131064
 20
254.4212671999
 30
0.0
 11
448.9435178281
 21
238.9664539793
 31
0.0
  0
CIRCLE
  5
234
330
1A9
100
AcDbEntity
  8
DV2_Default
  6
Continuous
 62
     7
 48
25.4
100
AcDbCircle
 10
446.8729654672
 20
246.6938605896
 30
0.0
 40
8.0
  0
CIRCLE
  5
235
330
1A9
100
AcDbEntity
  8
DV2_Default
  6
Continuous
 62
     7
 48
25.4
100
AcDbCircle
 10
446.8729654672
 20
246.6938605896
 30
0.0
 40
6.4
  0
ARC
  5
236
330
1A9
100
AcDbEntity
  8
DV2_Default
  6
CENTER2
 62
     7
 48
25.4
100
AcDbCircle
 10
433.0623812206
 20
298.2356626804
 30
0.0
 40
53.36000000000001
100
AcDbArc
 50
276.4018625515
 51
293.5981374485
  0
CIRCLE
  5
237
330
1A9
100
AcDbEntity
  8
DV2_Default
  6
HIDDEN2
 62
     7
 48
25.4
100
AcDbCircle
 10
485.0239054476
 20
328.2356626804
 30
0.0
 40
2.4
  0
CIRCLE
  5
238
330
1A9
100
AcDbEntity
  8
DV2_Default
  6
HIDDEN2
 62
     7
 48
25.4
100
AcDbCircle
 10
485.0239054476
 20
328.2356626804
 30
0.0
 40
2.0
  0
CIRCLE
  5
239
330
1A9
100
AcDbEntity
  8
DV2_Default
  6
Continuous
 62
     7
 48
25.4
100
AcDbCircle
 10
467.0105770489
 20
317.8356626804
 30
0.0
 40
3.799999999999999
  0
CIRCLE
  5
23A
330
1A9
100
AcDbEntity
  8
DV2_Default
  6
Continuous
 62
     7
 48
25.4
100
AcDbCircle
 10
467.0105770489
 20
317.8356626804
 30
0.0
 40
3.4
  0
LINE
  5
23B
330
1A9
100
AcDbEntity
  8
DV2_Default
  6
Continuous
 62
     7
 48
25.4
100
AcDbLine
 10
468.396217695
 20
318.6356626804
 30
0.0
 11
467.0105770489
 21
319.4356626804
 31
0.0
  0
LINE
  5
23C
330
1A9
100
AcDbEntity
  8
DV2_Default
  6
Continuous
 62
     7
 48
25.4
100
AcDbLine
 10
467.0105770489
 20
319.4356626804
 30
0.0
 11
465.6249364029
 21
318.6356626804
 31
0.0
  0
LINE
  5
23D
330
1A9
100
AcDbEntity
  8
DV2_Default
  6
Continuous
 62
     7
 48
25.4
100
AcDbLine
 10
465.6249364029
 20
318.6356626804
 30
0.0
 11
465.6249364029
 21
317.0356626804
 31
0.0
  0
LINE
  5
23E
330
1A9
100
AcDbEntity
  8
DV2_Default
  6
Continuous
 62
     7
 48
25.4
100
AcDbLine
 10
465.6249364029
 20
317.0356626804
 30
0.0
 11
467.0105770489
 21
316.2356626804
 31
0.0
  0
LINE
  5
23F
330
1A9
100
AcDbEntity
  8
DV2_Default
  6
Continuous
 62
     7
 48
25.4
100
AcDbLine
 10
467.0105770489
 20
316.2356626804
 30
0.0
 11
468.396217695
 21
317.0356626804
 31
0.0
  0
LINE
  5
240
330
1A9
100
AcDbEntity
  8
DV2_Default
  6
Continuous
 62
     7
 48
25.4
100
AcDbLine
 10
468.396217695
 20
317.0356626804
 30
0.0
 11
468.396217695
 21
318.6356626804
 31
0.0
  0
LINE
  5
241
330
1A9
100
AcDbEntity
  8
DV2_Default
  6
CENTER2
 62
     7
 48
25.4
100
AcDbLine
 10
463.7196805145
 20
315.9356626804
 30
0.0
 11
470.3014735833
 21
319.7356626804
 31
0.0
  0
ARC
  5
242
330
1A9
100
AcDbEntity
  8
DV2_Default
  6
CENTER2
 62
     7
 48
25.4
100
AcDbCircle
 10
433.0623812206
 20
298.2356626804
 30
0.0
 40
39.2
100
AcDbArc
 50
24.4436402664
 51
35.5563597336
  0
LINE
  5
243
330
1A9
100
AcDbEntity
  8
DV2_Default
  6
CENTER2
 62
     7
 48
25.4
100
AcDbLine
 10
482.9454444785
 20
327.0356626804
 30
0.0
 11
487.1023664167
 21
329.4356626804
 31
0.0
  0
LINE
  5
244
330
1A9
100
AcDbEntity
  8
DV2_Default
  6
CENTER2
 62
     7
 48
25.4
100
AcDbLine
 10
476.876776701
 20
309.9756945662
 30
0.0
 11
492.3315899217
 21
314.1167992878
 31
0.0
  0
CIRCLE
  5
245
330
1A9
100
AcDbEntity
  8
DV2_Default
  6
Continuous
 62
     7
 48
25.4
100
AcDbCircle
 10
484.6041833113
 20
312.046246927
 30
0.0
 40
8.0
  0
CIRCLE
  5
246
330
1A9
100
AcDbEntity
  8
DV2_Default
  6
Continuous
 62
     7
 48
25.4
100
AcDbCircle
 10
484.6041833113
 20
312.046246927
 30
0.0
 40
6.4
  0
ARC
  5
247
330
1A9
100
AcDbEntity
  8
DV2_Default
  6
CENTER2
 62
     7
 48
25.4
100
AcDbCircle
 10
433.0623812206
 20
298.2356626804
 30
0.0
 40
53.36000000000001
100
AcDbArc
 50
6.4018625515
 51
23.5981374485
  0
LINE
  5
248
330
1A9
100
AcDbEntity
  8
DV2_Default
  6
CENTER2
 62
     7
 48
25.4
100
AcDbLine
 10
465.1367448152
 20
330.310026275
 30
0.0
 11
476.4504533142
 21
341.623734774
 31
0.0
  0
CIRCLE
  5
249
330
1A9
100
AcDbEntity
  8
DV2_Default
  6
Continuous
 62
     7
 48
25.4
100
AcDbCircle
 10
470.7935990647
 20
335.9668805245
 30
0.0
 40
8.0
  0
CIRCLE
  5
24A
330
1A9
100
AcDbEntity
  8
DV2_Default
  6
Continuous
 62
     7
 48
25.4
100
AcDbCircle
 10
470.7935990647
 20
335.9668805245
 30
0.0
 40
6.4
  0
ARC
  5
24B
330
1A9
100
AcDbEntity
  8
DV2_Default
  6
CENTER2
 62
     7
 48
25.4
100
AcDbCircle
 10
433.0623812206
 20
298.2356626804
 30
0.0
 40
53.36000000000001
100
AcDbArc
 50
36.4018625515
 51
53.5981374485
  0
CIRCLE
  5
24C
330
1A9
100
AcDbEntity
  8
DV2_Default
  6
HIDDEN2
 62
     7
 48
25.4
100
AcDbCircle
 10
381.1008569935
 20
328.2356626804
 30
0.0
 40
2.4
  0
CIRCLE
  5
24D
330
1A9
100
AcDbEntity
  8
DV2_Default
  6
HIDDEN2
 62
     7
 48
25.4
100
AcDbCircle
 10
381.1008569935
 20
328.2356626804
 30
0.0
 40
2.0
  0
CIRCLE
  5
24E
330
1A9
100
AcDbEntity
  8
DV2_Default
  6
Continuous
 62
     7
 48
25.4
100
AcDbCircle
 10
399.1141853922
 20
317.8356626804
 30
0.0
 40
3.799999999999999
  0
CIRCLE
  5
24F
330
1A9
100
AcDbEntity
  8
DV2_Default
  6
Continuous
 62
     7
 48
25.4
100
AcDbCircle
 10
399.1141853922
 20
317.8356626804
 30
0.0
 40
3.4
  0
LINE
  5
250
330
1A9
100
AcDbEntity
  8
DV2_Default
  6
Continuous
 62
     7
 48
25.4
100
AcDbLine
 10
397.7285447462
 20
318.6356626804
 30
0.0
 11
397.7285447462
 21
317.0356626804
 31
0.0
  0
LINE
  5
251
330
1A9
100
AcDbEntity
  8
DV2_Default
  6
Continuous
 62
     7
 48
25.4
100
AcDbLine
 10
397.7285447462
 20
317.0356626804
 30
0.0
 11
399.1141853922
 21
316.2356626804
 31
0.0
  0
LINE
  5
252
330
1A9
100
AcDbEntity
  8
DV2_Default
  6
Continuous
 62
     7
 48
25.4
100
AcDbLine
 10
399.1141853922
 20
316.2356626804
 30
0.0
 11
400.4998260383
 21
317.0356626804
 31
0.0
  0
LINE
  5
253
330
1A9
100
AcDbEntity
  8
DV2_Default
  6
Continuous
 62
     7
 48
25.4
100
AcDbLine
 10
400.4998260383
 20
317.0356626804
 30
0.0
 11
400.4998260383
 21
318.6356626804
 31
0.0
  0
LINE
  5
254
330
1A9
100
AcDbEntity
  8
DV2_Default
  6
Continuous
 62
     7
 48
25.4
100
AcDbLine
 10
400.4998260383
 20
318.6356626804
 30
0.0
 11
399.1141853922
 21
319.4356626804
 31
0.0
  0
LINE
  5
255
330
1A9
100
AcDbEntity
  8
DV2_Default
  6
Continuous
 62
     7
 48
25.4
100
AcDbLine
 10
399.1141853922
 20
319.4356626804
 30
0.0
 11
397.7285447462
 21
318.6356626804
 31
0.0
  0
LINE
  5
256
330
1A9
100
AcDbEntity
  8
DV2_Default
  6
CENTER2
 62
     7
 48
25.4
100
AcDbLine
 10
402.4050819266
 20
315.9356626804
 30
0.0
 11
395.8232888578
 21
319.7356626804
 31
0.0
  0
ARC
  5
257
330
1A9
100
AcDbEntity
  8
DV2_Default
  6
CENTER2
 62
     7
 48
25.4
100
AcDbCircle
 10
433.0623812206
 20
298.2356626804
 30
0.0
 40
39.2
100
AcDbArc
 50
144.4436402664
 51
155.5563597336
  0
LINE
  5
258
330
1A9
100
AcDbEntity
  8
DV2_Default
  6
CENTER2
 62
     7
 48
25.4
100
AcDbLine
 10
383.1793179626
 20
327.0356626804
 30
0.0
 11
379.0223960244
 21
329.4356626804
 31
0.0
  0
LINE
  5
259
330
1A9
100
AcDbEntity
  8
DV2_Default
  6
CENTER2
 62
     7
 48
25.4
100
AcDbLine
 10
400.9880176259
 20
330.310026275
 30
0.0
 11
389.674309127
 21
341.623734774
 31
0.0
  0
CIRCLE
  5
25A
330
1A9
100
AcDbEntity
  8
DV2_Default
  6
Continuous
 62
     7
 48
25.4
100
AcDbCircle
 10
395.3311633764
 20
335.9668805245
 30
0.0
 40
8.0
  0
CIRCLE
  5
25B
330
1A9
100
AcDbEntity
  8
DV2_Default
  6
Continuous
 62
     7
 48
25.4
100
AcDbCircle
 10
395.3311633764
 20
335.9668805245
 30
0.0
 40
6.4
  0
ARC
  5
25C
330
1A9
100
AcDbEntity
  8
DV2_Default
  6
CENTER2
 62
     7
 48
25.4
100
AcDbCircle
 10
433.0623812206
 20
298.2356626804
 30
0.0
 40
53.36000000000001
100
AcDbArc
 50
126.4018625515
 51
143.5981374485
  0
LINE
  5
25D
330
1A9
100
AcDbEntity
  8
DV2_Default
  6
CENTER2
 62
     7
 48
25.4
100
AcDbLine
 10
389.2479857401
 20
309.9756945662
 30
0.0
 11
373.7931725195
 21
314.1167992878
 31
0.0
  0
CIRCLE
  5
25E
330
1A9
100
AcDbEntity
  8
DV2_Default
  6
Continuous
 62
     7
 48
25.4
100
AcDbCircle
 10
381.5205791298
 20
312.046246927
 30
0.0
 40
8.0
  0
CIRCLE
  5
25F
330
1A9
100
AcDbEntity
  8
DV2_Default
  6
Continuous
 62
     7
 48
25.4
100
AcDbCircle
 10
381.5205791298
 20
312.046246927
 30
0.0
 40
6.4
  0
ARC
  5
260
330
1A9
100
AcDbEntity
  8
DV2_Default
  6
CENTER2
 62
     7
 48
25.4
100
AcDbCircle
 10
433.0623812206
 20
298.2356626804
 30
0.0
 40
53.36000000000001
100
AcDbArc
 50
156.4018625515
 51
173.5981374485
  0
ARC
  5
261
330
1A9
100
AcDbEntity
  8
DV2_Default
  6
Continuous
 62
     7
 48
25.4
100
AcDbCircle
 10
433.0623812206
 20
298.2356626804
 30
0.0
 40
60.0
100
AcDbArc
 50
259.5195135011
 51
280.4804864989
  0
ARC
  5
262
330
1A9
100
AcDbEntity
  8
DV2_Default
  6
Continuous
 62
     7
 48
25.4
100
AcDbCircle
 10
433.0623812206
 20
298.2356626804
 30
0.0
 40
52.00000000000001
100
AcDbArc
 50
263.5830406391
 51
276.4169593609
  0
ARC
  5
263
330
1A9
100
AcDbEntity
  8
DV2_Default
  6
Continuous
 62
     7
 48
25.4
100
AcDbCircle
 10
433.0623812206
 20
298.2356626804
 30
0.0
 40
52.00000000000001
100
AcDbArc
 50
53.5830406391
 51
74.3815017244
  0
ARC
  5
264
330
1A9
100
AcDbEntity
  8
DV2_Default
  6
Continuous
 62
     7
 48
25.4
100
AcDbCircle
 10
433.0623812206
 20
298.2356626804
 30
0.0
 40
60.0
100
AcDbArc
 50
343.8018337219
 51
10.4804864989
  0
ARC
  5
265
330
1A9
100
AcDbEntity
  8
DV2_Default
  6
Continuous
 62
     7
 48
25.4
100
AcDbCircle
 10
433.0623812206
 20
298.2356626804
 30
0.0
 40
52.00000000000001
100
AcDbArc
 50
23.5830406391
 51
36.4169593609
  0
ARC
  5
266
330
1A9
100
AcDbEntity
  8
DV2_Default
  6
Continuous
 62
     7
 48
25.4
100
AcDbCircle
 10
433.0623812206
 20
298.2356626804
 30
0.0
 40
60.0
100
AcDbArc
 50
19.5195135011
 51
40.4804864989
  0
ARC
  5
267
330
1A9
100
AcDbEntity
  8
DV2_Default
  6
Continuous
 62
     7
 48
25.4
100
AcDbCircle
 10
433.0623812206
 20
298.2356626804
 30
0.0
 40
60.0
100
AcDbArc
 50
49.5195135011
 51
76.5066011784
  0
ARC
  5
268
330
1A9
100
AcDbEntity
  8
DV2_Default
  6
Continuous
 62
     7
 48
25.4
100
AcDbCircle
 10
433.0623812206
 20
298.2356626804
 30
0.0
 40
52.00000000000001
100
AcDbArc
 50
105.6184982756
 51
126.4169593609
  0
ARC
  5
269
330
1A9
100
AcDbEntity
  8
DV2_Default
  6
Continuous
 62
     7
 48
25.4
100
AcDbCircle
 10
433.0623812206
 20
298.2356626804
 30
0.0
 40
60.0
100
AcDbArc
 50
139.5195135011
 51
160.4804864989
  0
ARC
  5
26A
330
1A9
100
AcDbEntity
  8
DV2_Default
  6
Continuous
 62
     7
 48
25.4
100
AcDbCircle
 10
433.0623812206
 20
298.2356626804
 30
0.0
 40
52.00000000000001
100
AcDbArc
 50
143.5830406391
 51
156.4169593609
  0
ARC
  5
26B
330
1A9
100
AcDbEntity
  8
DV2_Default
  6
Continuous
 62
     7
 48
25.4
100
AcDbCircle
 10
433.0623812206
 20
298.2356626804
 30
0.0
 40
60.0
100
AcDbArc
 50
103.4933988216
 51
130.4804864989
  0
ARC
  5
26C
330
1A9
100
AcDbEntity
  8
DV2_Default
  6
Continuous
 62
     7
 48
25.4
100
AcDbCircle
 10
433.0623812206
 20
298.2356626804
 30
0.0
 40
60.0
100
AcDbArc
 50
86.2836553204
 51
93.7163446796
  0
ARC
  5
26D
330
1A9
100
AcDbEntity
  8
DV2_Default
  6
Continuous
 62
     7
 48
25.4
100
AcDbCircle
 10
433.0623812206
 20
298.2356626804
 30
0.0
 40
60.0
100
AcDbArc
 50
169.5195135011
 51
196.0287220249
  0
ARC
  5
26E
330
1A9
100
AcDbEntity
  8
DV2_Default
  6
Continuous
 62
     7
 48
25.4
100
AcDbCircle
 10
433.0623812206
 20
298.2356626804
 30
0.0
 40
60.0
100
AcDbArc
 50
204.1782047016
 51
215.6564989149
  0
ARC
  5
26F
330
1A9
100
AcDbEntity
  8
DV2_Default
  6
Continuous
 62
     7
 48
25.4
100
AcDbCircle
 10
433.0623812206
 20
298.2356626804
 30
0.0
 40
60.0
100
AcDbArc
 50
289.5195135011
 51
316.0287220249
  0
ARC
  5
270
330
1A9
100
AcDbEntity
  8
DV2_Default
  6
Continuous
 62
     7
 48
25.4
100
AcDbCircle
 10
433.0623812206
 20
298.2356626804
 30
0.0
 40
60.0
100
AcDbArc
 50
324.1782047016
 51
335.6564989149
  0
LINE
  5
271
330
1A9
100
AcDbEntity
  8
DV2_Default
  6
CENTER2
 62
     7
 48
25.4
100
AcDbLine
 10
433.0623812206
 20
298.2356626804
 30
0.0
 11
511.8922720385
 21
252.7232039964
 31
0.0
  0
ENDBLK
  5
273
330
1A9
100
AcDbEntity
  8
0
100
AcDbBlockEnd
  0
BLOCK
  5
314
330
274
100
AcDbEntity
  8
0
100
AcDbBlockBegin
  2
SE2
 70
     0
 71
     0
 10
0.0
 20
0.0
 30
0.0
  3
SE2
  1

  0
LINE
  5
277
330
274
100
AcDbEntity
  8
DV3_Default
  6
Continuous
 62
     7
 48
25.4
100
AcDbLine
 10
204.5042891863
 20
147.7626158171
 30
0.0
 11
204.5042891863
 21
157.9126158171
 31
0.0
  0
LINE
  5
278
330
274
100
AcDbEntity
  8
DV3_Default
  6
Continuous
 62
     7
 48
25.4
100
AcDbLine
 10
206.6042891863
 20
160.0126158171
 30
0.0
 11
210.1042891863
 21
160.0126158171
 31
0.0
  0
LINE
  5
279
330
274
100
AcDbEntity
  8
DV3_Default
  6
Continuous
 62
     7
 48
25.4
100
AcDbLine
 10
204.5042891863
 20
147.7626158171
 30
0.0
 11
206.6042891863
 21
145.6626158171
 31
0.0
  0
LINE
  5
27A
330
274
100
AcDbEntity
  8
DV3_Default
  6
Continuous
 62
     7
 48
25.4
100
AcDbLine
 10
206.6042891863
 20
160.0126158171
 30
0.0
 11
204.5042891863
 21
157.9126158171
 31
0.0
  0
LINE
  5
27B
330
274
100
AcDbEntity
  8
DV3_Default
  6
Continuous
 62
     7
 48
25.4
100
AcDbLine
 10
210.4542891863
 20
147.6576158171
 30
0.0
 11
210.4542891863
 21
146.0126158171
 31
0.0
  0
ARC
  5
27C
330
274
100
AcDbEntity
  8
DV3_Default
  6
Continuous
 62
     7
 48
25.4
100
AcDbCircle
 10
210.7342891863
 20
147.6576158171
 30
0.0
 40
0.2800000000000008
100
AcDbArc
 50
90.0
 51
180.0
  0
ARC
  5
27D
330
274
100
AcDbEntity
  8
DV3_Default
  6
Continuous
 62
     7
 48
25.4
100
AcDbCircle
 10
210.7342891863
 20
158.0176158171
 30
0.0
 40
0.2800000000000008
100
AcDbArc
 50
180.0
 51
270.0
  0
LINE
  5
27E
330
274
100
AcDbEntity
  8
DV3_Default
  6
Continuous
 62
     7
 48
25.4
100
AcDbLine
 10
210.4542891863
 20
159.6626158171
 30
0.0
 11
210.4542891863
 21
158.0176158171
 31
0.0
  0
LINE
  5
27F
330
274
100
AcDbEntity
  8
DV3_Default
  6
Continuous
 62
     7
 48
25.4
100
AcDbLine
 10
210.1042891863
 20
145.6626158171
 30
0.0
 11
206.6042891863
 21
145.6626158171
 31
0.0
  0
LINE
  5
280
330
274
100
AcDbEntity
  8
DV3_Default
  6
Continuous
 62
     7
 48
25.4
100
AcDbLine
 10
210.1042891863
 20
145.6626158171
 30
0.0
 11
210.4542891863
 21
146.0126158171
 31
0.0
  0
LINE
  5
281
330
274
100
AcDbEntity
  8
DV3_Default
  6
Continuous
 62
     7
 48
25.4
100
AcDbLine
 10
210.4542891863
 20
159.6626158171
 30
0.0
 11
210.1042891863
 21
160.0126158171
 31
0.0
  0
LINE
  5
282
330
274
100
AcDbEntity
  8
DV3_Default
  6
Continuous
 62
     7
 48
25.4
100
AcDbLine
 10
218.7142891863
 20
147.9376158171
 30
0.0
 11
218.7142891863
 21
157.7376158171
 31
0.0
  0
LINE
  5
283
330
274
100
AcDbEntity
  8
DV3_Default
  6
Continuous
 62
     7
 48
25.4
100
AcDbLine
 10
210.4542891863
 20
159.6626158171
 30
0.0
 11
206.6360286258
 21
159.6626158171
 31
0.0
  0
LINE
  5
284
330
274
100
AcDbEntity
  8
DV3_Default
  6
Continuous
 62
     7
 48
25.4
100
AcDbLine
 10
210.4542891863
 20
146.0126158171
 30
0.0
 11
206.6360286258
 21
146.0126158171
 31
0.0
  0
LINE
  5
285
330
274
100
AcDbEntity
  8
DV3_Default
  6
Continuous
 62
     7
 48
25.4
100
AcDbLine
 10
204.7045671346
 20
147.9553103809
 30
0.0
 11
204.7045671346
 21
157.7467471073
 31
0.0
  0
LINE
  5
286
330
274
100
AcDbEntity
  8
DV3_Default
  6
Continuous
 62
     7
 48
25.4
100
AcDbLine
 10
204.7045671346
 20
147.9553103809
 30
0.0
 11
206.6360286258
 21
146.0126158171
 31
0.0
  0
LINE
  5
287
330
274
100
AcDbEntity
  8
DV3_Default
  6
CENTER2
 62
     7
 48
25.4
100
AcDbLine
 10
221.1642884938
 20
152.8357737596
 30
0.0
 11
199.9510094654
 21
152.8517231843
 31
0.0
  0
LINE
  5
288
330
274
100
AcDbEntity
  8
DV3_Default
  6
Continuous
 62
     7
 48
25.4
100
AcDbLine
 10
216.6142891863
 20
159.1376158171
 30
0.0
 11
216.6142891863
 21
163.6876158171
 31
0.0
  0
LINE
  5
289
330
274
100
AcDbEntity
  8
DV3_Default
  6
Continuous
 62
     7
 48
25.4
100
AcDbLine
 10
215.2142891863
 20
165.0876158171
 30
0.0
 11
206.747318063
 21
165.0876158171
 31
0.0
  0
LINE
  5
28A
330
274
100
AcDbEntity
  8
DV3_Default
  6
Continuous
 62
     7
 48
25.4
100
AcDbLine
 10
216.6142891863
 20
146.5376158171
 30
0.0
 11
216.6142891863
 21
141.9844266257
 31
0.0
  0
LINE
  5
28B
330
274
100
AcDbEntity
  8
DV3_Default
  6
Continuous
 62
     7
 48
25.4
100
AcDbLine
 10
215.2142891863
 20
165.0876158171
 30
0.0
 11
216.6142891863
 21
163.6876158171
 31
0.0
  0
LINE
  5
28C
330
274
100
AcDbEntity
  8
DV3_Default
  6
Continuous
 62
     7
 48
25.4
100
AcDbLine
 10
215.2111144591
 20
140.5876158171
 30
0.0
 11
216.6142891863
 21
141.9844266257
 31
0.0
  0
LINE
  5
28D
330
274
100
AcDbEntity
  8
DV3_Default
  6
Continuous
 62
     7
 48
25.4
100
AcDbLine
 10
410.251586878
 20
143.7845490664
 30
0.0
 11
270.251586878
 21
143.7845490664
 31
0.0
  0
LINE
  5
28E
330
274
100
AcDbEntity
  8
DV3_Default
  6
Continuous
 62
     7
 48
25.4
100
AcDbLine
 10
410.251586878
 20
143.7845490664
 30
0.0
 11
410.251586878
 21
36.6845490664
 31
0.0
  0
LINE
  5
28F
330
274
100
AcDbEntity
  8
DV3_Default
  6
Continuous
 62
     7
 48
25.4
100
AcDbLine
 10
410.251586878
 20
36.6845490664
 30
0.0
 11
270.251586878
 21
36.6845490664
 31
0.0
  0
LINE
  5
290
330
274
100
AcDbEntity
  8
DV3_Default
  6
Continuous
 62
     7
 48
25.4
100
AcDbLine
 10
270.251586878
 20
36.6845490664
 30
0.0
 11
270.251586878
 21
143.7845490664
 31
0.0
  0
TEXT
  5
291
330
274
100
AcDbEntity
  8
DV3_Default
  6
Continuous
 62
     7
 48
25.4
100
AcDbText
 10
268.611562411
 20
31.0639171415
 30
0.0
 40
3.5
  1
0
  7
SEACAD_arial_ttf
 11
268.611562411
 21
34.5639171415
 31
0.0
100
AcDbText
 73
     3
  0
TEXT
  5
292
330
274
100
AcDbEntity
  8
DV3_Default
  6
Continuous
 62
     7
 48
25.4
100
AcDbText
 10
294.1350778365
 20
30.6238810992
 30
0.0
 40
3.5
  1
1000
  7
SEACAD_arial_ttf
 11
294.1350778365
 21
34.1238810992
 31
0.0
100
AcDbText
 73
     3
  0
TEXT
  5
293
330
274
100
AcDbEntity
  8
DV3_Default
  6
Continuous
 62
     7
 48
25.4
100
AcDbText
 10
323.7058882356
 20
30.5651268775
 30
0.0
 40
3.5
  1
2000
  7
SEACAD_arial_ttf
 11
323.7058882356
 21
34.0651268775
 31
0.0
100
AcDbText
 73
     3
  0
TEXT
  5
294
330
274
100
AcDbEntity
  8
DV3_Default
  6
Continuous
 62
     7
 48
25.4
100
AcDbText
 10
353.2380122852
 20
30.5612550413
 30
0.0
 40
3.5
  1
3000
  7
SEACAD_arial_ttf
 11
353.2380122852
 21
34.0612550413
 31
0.0
100
AcDbText
 73
     3
  0
TEXT
  5
295
330
274
100
AcDbEntity
  8
DV3_Default
  6
Continuous
 62
     7
 48
25.4
100
AcDbText
 10
382.6932115247
 20
30.929474898
 30
0.0
 40
3.5
  1
4000
  7
SEACAD_arial_ttf
 11
382.6932115247
 21
34.429474898
 31
0.0
100
AcDbText
 73
     3
  0
TEXT
  5
296
330
274
100
AcDbEntity
  8
DV3_Default
  6
Continuous
 62
     7
 48
25.4
100
AcDbText
 10
405.1167128736
 20
31.0228993907
 30
0.0
 40
3.5
  1
4760
  7
SEACAD_arial_ttf
 11
405.1167128736
 21
34.5228993907
 31
0.0
100
AcDbText
 73
     3
  0
TEXT
  5
297
330
274
100
AcDbEntity
  8
DV3_Default
  6
Continuous
 62
     7
 48
25.4
100
AcDbText
 10
263.6506988586
 20
48.0555611549
 30
0.0
 40
3.5
  1
10
  7
SEACAD_arial_ttf
 11
263.6506988586
 21
51.5555611549
 31
0.0
100
AcDbText
 73
     3
  0
TEXT
  5
298
330
274
100
AcDbEntity
  8
DV3_Default
  6
Continuous
 62
     7
 48
25.4
100
AcDbText
 10
263.6692520133
 20
61.5256418453
 30
0.0
 40
3.5
  1
20
  7
SEACAD_arial_ttf
 11
263.6692520133
 21
65.0256418453
 31
0.0
100
AcDbText
 73
     3
  0
TEXT
  5
299
330
274
100
AcDbEntity
  8
DV3_Default
  6
Continuous
 62
     7
 48
25.4
100
AcDbText
 10
263.6213848682
 20
74.8794374684
 30
0.0
 40
3.5
  1
30
  7
SEACAD_arial_ttf
 11
263.6213848682
 21
78.3794374684
 31
0.0
100
AcDbText
 73
     3
  0
TEXT
  5
29A
330
274
100
AcDbEntity
  8
DV3_Default
  6
Continuous
 62
     7
 48
25.4
100
AcDbText
 10
263.6765112519
 20
88.4195020774
 30
0.0
 40
3.5
  1
40
  7
SEACAD_arial_ttf
 11
263.6765112519
 21
91.9195020774
 31
0.0
100
AcDbText
 73
     3
  0
TEXT
  5
29B
330
274
100
AcDbEntity
  8
DV3_Default
  6
Continuous
 62
     7
 48
25.4
100
AcDbText
 10
263.6221832246
 20
101.9456956814
 30
0.0
 40
3.5
  1
50
  7
SEACAD_arial_ttf
 11
263.6221832246
 21
105.4456956814
 31
0.0
100
AcDbText
 73
     3
  0
TEXT
  5
29C
330
274
100
AcDbEntity
  8
DV3_Default
  6
Continuous
 62
     7
 48
25.4
100
AcDbText
 10
263.5746116812
 20
115.0648814041
 30
0.0
 40
3.5
  1
60
  7
SEACAD_arial_ttf
 11
263.5746116812
 21
118.5648814041
 31
0.0
100
AcDbText
 73
     3
  0
TEXT
  5
29D
330
274
100
AcDbEntity
  8
DV3_Default
  6
Continuous
 62
     7
 48
25.4
100
AcDbText
 10
263.6169183442
 20
128.4478839819
 30
0.0
 40
3.5
  1
70
  7
SEACAD_arial_ttf
 11
263.6169183442
 21
131.9478839819
 31
0.0
100
AcDbText
 73
     3
  0
TEXT
  5
29E
330
274
100
AcDbEntity
  8
DV3_Default
  6
Continuous
 62
     7
 48
25.4
100
AcDbText
 10
263.5350898642
 20
141.465132587
 30
0.0
 40
3.5
  1
80
  7
SEACAD_arial_ttf
 11
263.5350898642
 21
144.965132587
 31
0.0
100
AcDbText
 73
     3
  0
TEXT
  5
29F
330
274
100
AcDbEntity
  8
DV3_Default
  6
Continuous
 62
     7
 48
25.4
100
AcDbText
 10
300.1048189701
 20
137.1200335565
 30
0.0
 40
4.2
  1
Input Force
  7
SEACAD_arial_ttf
 11
300.1048189701
 21
141.3200335565
 31
0.0
100
AcDbText
 73
     3
  0
TEXT
  5
2A0
330
274
100
AcDbEntity
  8
DV3_Default
  6
Continuous
 62
     7
 48
25.4
100
AcDbText
 10
314.8891675446
 20
130.6957168519
 30
0.0
 40
3.5
  1
25kN
  7
SEACAD_arial_ttf
 11
314.8891675446
 21
134.1957168519
 31
0.0
100
AcDbText
 73
     3
  0
TEXT
  5
2A1
330
274
100
AcDbEntity
  8
DV3_Default
  6
Continuous
 62
     7
 48
25.4
100
AcDbText
 10
314.6777426764
 20
121.6105646894
 30
0.0
 40
3.5
  1
23kN
  7
SEACAD_arial_ttf
 11
314.6777426764
 21
125.1105646894
 31
0.0
100
AcDbText
 73
     3
  0
TEXT
  5
2A2
330
274
100
AcDbEntity
  8
DV3_Default
  6
Continuous
 62
     7
 48
25.4
100
AcDbText
 10
314.6777426764
 20
112.2227509281
 30
0.0
 40
3.5
  1
21kN
  7
SEACAD_arial_ttf
 11
314.6777426764
 21
115.7227509281
 31
0.0
100
AcDbText
 73
     3
  0
TEXT
  5
2A3
330
274
100
AcDbEntity
  8
DV3_Default
  6
Continuous
 62
     7
 48
25.4
100
AcDbText
 10
314.4561972344
 20
103.5622005371
 30
0.0
 40
3.5
  1
19kN
  7
SEACAD_arial_ttf
 11
314.4561972344
 21
107.0622005371
 31
0.0
100
AcDbText
 73
     3
  0
TEXT
  5
2A4
330
274
100
AcDbEntity
  8
DV3_Default
  6
Continuous
 62
     7
 48
25.4
100
AcDbText
 10
314.3752269805
 20
94.9741146443
 30
0.0
 40
3.5
  1
17kN
  7
SEACAD_arial_ttf
 11
314.3752269805
 21
98.4741146443
 31
0.0
100
AcDbText
 73
     3
  0
TEXT
  5
2A5
330
274
100
AcDbEntity
  8
DV3_Default
  6
Continuous
 62
     7
 48
25.4
100
AcDbText
 10
314.3320000309
 20
86.5047423098
 30
0.0
 40
3.5
  1
15kN
  7
SEACAD_arial_ttf
 11
314.3320000309
 21
90.0047423098
 31
0.0
100
AcDbText
 73
     3
  0
TEXT
  5
2A6
330
274
100
AcDbEntity
  8
DV3_Default
  6
Continuous
 62
     7
 48
25.4
100
AcDbText
 10
314.4020759457
 20
78.934489923
 30
0.0
 40
3.5
  1
13kN
  7
SEACAD_arial_ttf
 11
314.4020759457
 21
82.434489923
 31
0.0
100
AcDbText
 73
     3
  0
TEXT
  5
2A7
330
274
100
AcDbEntity
  8
DV3_Default
  6
Continuous
 62
     7
 48
25.4
100
AcDbText
 10
314.5262731492
 20
71.7309950946
 30
0.0
 40
3.5
  1
11kN
  7
SEACAD_arial_ttf
 11
314.5262731492
 21
75.2309950946
 31
0.0
100
AcDbText
 73
     3
  0
TEXT
  5
2A8
330
274
100
AcDbEntity
  8
DV3_Default
  6
Continuous
 62
     7
 48
25.4
100
AcDbText
 10
317.5899797571
 20
64.5520513246
 30
0.0
 40
3.5
  1
9kN
  7
SEACAD_arial_ttf
 11
317.5899797571
 21
68.0520513246
 31
0.0
100
AcDbText
 73
     3
  0
TEXT
  5
2A9
330
274
100
AcDbEntity
  8
DV3_Default
  6
Continuous
 62
     7
 48
25.4
100
AcDbText
 10
327.7672819555
 20
17.738196888
 30
0.0
 40
4.2
  1
Speed in min-
  7
SEACAD_arial_ttf
 11
327.7672819555
 21
21.938196888
 31
0.0
100
AcDbText
 73
     3
  0
TEXT
  5
2AA
330
274
100
AcDbEntity
  8
DV3_Default
  6
Continuous
 62
     7
 48
25.4
100
AcDbText
 10
364.1977167381
 20
17.738196888
 30
0.0
 40
3.2102777778
  1
¹
  7
SEACAD_arial_ttf
 11
364.1977167381
 21
20.9484746658
 31
0.0
100
AcDbText
 73
     3
  0
TEXT
  5
2AB
330
274
100
AcDbEntity
  8
DV3_Default
  6
Continuous
 62
     7
 48
25.4
100
AcDbText
 10
223.7958175949
 20
96.4788082357
 30
0.0
 40
4.2
  1
Total Gripping 
  7
SEACAD_arial_ttf
 11
223.7958175949
 21
100.6788082357
 31
0.0
100
AcDbText
 73
     3
  0
TEXT
  5
2AC
330
274
100
AcDbEntity
  8
DV3_Default
  6
Continuous
 62
     7
 48
25.4
100
AcDbText
 10
223.7958175949
 20
89.9048951922
 30
0.0
 40
4.2
  1
Force in kN
  7
SEACAD_arial_ttf
 11
223.7958175949
 21
94.1048951922
 31
0.0
100
AcDbText
 73
     3
  0
TEXT
  5
2AD
330
274
100
AcDbEntity
  8
DV3_Default
  6
Continuous
 62
     7
 48
25.4
100
AcDbText
 10
284.8416316083
 20
163.5019352305
 30
0.0
 40
4.2
  1
Gripping Characteristic Graph For N-08A6
  7
SEACAD_arial_ttf
 11
284.8416316083
 21
167.7019352305
 31
0.0
100
AcDbText
 73
     3
  0
LWPOLYLINE
  5
2AE
330
274
100
AcDbEntity
  8
DV3_Default
  6
Continuous
 62
     7
 48
25.4
100
AcDbPolyline
 90
        2
 70
     0
 43
0.0
 10
412.8930476108
 20
42.7020781997
 10
379.8852006207
 20
57.2133695513
  0
HATCH
  5
2AF
330
274
100
AcDbEntity
  8
DV3_Default
  6
Continuous
 62
     7
 48
25.4
100
AcDbHatch
 10
0.0
 20
0.0
 30
0.0
210
0.0
220
0.0
230
1.0
  2
SOLID
 70
     1
 71
     0
 91
        1
 92
        1
 93
        3
 72
     1
 10
384.0117650227027
 20
56.16386178509202
 11
379.8852006206919
 21
57.21336955125734
 72
     1
 10
379.8852006206919
 20
57.21336955125733
 11
383.4483265903243
 21
54.88224672315148
 72
     1
 10
383.4483265903243
 20
54.88224672315148
 11
384.0117650227028
 21
56.16386178509202
 97
        0
 75
     0
 76
     1
 98
        0
  0
LWPOLYLINE
  5
2B0
330
274
100
AcDbEntity
  8
DV3_Default
  6
Continuous
 62
     7
 48
25.4
370
    20
100
AcDbPolyline
 90
        4
 70
     1
 43
0.0
 10
384.0117650227
 20
56.1638617851
 10
379.8852006207
 20
57.2133695513
 10
383.4483265903
 20
54.8822467232
 10
384.0117650227
 20
56.1638617851
  0
LINE
  5
2B1
330
274
100
AcDbEntity
  8
DV3_Default
  6
Continuous
 62
     7
 48
25.4
100
AcDbLine
 10
412.8930476108
 20
42.7020781997
 30
0.0
 11
465.84956935
 21
42.7020781997
 31
0.0
  0
TEXT
  5
2B2
330
274
100
AcDbEntity
  8
DV3_Default
  6
Continuous
 62
     7
 48
25.4
100
AcDbText
 10
412.8930476108
 20
43.7520781997
 30
0.0
 40
4.2
  1
Gripping Force Limit
  7
SEACAD_arial_ttf
 11
412.8930476108
 21
47.9520781997
 31
0.0
100
AcDbText
 73
     3
  0
TEXT
  5
2B3
330
274
100
AcDbEntity
  8
DV3_Default
  6
Continuous
 62
     7
 48
25.4
100
AcDbText
 10
24.5892273825
 20
145.4533630054
 30
0.0
 40
3.5
  1
SPINDLE NOSE SIZE
  7
SEACAD_arial_ttf
 11
24.5892273825
 21
148.9533630054
 31
0.0
100
AcDbText
 73
     3
  0
TEXT
  5
2B4
330
274
100
AcDbEntity
  8
DV3_Default
  6
Continuous
 62
     7
 48
25.4
100
AcDbText
 10
130.2744176966
 20
145.4533630054
 30
0.0
 40
3.5
  1
A2-6
  7
SEACAD_arial_ttf
 11
130.2744176966
 21
148.9533630054
 31
0.0
100
AcDbText
 73
     3
  0
TEXT
  5
2B5
330
274
100
AcDbEntity
  8
DV3_Default
  6
Continuous
 62
     7
 48
25.4
100
AcDbText
 10
24.7757118967
 20
78.201740436
 30
0.0
 40
3.5
  1
TOTAL GRIPPING FORCE AT MAX. SPEED
  7
SEACAD_arial_ttf
 11
24.7757118967
 21
81.701740436
 31
0.0
100
AcDbText
 73
     3
  0
TEXT
  5
2B6
330
274
100
AcDbEntity
  8
DV3_Default
  6
Continuous
 62
     7
 48
25.4
100
AcDbText
 10
130.0423940227
 20
19.737506556
 30
0.0
 40
3.5
  1
SB08B1
  7
SEACAD_arial_ttf
 11
130.0423940227
 21
23.237506556
 31
0.0
100
AcDbText
 73
     3
  0
LINE
  5
2B7
330
274
100
AcDbEntity
  8
DV3_Default
  6
Continuous
 62
     7
 48
25.4
100
AcDbLine
 10
22.7340113103
 20
25.4110476619
 30
0.0
 11
190.7340113103
 21
25.4110476619
 31
0.0
  0
LINE
  5
2B8
330
274
100
AcDbEntity
  8
DV3_Default
  6
Continuous
 62
     7
 48
25.4
100
AcDbLine
 10
190.7340113103
 20
151.4110476619
 30
0.0
 11
22.7340113103
 21
151.4110476619
 31
0.0
  0
LINE
  5
2B9
330
274
100
AcDbEntity
  8
DV3_Default
  6
Continuous
 62
     7
 48
25.4
100
AcDbLine
 10
22.7340113103
 20
143.0110476619
 30
0.0
 11
190.7340113103
 21
143.0110476619
 31
0.0
  0
LINE
  5
2BA
330
274
100
AcDbEntity
  8
DV3_Default
  6
Continuous
 62
     7
 48
25.4
100
AcDbLine
 10
190.7340113103
 20
134.6110476619
 30
0.0
 11
22.7340113103
 21
134.6110476619
 31
0.0
  0
LINE
  5
2BB
330
274
100
AcDbEntity
  8
DV3_Default
  6
Continuous
 62
     7
 48
25.4
100
AcDbLine
 10
22.7340113103
 20
126.2110476619
 30
0.0
 11
190.7340113103
 21
126.2110476619
 31
0.0
  0
LINE
  5
2BC
330
274
100
AcDbEntity
  8
DV3_Default
  6
Continuous
 62
     7
 48
25.4
100
AcDbLine
 10
190.7340113103
 20
117.8110476619
 30
0.0
 11
22.7340113103
 21
117.8110476619
 31
0.0
  0
LINE
  5
2BD
330
274
100
AcDbEntity
  8
DV3_Default
  6
Continuous
 62
     7
 48
25.4
100
AcDbLine
 10
22.7340113103
 20
109.4110476619
 30
0.0
 11
190.7340113103
 21
109.4110476619
 31
0.0
  0
LINE
  5
2BE
330
274
100
AcDbEntity
  8
DV3_Default
  6
Continuous
 62
     7
 48
25.4
100
AcDbLine
 10
190.7340113103
 20
101.0110476619
 30
0.0
 11
22.7340113103
 21
101.0110476619
 31
0.0
  0
LINE
  5
2BF
330
274
100
AcDbEntity
  8
DV3_Default
  6
Continuous
 62
     7
 48
25.4
100
AcDbLine
 10
22.7340113103
 20
92.6110476619
 30
0.0
 11
190.7340113103
 21
92.6110476619
 31
0.0
  0
LINE
  5
2C0
330
274
100
AcDbEntity
  8
DV3_Default
  6
Continuous
 62
     7
 48
25.4
100
AcDbLine
 10
190.7340113103
 20
84.2110476619
 30
0.0
 11
22.7340113103
 21
84.2110476619
 31
0.0
  0
LINE
  5
2C1
330
274
100
AcDbEntity
  8
DV3_Default
  6
Continuous
 62
     7
 48
25.4
100
AcDbLine
 10
22.7340113103
 20
75.8110476619
 30
0.0
 11
190.7340113103
 21
75.8110476619
 31
0.0
  0
LINE
  5
2C2
330
274
100
AcDbEntity
  8
DV3_Default
  6
Continuous
 62
     7
 48
25.4
100
AcDbLine
 10
190.7340113103
 20
67.4110476619
 30
0.0
 11
22.7340113103
 21
67.4110476619
 31
0.0
  0
LINE
  5
2C3
330
274
100
AcDbEntity
  8
DV3_Default
  6
Continuous
 62
     7
 48
25.4
100
AcDbLine
 10
22.7340113103
 20
59.0110476619
 30
0.0
 11
190.7340113103
 21
59.0110476619
 31
0.0
  0
LINE
  5
2C4
330
274
100
AcDbEntity
  8
DV3_Default
  6
Continuous
 62
     7
 48
25.4
100
AcDbLine
 10
190.7340113103
 20
50.6110476619
 30
0.0
 11
22.7340113103
 21
50.6110476619
 31
0.0
  0
LINE
  5
2C5
330
274
100
AcDbEntity
  8
DV3_Default
  6
Continuous
 62
     7
 48
25.4
100
AcDbLine
 10
22.7340113103
 20
42.2110476619
 30
0.0
 11
190.7340113103
 21
42.2110476619
 31
0.0
  0
LINE
  5
2C6
330
274
100
AcDbEntity
  8
DV3_Default
  6
Continuous
 62
     7
 48
25.4
100
AcDbLine
 10
190.7340113103
 20
33.8110476619
 30
0.0
 11
22.7340113103
 21
33.8110476619
 31
0.0
  0
TEXT
  5
2C7
330
274
100
AcDbEntity
  8
DV3_Default
  6
Continuous
 62
     7
 48
25.4
100
AcDbText
 10
78.4826395859
 20
165.1250692086
 30
0.0
 40
4.2
  1
Specifications
  7
SEACAD_arial_ttf
 11
78.4826395859
 21
169.3250692086
 31
0.0
100
AcDbText
 73
     3
  0
TEXT
  5
2C8
330
274
100
AcDbEntity
  8
DV3_Default
  6
Continuous
 62
     7
 48
25.4
100
AcDbText
 10
24.5361955896
 20
137.1598939317
 30
0.0
 40
3.5
  1
MAX. GRIPPING RANGE
  7
SEACAD_arial_ttf
 11
24.5361955896
 21
140.6598939317
 31
0.0
100
AcDbText
 73
     3
  0
TEXT
  5
2C9
330
274
100
AcDbEntity
  8
DV3_Default
  6
Continuous
 62
     7
 48
25.4
100
AcDbText
 10
24.5361955896
 20
128.8061542786
 30
0.0
 40
3.5
  1
MIN. GRIPPING RANGE
  7
SEACAD_arial_ttf
 11
24.5361955896
 21
132.3061542786
 31
0.0
100
AcDbText
 73
     3
  0
TEXT
  5
2CA
330
274
100
AcDbEntity
  8
DV3_Default
  6
Continuous
 62
     7
 48
25.4
100
AcDbText
 10
24.6624589531
 20
120.3082556687
 30
0.0
 40
3.5
  1
JAW STROKE
  7
SEACAD_arial_ttf
 11
24.6624589531
 21
123.8082556687
 31
0.0
100
AcDbText
 73
     3
  0
TEXT
  5
2CB
330
274
100
AcDbEntity
  8
DV3_Default
  6
Continuous
 62
     7
 48
25.4
100
AcDbText
 10
24.5000377225
 20
112.0427990925
 30
0.0
 40
3.5
  1
PLUNGER STROKE
  7
SEACAD_arial_ttf
 11
24.5000377225
 21
115.5427990925
 31
0.0
100
AcDbText
 73
     3
  0
TEXT
  5
2CC
330
274
100
AcDbEntity
  8
DV3_Default
  6
Continuous
 62
     7
 48
25.4
100
AcDbText
 10
24.5098613834
 20
103.3531395286
 30
0.0
 40
3.5
  1
MAX. DRAW BAR PULL FORCE
  7
SEACAD_arial_ttf
 11
24.5098613834
 21
106.8531395286
 31
0.0
100
AcDbText
 73
     3
  0
TEXT
  5
2CD
330
274
100
AcDbEntity
  8
DV3_Default
  6
Continuous
 62
     7
 48
25.4
100
AcDbText
 10
24.5327533988
 20
95.2784753533
 30
0.0
 40
3.5
  1
MAX. GRIPPING FORCE
  7
SEACAD_arial_ttf
 11
24.5327533988
 21
98.7784753533
 31
0.0
100
AcDbText
 73
     3
  0
TEXT
  5
2CE
330
274
100
AcDbEntity
  8
DV3_Default
  6
Continuous
 62
     7
 48
25.4
100
AcDbText
 10
24.5171750091
 20
86.5622225778
 30
0.0
 40
3.5
  1
MAX. SPEED
  7
SEACAD_arial_ttf
 11
24.5171750091
 21
90.0622225778
 31
0.0
100
AcDbText
 73
     3
  0
TEXT
  5
2CF
330
274
100
AcDbEntity
  8
DV3_Default
  6
Continuous
 62
     7
 48
25.4
100
AcDbText
 10
24.5065546603
 20
69.7845118732
 30
0.0
 40
3.5
  1
NET WEIGHT WITH SOFT TOP JAWS
  7
SEACAD_arial_ttf
 11
24.5065546603
 21
73.2845118732
 31
0.0
100
AcDbText
 73
     3
  0
TEXT
  5
2D0
330
274
100
AcDbEntity
  8
DV3_Default
  6
Continuous
 62
     7
 48
25.4
100
AcDbText
 10
24.5068041783
 20
61.6105476944
 30
0.0
 40
3.5
  1
MOMENT OF INERTIA
  7
SEACAD_arial_ttf
 11
24.5068041783
 21
65.1105476944
 31
0.0
100
AcDbText
 73
     3
  0
TEXT
  5
2D1
330
274
100
AcDbEntity
  8
DV3_Default
  6
Continuous
 62
     7
 48
25.4
100
AcDbText
 10
24.5095276669
 20
53.1703619788
 30
0.0
 40
3.5
  1
MATCHING CYLINDER (PRESSURE)
  7
SEACAD_arial_ttf
 11
24.5095276669
 21
56.6703619788
 31
0.0
100
AcDbText
 73
     3
  0
TEXT
  5
2D2
330
274
100
AcDbEntity
  8
DV3_Default
  6
Continuous
 62
     7
 48
25.4
100
AcDbText
 10
24.563702055
 20
36.2377906872
 30
0.0
 40
3.5
  1
MAX. PRESSURE
  7
SEACAD_arial_ttf
 11
24.563702055
 21
39.7377906872
 31
0.0
100
AcDbText
 73
     3
  0
TEXT
  5
2D3
330
274
100
AcDbEntity
  8
DV3_Default
  6
Continuous
 62
     7
 48
25.4
100
AcDbText
 10
24.5419938252
 20
27.9532476294
 30
0.0
 40
3.5
  1
MATCHING HARD TOP JAW
  7
SEACAD_arial_ttf
 11
24.5419938252
 21
31.4532476294
 31
0.0
100
AcDbText
 73
     3
  0
TEXT
  5
2D4
330
274
100
AcDbEntity
  8
DV3_Default
  6
Continuous
 62
     7
 48
25.4
100
AcDbText
 10
24.56211654
 20
19.7335573488
 30
0.0
 40
3.5
  1
MATCHING SOFT TOP JAW
  7
SEACAD_arial_ttf
 11
24.56211654
 21
23.2335573488
 31
0.0
100
AcDbText
 73
     3
  0
LINE
  5
2D5
330
274
100
AcDbEntity
  8
DV3_Default
  6
Continuous
 62
     7
 48
25.4
100
AcDbLine
 10
22.7340113103
 20
17.0110476619
 30
0.0
 11
190.7340113103
 21
17.0110476619
 31
0.0
  0
LINE
  5
2D6
330
274
100
AcDbEntity
  8
DV3_Default
  6
Continuous
 62
     7
 48
25.4
100
AcDbLine
 10
127.6060243604
 20
151.4110476619
 30
0.0
 11
127.6060243604
 21
17.0110476619
 31
0.0
  0
LINE
  5
2D7
330
274
100
AcDbEntity
  8
DV3_Default
  6
Continuous
 62
     7
 48
25.4
100
AcDbLine
 10
22.7340113103
 20
151.4110476619
 30
0.0
 11
22.7340113103
 21
17.0110476619
 31
0.0
  0
LINE
  5
2D8
330
274
100
AcDbEntity
  8
DV3_Default
  6
Continuous
 62
     7
 48
25.4
100
AcDbLine
 10
190.7340113103
 20
151.4110476619
 30
0.0
 11
190.7340113103
 21
17.0110476619
 31
0.0
  0
TEXT
  5
2D9
330
274
100
AcDbEntity
  8
DV3_Default
  6
Continuous
 62
     7
 48
25.4
100
AcDbText
 10
130.2010292198
 20
137.1480497015
 30
0.0
 40
3.5
  1
210mm
  7
SEACAD_arial_ttf
 11
130.2010292198
 21
140.6480497015
 31
0.0
100
AcDbText
 73
     3
  0
TEXT
  5
2DA
330
274
100
AcDbEntity
  8
DV3_Default
  6
Continuous
 62
     7
 48
25.4
100
AcDbText
 10
130.1593191844
 20
128.7860842469
 30
0.0
 40
3.5
  1
23mm
  7
SEACAD_arial_ttf
 11
130.1593191844
 21
132.2860842469
 31
0.0
100
AcDbText
 73
     3
  0
TEXT
  5
2DB
330
274
100
AcDbEntity
  8
DV3_Default
  6
Continuous
 62
     7
 48
25.4
100
AcDbText
 10
130.1281384156
 20
120.0690561273
 30
0.0
 40
3.5
  1
8.8mm
  7
SEACAD_arial_ttf
 11
130.1281384156
 21
123.5690561273
 31
0.0
100
AcDbText
 73
     3
  0
TEXT
  5
2DC
330
274
100
AcDbEntity
  8
DV3_Default
  6
Continuous
 62
     7
 48
25.4
100
AcDbText
 10
130.2121096054
 20
111.9824763313
 30
0.0
 40
3.5
  1
21mm
  7
SEACAD_arial_ttf
 11
130.2121096054
 21
115.4824763313
 31
0.0
100
AcDbText
 73
     3
  0
TEXT
  5
2DD
330
274
100
AcDbEntity
  8
DV3_Default
  6
Continuous
 62
     7
 48
25.4
100
AcDbText
 10
130.2163150757
 20
103.424958398
 30
0.0
 40
3.5
  1
25kN
  7
SEACAD_arial_ttf
 11
130.2163150757
 21
106.924958398
 31
0.0
100
AcDbText
 73
     3
  0
TEXT
  5
2DE
330
274
100
AcDbEntity
  8
DV3_Default
  6
Continuous
 62
     7
 48
25.4
100
AcDbText
 10
130.2204269743
 20
95.1077831315
 30
0.0
 40
3.5
  1
75kN
  7
SEACAD_arial_ttf
 11
130.2204269743
 21
98.6077831315
 31
0.0
100
AcDbText
 73
     3
  0
TEXT
  5
2DF
330
274
100
AcDbEntity
  8
DV3_Default
  6
Continuous
 62
     7
 48
25.4
100
AcDbText
 10
130.3708739943
 20
86.7524502545
 30
0.0
 40
3.5
  1
4760min-
  7
SEACAD_arial_ttf
 11
130.3708739943
 21
90.2524502545
 31
0.0
100
AcDbText
 73
     3
  0
TEXT
  5
2E0
330
274
100
AcDbEntity
  8
DV3_Default
  6
Continuous
 62
     7
 48
25.4
100
AcDbText
 10
150.9143522552
 20
86.7524502545
 30
0.0
 40
3.2102777778
  1
¹
  7
SEACAD_arial_ttf
 11
150.9143522552
 21
89.9627280322
 31
0.0
100
AcDbText
 73
     3
  0
TEXT
  5
2E1
330
274
100
AcDbEntity
  8
DV3_Default
  6
Continuous
 62
     7
 48
25.4
100
AcDbText
 10
130.2272536253
 20
78.3184672313
 30
0.0
 40
3.5
  1
25kN
  7
SEACAD_arial_ttf
 11
130.2272536253
 21
81.8184672313
 31
0.0
100
AcDbText
 73
     3
  0
TEXT
  5
2E2
330
274
100
AcDbEntity
  8
DV3_Default
  6
Continuous
 62
     7
 48
25.4
100
AcDbText
 10
130.2661587217
 20
69.8232911791
 30
0.0
 40
3.5
  1
27kg
  7
SEACAD_arial_ttf
 11
130.2661587217
 21
73.3232911791
 31
0.0
100
AcDbText
 73
     3
  0
TEXT
  5
2E3
330
274
100
AcDbEntity
  8
DV3_Default
  6
Continuous
 62
     7
 48
25.4
100
AcDbText
 10
130.1582373435
 20
61.3046983746
 30
0.0
 40
3.5
  1
0.148kg.m
  7
SEACAD_arial_ttf
 11
130.1582373435
 21
64.8046983746
 31
0.0
100
AcDbText
 73
     3
  0
TEXT
  5
2E4
330
274
100
AcDbEntity
  8
DV3_Default
  6
Continuous
 62
     7
 48
25.4
100
AcDbText
 10
153.2886721261
 20
61.3046983746
 30
0.0
 40
3.2102777778
  1
²
  7
SEACAD_arial_ttf
 11
153.2886721261
 21
64.5149761524
 31
0.0
100
AcDbText
 73
     3
  0
TEXT
  5
2E5
330
274
100
AcDbEntity
  8
DV3_Default
  6
Continuous
 62
     7
 48
25.4
100
AcDbText
 10
130.2017661176
 20
53.17015624
 30
0.0
 40
3.5
  1
Y1225R
  7
SEACAD_arial_ttf
 11
130.2017661176
 21
56.67015624
 31
0.0
100
AcDbText
 73
     3
  0
TEXT
  5
2E6
330
274
100
AcDbEntity
  8
DV3_Default
  6
Continuous
 62
     7
 48
25.4
100
AcDbText
 10
130.1209603154
 20
36.2005088923
 30
0.0
 40
3.5
  1
2.50MPa
  7
SEACAD_arial_ttf
 11
130.1209603154
 21
39.7005088923
 31
0.0
100
AcDbText
 73
     3
  0
TEXT
  5
2E7
330
274
100
AcDbEntity
  8
DV3_Default
  6
Continuous
 62
     7
 48
25.4
100
AcDbText
 10
129.9365240634
 20
27.9124576639
 30
0.0
 40
3.5
  1
HB08A1
  7
SEACAD_arial_ttf
 11
129.9365240634
 21
31.4124576639
 31
0.0
100
AcDbText
 73
     3
  0
TEXT
  5
2E8
330
274
100
AcDbEntity
  8
DV3_Default
  6
Continuous
 62
     7
 48
25.4
100
AcDbText
 10
24.3849332034
 20
45.047592638
 30
0.0
 40
3.5
  1
MATCHING CYLINDER (AIR)
  7
SEACAD_arial_ttf
 11
24.3849332034
 21
48.547592638
 31
0.0
100
AcDbText
 73
     3
  0
TEXT
  5
2E9
330
274
100
AcDbEntity
  8
DV3_Default
  6
Continuous
 62
     7
 48
25.4
100
AcDbText
 10
130.2583870063
 20
44.5071602689
 30
0.0
 40
3.5
  1
AY2225R
  7
SEACAD_arial_ttf
 11
130.2583870063
 21
48.0071602689
 31
0.0
100
AcDbText
 73
     3
  0
LINE
  5
2EA
330
274
100
AcDbEntity
  8
DV3_Default
  6
Continuous
 62
     7
 48
25.4
100
AcDbLine
 10
270.251586878
 20
36.6845490664
 30
0.0
 11
270.251586878
 21
50.0755490664
 31
0.0
  0
LINE
  5
2EB
330
274
100
AcDbEntity
  8
DV3_Default
  6
Continuous
 62
     7
 48
25.4
100
AcDbLine
 10
270.251586878
 20
50.0755490664
 30
0.0
 11
410.251586878
 21
50.0755490664
 31
0.0
  0
LINE
  5
2EC
330
274
100
AcDbEntity
  8
DV3_Default
  6
Continuous
 62
     7
 48
25.4
100
AcDbLine
 10
410.251586878
 20
50.0755490664
 30
0.0
 11
410.251586878
 21
63.4665490664
 31
0.0
  0
LINE
  5
2ED
330
274
100
AcDbEntity
  8
DV3_Default
  6
Continuous
 62
     7
 48
25.4
100
AcDbLine
 10
410.251586878
 20
63.4665490664
 30
0.0
 11
270.251586878
 21
63.4665490664
 31
0.0
  0
LINE
  5
2EE
330
274
100
AcDbEntity
  8
DV3_Default
  6
Continuous
 62
     7
 48
25.4
100
AcDbLine
 10
270.251586878
 20
63.4665490664
 30
0.0
 11
270.251586878
 21
76.8575490664
 31
0.0
  0
LINE
  5
2EF
330
274
100
AcDbEntity
  8
DV3_Default
  6
Continuous
 62
     7
 48
25.4
100
AcDbLine
 10
270.251586878
 20
76.8575490664
 30
0.0
 11
410.251586878
 21
76.8575490664
 31
0.0
  0
LINE
  5
2F0
330
274
100
AcDbEntity
  8
DV3_Default
  6
Continuous
 62
     7
 48
25.4
100
AcDbLine
 10
410.251586878
 20
76.8575490664
 30
0.0
 11
410.251586878
 21
90.2485490664
 31
0.0
  0
LINE
  5
2F1
330
274
100
AcDbEntity
  8
DV3_Default
  6
Continuous
 62
     7
 48
25.4
100
AcDbLine
 10
410.251586878
 20
90.2345490664
 30
0.0
 11
270.251586878
 21
90.2345490664
 31
0.0
  0
LINE
  5
2F2
330
274
100
AcDbEntity
  8
DV3_Default
  6
Continuous
 62
     7
 48
25.4
100
AcDbLine
 10
270.251586878
 20
90.2345490664
 30
0.0
 11
270.251586878
 21
103.6255490664
 31
0.0
  0
LINE
  5
2F3
330
274
100
AcDbEntity
  8
DV3_Default
  6
Continuous
 62
     7
 48
25.4
100
AcDbLine
 10
270.251586878
 20
103.6255490664
 30
0.0
 11
410.251586878
 21
103.6255490664
 31
0.0
  0
LINE
  5
2F4
330
274
100
AcDbEntity
  8
DV3_Default
  6
Continuous
 62
     7
 48
25.4
100
AcDbLine
 10
410.251586878
 20
103.6255490664
 30
0.0
 11
410.251586878
 21
117.0165490664
 31
0.0
  0
LINE
  5
2F5
330
274
100
AcDbEntity
  8
DV3_Default
  6
Continuous
 62
     7
 48
25.4
100
AcDbLine
 10
410.251586878
 20
116.8473451628
 30
0.0
 11
270.251586878
 21
116.8473451628
 31
0.0
  0
LINE
  5
2F6
330
274
100
AcDbEntity
  8
DV3_Default
  6
Continuous
 62
     7
 48
25.4
100
AcDbLine
 10
270.251586878
 20
116.8473451628
 30
0.0
 11
270.251586878
 21
130.2383451628
 31
0.0
  0
LINE
  5
2F7
330
274
100
AcDbEntity
  8
DV3_Default
  6
Continuous
 62
     7
 48
25.4
100
AcDbLine
 10
270.251586878
 20
130.2383451628
 30
0.0
 11
410.251586878
 21
130.2383451628
 31
0.0
  0
LINE
  5
2F8
330
274
100
AcDbEntity
  8
DV3_Default
  6
Continuous
 62
     7
 48
25.4
100
AcDbLine
 10
270.251586878
 20
36.6845490664
 30
0.0
 11
299.651586878
 21
36.6845490664
 31
0.0
  0
LINE
  5
2F9
330
274
100
AcDbEntity
  8
DV3_Default
  6
Continuous
 62
     7
 48
25.4
100
AcDbLine
 10
299.651586878
 20
36.6845490664
 30
0.0
 11
299.651586878
 21
143.7845490664
 31
0.0
  0
LINE
  5
2FA
330
274
100
AcDbEntity
  8
DV3_Default
  6
Continuous
 62
     7
 48
25.4
100
AcDbLine
 10
299.651586878
 20
143.7845490664
 30
0.0
 11
329.051586878
 21
143.7845490664
 31
0.0
  0
LINE
  5
2FB
330
274
100
AcDbEntity
  8
DV3_Default
  6
Continuous
 62
     7
 48
25.4
100
AcDbLine
 10
329.051586878
 20
143.7845490664
 30
0.0
 11
329.051586878
 21
36.6845490664
 31
0.0
  0
LINE
  5
2FC
330
274
100
AcDbEntity
  8
DV3_Default
  6
Continuous
 62
     7
 48
25.4
100
AcDbLine
 10
329.051586878
 20
36.6845490664
 30
0.0
 11
358.451586878
 21
36.6845490664
 31
0.0
  0
LINE
  5
2FD
330
274
100
AcDbEntity
  8
DV3_Default
  6
Continuous
 62
     7
 48
25.4
100
AcDbLine
 10
358.451586878
 20
36.6845490664
 30
0.0
 11
358.451586878
 21
143.7845490664
 31
0.0
  0
LINE
  5
2FE
330
274
100
AcDbEntity
  8
DV3_Default
  6
Continuous
 62
     7
 48
25.4
100
AcDbLine
 10
358.451586878
 20
143.7845490664
 30
0.0
 11
387.851586878
 21
143.7845490664
 31
0.0
  0
LINE
  5
2FF
330
274
100
AcDbEntity
  8
DV3_Default
  6
Continuous
 62
     7
 48
25.4
100
AcDbLine
 10
387.851586878
 20
143.7845490664
 30
0.0
 11
387.851586878
 21
36.6845490664
 31
0.0
  0
ARC
  5
300
330
274
100
AcDbEntity
  8
DV3_Default
  6
Continuous
 62
     7
 48
25.4
100
AcDbCircle
 10
787.2961694286
 20
-1101.3002100502
 30
0.0
 40
1228.062462428546
100
AcDbArc
 50
107.8800937993
 51
110.6631133945
  0
ARC
  5
301
330
274
100
AcDbEntity
  8
DV3_Default
  6
Continuous
 62
     7
 48
25.4
100
AcDbCircle
 10
263.7450985045
 20
-50.9127610258
 30
0.0
 40
188.3420798217228
100
AcDbArc
 50
38.9348439448
 51
88.0202591243
  0
ARC
  5
302
330
274
100
AcDbEntity
  8
DV3_Default
  6
Continuous
 62
     7
 48
25.4
100
AcDbCircle
 10
258.1731312313
 20
-64.0089137803
 30
0.0
 40
193.4798467685233
100
AcDbArc
 50
41.7809098122
 51
86.4208425947
  0
ARC
  5
303
330
274
100
AcDbEntity
  8
DV3_Default
  6
Continuous
 62
     7
 48
25.4
100
AcDbCircle
 10
259.235795256
 20
-67.0722269363
 30
0.0
 40
187.1903367592742
100
AcDbArc
 50
43.7059342538
 51
86.6263043196
  0
ARC
  5
304
330
274
100
AcDbEntity
  8
DV3_Default
  6
Continuous
 62
     7
 48
25.4
100
AcDbCircle
 10
252.1783201802
 20
-89.371090388
 30
0.0
 40
202.6610369432113
100
AcDbArc
 50
47.6110657806
 51
84.883577795
  0
ARC
  5
305
330
274
100
AcDbEntity
  8
DV3_Default
  6
Continuous
 62
     7
 48
25.4
100
AcDbCircle
 10
241.8407985128
 20
-120.0186287826
 30
0.0
 40
226.7542537302405
100
AcDbArc
 50
51.7436418975
 51
82.8023062992
  0
ARC
  5
306
330
274
100
AcDbEntity
  8
DV3_Default
  6
Continuous
 62
     7
 48
25.4
100
AcDbCircle
 10
235.5215021729
 20
-143.1843233315
 30
0.0
 40
242.6130470846551
100
AcDbArc
 50
54.9499782134
 51
81.7698291262
  0
ARC
  5
307
330
274
100
AcDbEntity
  8
DV3_Default
  6
Continuous
 62
     7
 48
25.4
100
AcDbCircle
 10
249.7345167939
 20
-120.2957220667
 30
0.0
 40
209.4390329793431
100
AcDbArc
 50
55.7493709033
 51
84.3781736142
  0
ARC
  5
308
330
274
100
AcDbEntity
  8
DV3_Default
  6
Continuous
 62
     7
 48
25.4
100
AcDbCircle
 10
259.0799031914
 20
-102.6518460811
 30
0.0
 40
183.1535170325391
100
AcDbArc
 50
56.504695367
 51
86.5029996913
  0
ARC
  5
309
330
274
100
AcDbEntity
  8
DV3_Default
  6
Continuous
 62
     7
 48
25.4
100
AcDbCircle
 10
254.2779076198
 20
-126.4646989962
 30
0.0
 40
200.7213248894024
100
AcDbArc
 50
60.2278016393
 51
85.4354963626
  0
LINE
  5
30A
330
274
100
AcDbEntity
  8
DV3_Default
  6
Continuous
 62
     7
 48
25.4
100
AcDbLine
 10
213.1142891863
 20
165.0876158171
 30
0.0
 11
213.1142891863
 21
179.0876158171
 31
0.0
  0
LINE
  5
30B
330
274
100
AcDbEntity
  8
DV3_Default
  6
Continuous
 62
     7
 48
25.4
100
AcDbLine
 10
213.1142891863
 20
140.5876158171
 30
0.0
 11
213.1142891863
 21
126.6068526704
 31
0.0
  0
LINE
  5
30C
330
274
100
AcDbEntity
  8
DV3_Default
  6
Continuous
 62
     7
 48
25.4
100
AcDbLine
 10
215.2111144591
 20
140.5876158171
 30
0.0
 11
206.8111144591
 21
140.5876158171
 31
0.0
  0
LINE
  5
30D
330
274
100
AcDbEntity
  8
DV3_Default
  6
Continuous
 62
     7
 48
25.4
100
AcDbLine
 10
204.7045671346
 20
157.7467471073
 30
0.0
 11
206.6360286258
 21
159.6626158171
 31
0.0
  0
LINE
  5
30E
330
274
100
AcDbEntity
  8
DV3_Default
  6
Continuous
 62
     7
 48
25.4
100
AcDbLine
 10
215.2142891863
 20
157.7376158171
 30
0.0
 11
216.6142891863
 21
159.1376158171
 31
0.0
  0
LINE
  5
30F
330
274
100
AcDbEntity
  8
DV3_Default
  6
Continuous
 62
     7
 48
25.4
100
AcDbLine
 10
216.6142891863
 20
146.5376158171
 30
0.0
 11
215.2142891863
 21
147.9376158171
 31
0.0
  0
LINE
  5
310
330
274
100
AcDbEntity
  8
DV3_Default
  6
Continuous
 62
     7
 48
25.4
100
AcDbLine
 10
210.7342891863
 20
157.7376158171
 30
0.0
 11
218.7142891863
 21
157.7376158171
 31
0.0
  0
LINE
  5
311
330
274
100
AcDbEntity
  8
DV3_Default
  6
Continuous
 62
     7
 48
25.4
100
AcDbLine
 10
210.7342891863
 20
147.9376158171
 30
0.0
 11
218.7142891863
 21
147.9376158171
 31
0.0
  0
LINE
  5
312
330
274
100
AcDbEntity
  8
DV3_Default
  6
Continuous
 62
     7
 48
25.4
100
AcDbLine
 10
216.0632886356
 20
164.2386163677
 30
0.0
 11
216.0632886356
 21
158.5866152664
 31
0.0
  0
LINE
  5
313
330
274
100
AcDbEntity
  8
DV3_Default
  6
Continuous
 62
     7
 48
25.4
100
AcDbLine
 10
216.0632886356
 20
147.0886163677
 30
0.0
 11
216.0632886356
 21
141.4359250672
 31
0.0
  0
ENDBLK
  5
315
330
274
100
AcDbEntity
  8
0
100
AcDbBlockEnd
  0
BLOCK
  5
320
330
316
100
AcDbEntity
  8
0
100
AcDbBlockBegin
  2
GDimGGroup
 70
     0
 71
     0
 10
0.0
 20
0.0
 30
0.0
  3
GDimGGroup
  1

  0
HATCH
  5
318
330
316
100
AcDbEntity
  8
Default
  6
Continuous
 62
     7
 48
25.4
100
AcDbHatch
 10
0.0
 20
0.0
 30
0.0
210
0.0
220
0.0
230
1.0
  2
SOLID
 70
     1
 71
     0
 91
        1
 92
        1
 93
        3
 72
     1
 10
423.0623814105495
 20
398.2262748952337
 11
419.0623812205596
 21
397.5596081969021
 72
     1
 10
419.0623812205596
 20
397.5596081969021
 11
423.0623814105495
 21
396.8929414985704
 72
     1
 10
423.0623814105495
 20
396.8929414985704
 11
423.0623814105495
 21
398.2262748952337
 97
        0
 75
     0
 76
     1
 98
        0
  0
LWPOLYLINE
  5
319
330
316
100
AcDbEntity
  8
Default
  6
Continuous
 62
     7
 48
25.4
370
    20
100
AcDbPolyline
 90
        4
 70
     1
 43
0.0
 10
423.0623814105
 20
398.2262748952
 10
419.0623812206
 20
397.5596081969
 10
423.0623814105
 20
396.8929414986
 10
423.0623814105
 20
398.2262748952
  0
HATCH
  5
31A
330
316
100
AcDbEntity
  8
Default
  6
Continuous
 62
     7
 48
25.4
100
AcDbHatch
 10
0.0
 20
0.0
 30
0.0
210
0.0
220
0.0
230
1.0
  2
SOLID
 70
     1
 71
     0
 91
        1
 92
        1
 93
        3
 72
     1
 10
443.0623818948372
 20
398.2262748952337
 11
443.0623818948372
 21
396.8929414985704
 72
     1
 10
443.0623818948372
 20
396.8929414985704
 11
447.062382084827
 21
397.5596081969021
 72
     1
 10
447.062382084827
 20
397.5596081969021
 11
443.0623818948372
 21
398.2262748952337
 97
        0
 75
     0
 76
     1
 98
        0
  0
LWPOLYLINE
  5
31B
330
316
100
AcDbEntity
  8
Default
  6
Continuous
 62
     7
 48
25.4
370
    20
100
AcDbPolyline
 90
        4
 70
     1
 43
0.0
 10
443.0623818948
 20
398.2262748952
 10
447.0623820848
 20
397.5596081969
 10
443.0623818948
 20
396.8929414986
 10
443.0623818948
 20
398.2262748952
  0
LINE
  5
31C
330
316
100
AcDbEntity
  8
Default
  6
Continuous
 62
     7
 48
25.4
100
AcDbLine
 10
419.0623812206
 20
383.8390818369
 30
0.0
 11
419.0623812206
 21
399.5596082919
 31
0.0
  0
LINE
  5
31D
330
316
100
AcDbEntity
  8
Default
  6
Continuous
 62
     7
 48
25.4
100
AcDbLine
 10
447.0623812206
 20
383.8390818369
 30
0.0
 11
447.0623812206
 21
399.5596082919
 31
0.0
  0
LINE
  5
31E
330
316
100
AcDbEntity
  8
Default
  6
Continuous
 62
     7
 48
25.4
100
AcDbLine
 10
419.0623812206
 20
397.5596081969
 30
0.0
 11
447.0623820848
 21
397.5596081969
 31
0.0
  0
TEXT
  5
31F
330
316
100
AcDbEntity
  8
Default
  6
Continuous
 62
     7
 48
25.4
100
AcDbText
 10
429.9319468701
 20
398.5596081969
 30
0.0
 40
4.0
  1
35
  7
SEACAD_arial_ttf
 11
429.9319468701
 21
402.5596081969
 31
0.0
100
AcDbText
 73
     3
  0
ENDBLK
  5
321
330
316
100
AcDbEntity
  8
0
100
AcDbBlockEnd
  0
BLOCK
  5
32E
330
322
100
AcDbEntity
  8
0
100
AcDbBlockBegin
  2
GDimGGroup1
 70
     0
 71
     0
 10
0.0
 20
0.0
 30
0.0
  3
GDimGGroup1
  1

  0
HATCH
  5
324
330
322
100
AcDbEntity
  8
Default
  6
Continuous
 62
     7
 48
25.4
100
AcDbHatch
 10
0.0
 20
0.0
 30
0.0
210
0.0
220
0.0
230
1.0
  2
SOLID
 70
     1
 71
     0
 91
        1
 92
        1
 93
        3
 72
     1
 10
229.1710572810571
 20
241.0358788757856
 11
227.8377238843939
 21
241.0358788757856
 72
     1
 10
227.8377238843939
 20
241.0358788757856
 11
228.5043905827255
 21
237.0358786857958
 72
     1
 10
228.5043905827255
 20
237.0358786857958
 11
229.1710572810571
 21
241.0358788757856
 97
        0
 75
     0
 76
     1
 98
        0
  0
LWPOLYLINE
  5
325
330
322
100
AcDbEntity
  8
Default
  6
Continuous
 62
     7
 48
25.4
370
    20
100
AcDbPolyline
 90
        4
 70
     1
 43
0.0
 10
229.1710572811
 20
241.0358788758
 10
228.5043905827
 20
237.0358786858
 10
227.8377238844
 20
241.0358788758
 10
229.1710572811
 20
241.0358788758
  0
HATCH
  5
326
330
322
100
AcDbEntity
  8
Default
  6
Continuous
 62
     7
 48
25.4
100
AcDbHatch
 10
0.0
 20
0.0
 30
0.0
210
0.0
220
0.0
230
1.0
  2
SOLID
 70
     1
 71
     0
 91
        1
 92
        1
 93
        3
 72
     1
 10
229.1710572810571
 20
249.0358792557652
 11
228.5043905827255
 21
253.035879445755
 72
     1
 10
228.5043905827255
 20
253.035879445755
 11
227.8377238843939
 21
249.0358792557652
 72
     1
 10
227.8377238843939
 20
249.0358792557652
 11
229.1710572810571
 21
249.0358792557652
 97
        0
 75
     0
 76
     1
 98
        0
  0
LWPOLYLINE
  5
327
330
322
100
AcDbEntity
  8
Default
  6
Continuous
 62
     7
 48
25.4
370
    20
100
AcDbPolyline
 90
        4
 70
     1
 43
0.0
 10
229.1710572811
 20
249.0358792558
 10
228.5043905827
 20
253.0358794458
 10
227.8377238844
 20
249.0358792558
 10
229.1710572811
 20
249.0358792558
  0
LINE
  5
328
330
322
100
AcDbEntity
  8
Default
  6
Continuous
 62
     7
 48
25.4
100
AcDbLine
 10
213.3977488953
 20
237.0358786858
 30
0.0
 11
230.5043906777
 21
237.0358786858
 31
0.0
  0
LINE
  5
329
330
322
100
AcDbEntity
  8
Default
  6
Continuous
 62
     7
 48
25.4
100
AcDbLine
 10
213.3977488953
 20
253.0358786858
 30
0.0
 11
230.5043906777
 21
253.0358786858
 31
0.0
  0
LINE
  5
32A
330
322
100
AcDbEntity
  8
Default
  6
Continuous
 62
     7
 48
25.4
100
AcDbLine
 10
228.5043905827
 20
237.0358786858
 30
0.0
 11
228.5043905827
 21
253.0358794458
 31
0.0
  0
TEXT
  5
32B
330
322
100
AcDbEntity
  8
Default
  6
Continuous
 62
     7
 48
25.4
100
AcDbText
 10
227.5043905827
 20
245.5861460376
 30
0.0
 40
4.0
  1
20
 50
90.0
  7
SEACAD_arial_ttf
 11
223.5043905827
 21
245.5861460376
 31
0.0
100
AcDbText
 73
     3
  0
TEXT
  5
32D
330
322
100
AcDbEntity
  8
Default
  6
Continuous
 62
     7
 48
25.4
100
AcDbText
 10
227.5043905827
 20
238.2247425288
 30
0.0
 40
4.0
  1
O
 50
90.0
  7
SEACAD_semeca1_ttf
 11
223.5043905827
 21
238.2247425288
 31
0.0
100
AcDbText
 73
     3
  0
ENDBLK
  5
32F
330
322
100
AcDbEntity
  8
0
100
AcDbBlockEnd
  0
BLOCK
  5
33A
330
330
100
AcDbEntity
  8
0
100
AcDbBlockBegin
  2
GDimGGroup2
 70
     0
 71
     0
 10
0.0
 20
0.0
 30
0.0
  3
GDimGGroup2
  1

  0
HATCH
  5
332
330
330
100
AcDbEntity
  8
Default
  6
Continuous
 62
     7
 48
25.4
100
AcDbHatch
 10
0.0
 20
0.0
 30
0.0
210
0.0
220
0.0
230
1.0
  2
SOLID
 70
     1
 71
     0
 91
        1
 92
        1
 93
        3
 72
     1
 10
306.7970288352769
 20
311.9958788757856
 11
305.4636954386136
 21
311.9958788757856
 72
     1
 10
305.4636954386136
 20
311.9958788757856
 11
306.1303621369452
 21
307.9958786857958
 72
     1
 10
306.1303621369452
 20
307.9958786857958
 11
306.7970288352769
 21
311.9958788757856
 97
        0
 75
     0
 76
     1
 98
        0
  0
LWPOLYLINE
  5
333
330
330
100
AcDbEntity
  8
Default
  6
Continuous
 62
     7
 48
25.4
370
    20
100
AcDbPolyline
 90
        4
 70
     1
 43
0.0
 10
306.7970288353
 20
311.9958788758
 10
306.1303621369
 20
307.9958786858
 10
305.4636954386
 20
311.9958788758
 10
306.7970288353
 20
311.9958788758
  0
HATCH
  5
334
330
330
100
AcDbEntity
  8
Default
  6
Continuous
 62
     7
 48
25.4
100
AcDbHatch
 10
0.0
 20
0.0
 30
0.0
210
0.0
220
0.0
230
1.0
  2
SOLID
 70
     1
 71
     0
 91
        1
 92
        1
 93
        3
 72
     1
 10
306.7970288352769
 20
379.9958760520156
 11
306.1303621369452
 21
383.9958762420054
 72
     1
 10
306.1303621369452
 20
383.9958762420054
 11
305.4636954386136
 21
379.9958760520156
 72
     1
 10
305.4636954386136
 20
379.9958760520156
 11
306.7970288352769
 21
379.9958760520156
 97
        0
 75
     0
 76
     1
 98
        0
  0
LWPOLYLINE
  5
335
330
330
100
AcDbEntity
  8
Default
  6
Continuous
 62
     7
 48
25.4
370
    20
100
AcDbPolyline
 90
        4
 70
     1
 43
0.0
 10
306.7970288353
 20
379.995876052
 10
306.1303621369
 20
383.995876242
 10
305.4636954386
 20
379.995876052
 10
306.7970288353
 20
379.995876052
  0
LINE
  5
336
330
330
100
AcDbEntity
  8
Default
  6
Continuous
 62
     7
 48
25.4
100
AcDbLine
 10
246.9977488953
 20
307.9958786858
 30
0.0
 11
308.1303622319
 21
307.9958786858
 31
0.0
  0
LINE
  5
337
330
330
100
AcDbEntity
  8
Default
  6
Continuous
 62
     7
 48
25.4
100
AcDbLine
 10
246.9977488953
 20
383.9958786858
 30
0.0
 11
308.1303622319
 21
383.9958786858
 31
0.0
  0
LINE
  5
338
330
330
100
AcDbEntity
  8
Default
  6
Continuous
 62
     7
 48
25.4
100
AcDbLine
 10
306.1303621369
 20
307.9958786858
 30
0.0
 11
306.1303621369
 21
383.995876242
 31
0.0
  0
TEXT
  5
339
330
330
100
AcDbEntity
  8
Default
  6
Continuous
 62
     7
 48
25.4
100
AcDbText
 10
305.1303621369
 20
342.8654426813
 30
0.0
 40
4.0
  1
95
 50
90.0
  7
SEACAD_arial_ttf
 11
301.1303621369
 21
342.8654426813
 31
0.0
100
AcDbText
 73
     3
  0
ENDBLK
  5
33B
330
330
100
AcDbEntity
  8
0
100
AcDbBlockEnd
  0
BLOCK
  5
345
330
33C
100
AcDbEntity
  8
0
100
AcDbBlockBegin
  2
GDimGGroup3
 70
     0
 71
     0
 10
0.0
 20
0.0
 30
0.0
  3
GDimGGroup3
  1

  0
HATCH
  5
33E
330
33C
100
AcDbEntity
  8
Default
  6
Continuous
 62
     7
 48
25.4
100
AcDbHatch
 10
0.0
 20
0.0
 30
0.0
210
0.0
220
0.0
230
1.0
  2
SOLID
 70
     1
 71
     0
 91
        1
 92
        1
 93
        3
 72
     1
 10
495.2855867002315
 20
366.4606401256593
 11
498.6502925398918
 21
364.1971912927633
 72
     1
 10
498.6502925398918
 20
364.1971912927633
 11
496.2015542049361
 21
367.4295474880954
 72
     1
 10
496.2015542049361
 20
367.4295474880953
 11
495.2855867002315
 21
366.4606401256593
 97
        0
 75
     0
 76
     1
 98
        0
  0
LWPOLYLINE
  5
33F
330
33C
100
AcDbEntity
  8
Default
  6
Continuous
 62
     7
 48
25.4
370
    20
100
AcDbPolyline
 90
        4
 70
     1
 43
0.0
 10
495.2855867002
 20
366.4606401257
 10
498.6502925399
 20
364.1971912928
 10
496.2015542049
 20
367.4295474881
 10
495.2855867002
 20
366.4606401257
  0
HATCH
  5
340
330
33C
100
AcDbEntity
  8
Default
  6
Continuous
 62
     7
 48
25.4
100
AcDbHatch
 10
0.0
 20
0.0
 30
0.0
210
0.0
220
0.0
230
1.0
  2
SOLID
 70
     1
 71
     0
 91
        1
 92
        1
 93
        3
 72
     1
 10
437.0757401155914
 20
391.6898636149938
 11
433.062379785678
 21
391.1090152106228
 72
     1
 10
433.062379785678
 20
391.1090152106228
 11
437.0471849856623
 21
390.3568360266775
 72
     1
 10
437.0471849856623
 20
390.3568360266775
 11
437.0757401155913
 21
391.6898636149938
 97
        0
 75
     0
 76
     1
 98
        0
  0
LWPOLYLINE
  5
341
330
33C
100
AcDbEntity
  8
Default
  6
Continuous
 62
     7
 48
25.4
370
    20
100
AcDbPolyline
 90
        4
 70
     1
 43
0.0
 10
437.0757401156
 20
391.689863615
 10
433.0623797857
 20
391.1090152106
 10
437.0471849857
 20
390.3568360267
 10
437.0757401156
 20
391.689863615
  0
LINE
  5
342
330
33C
100
AcDbEntity
  8
Default
  6
Continuous
 62
     7
 48
25.4
100
AcDbLine
 10
470.7936002333
 20
335.9668817088
 30
0.0
 11
500.0550519236
 21
365.6207914768
 31
0.0
  0
ARC
  5
343
330
33C
100
AcDbEntity
  8
Default
  6
Continuous
 62
     7
 48
25.4
100
AcDbCircle
 10
433.0623812206
 20
297.7296070895
 30
0.0
 40
93.37940812110915
100
AcDbArc
 50
45.3816637688
 51
90.0000008804
  0
TEXT
  5
344
330
33C
100
AcDbEntity
  8
Default
  6
Continuous
 62
     7
 48
25.4
100
AcDbText
 10
464.9472618633
 20
386.6620650177
 30
0.0
 40
4.0
  1
45°
 50
337.6908318844
  7
SEACAD_arial_ttf
 11
466.4656786673
 21
390.3626609709
 31
0.0
100
AcDbText
 73
     3
  0
ENDBLK
  5
346
330
33C
100
AcDbEntity
  8
0
100
AcDbBlockEnd
  0
BLOCK
  5
351
330
347
100
AcDbEntity
  8
0
100
AcDbBlockBegin
  2
GDimGGroup4
 70
     0
 71
     0
 10
0.0
 20
0.0
 30
0.0
  3
GDimGGroup4
  1

  0
HATCH
  5
349
330
347
100
AcDbEntity
  8
Default
  6
Continuous
 62
     7
 48
25.4
100
AcDbHatch
 10
0.0
 20
0.0
 30
0.0
210
0.0
220
0.0
230
1.0
  2
SOLID
 70
     1
 71
     0
 91
        1
 92
        1
 93
        3
 72
     1
 10
510.9234843532394
 20
348.0618117038895
 11
513.5895880335295
 21
345.0062696615464
 72
     1
 10
513.5895880335295
 20
345.0062696615464
 11
512.0585846740149
 21
348.761329543857
 72
     1
 10
512.058584674015
 20
348.761329543857
 11
510.9234843532395
 21
348.0618117038895
 97
        0
 75
     0
 76
     1
 98
        0
  0
LWPOLYLINE
  5
34A
330
347
100
AcDbEntity
  8
Default
  6
Continuous
 62
     7
 48
25.4
370
    20
100
AcDbPolyline
 90
        4
 70
     1
 43
0.0
 10
510.9234843532
 20
348.0618117039
 10
513.5895880335
 20
345.0062696615
 10
512.058584674
 20
348.7613295439
 10
510.9234843532
 20
348.0618117039
  0
HATCH
  5
34B
330
347
100
AcDbEntity
  8
Default
  6
Continuous
 62
     7
 48
25.4
100
AcDbHatch
 10
0.0
 20
0.0
 30
0.0
210
0.0
220
0.0
230
1.0
  2
SOLID
 70
     1
 71
     0
 91
        1
 92
        1
 93
        3
 72
     1
 10
501.9149844341555
 20
361.7917323014162
 11
498.650292550262
 21
364.1971912825304
 72
     1
 10
498.650292550262
 20
364.1971912825304
 11
500.9583657438539
 21
360.8629381218353
 72
     1
 10
500.9583657438539
 20
360.8629381218353
 11
501.9149844341555
 21
361.7917323014162
 97
        0
 75
     0
 76
     1
 98
        0
  0
LWPOLYLINE
  5
34C
330
347
100
AcDbEntity
  8
Default
  6
Continuous
 62
     7
 48
25.4
370
    20
100
AcDbPolyline
 90
        4
 70
     1
 43
0.0
 10
501.9149844342
 20
361.7917323014
 10
498.6502925503
 20
364.1971912825
 10
500.9583657439
 20
360.8629381218
 10
501.9149844342
 20
361.7917323014
  0
LINE
  5
34D
330
347
100
AcDbEntity
  8
Default
  6
Continuous
 62
     7
 48
25.4
100
AcDbLine
 10
485.0239059834
 20
328.2356629949
 30
0.0
 11
515.3143166785
 21
346.0188394178
 31
0.0
  0
LINE
  5
34E
330
347
100
AcDbEntity
  8
Default
  6
Continuous
 62
     7
 48
25.4
100
AcDbLine
 10
470.7936002333
 20
335.9668817088
 30
0.0
 11
500.0550519236
 21
365.6207914768
 31
0.0
  0
ARC
  5
34F
330
347
100
AcDbEntity
  8
Default
  6
Continuous
 62
     7
 48
25.4
100
AcDbCircle
 10
433.0623812206
 20
297.7296070895
 30
0.0
 40
93.37940812110779
100
AcDbArc
 50
30.4167397789
 51
45.3816637599
  0
TEXT
  5
350
330
347
100
AcDbEntity
  8
Default
  6
Continuous
 62
     7
 48
25.4
100
AcDbText
 10
504.9191355264
 20
359.0666639749
 30
0.0
 40
4.0
  1
15°
 50
307.8992017739
  7
SEACAD_arial_ttf
 11
508.0755060976
 21
361.5237608021
 31
0.0
100
AcDbText
 73
     3
  0
ENDBLK
  5
352
330
347
100
AcDbEntity
  8
0
100
AcDbBlockEnd
  0
BLOCK
  5
35D
330
353
100
AcDbEntity
  8
0
100
AcDbBlockBegin
  2
GDimGGroup5
 70
     0
 71
     0
 10
0.0
 20
0.0
 30
0.0
  3
GDimGGroup5
  1

  0
HATCH
  5
355
330
353
100
AcDbEntity
  8
Default
  6
Continuous
 62
     7
 48
25.4
100
AcDbHatch
 10
0.0
 20
0.0
 30
0.0
210
0.0
220
0.0
230
1.0
  2
SOLID
 70
     1
 71
     0
 91
        1
 92
        1
 93
        3
 72
     1
 10
521.2441384858288
 20
326.3593099868603
 11
523.035350752127
 21
322.7211779629164
 72
     1
 10
523.0353507521269
 20
322.7211779629164
 11
522.5208954809617
 21
326.7435879097708
 72
     1
 10
522.5208954809618
 20
326.7435879097708
 11
521.2441384858288
 21
326.3593099868603
 97
        0
 75
     0
 76
     1
 98
        0
  0
LWPOLYLINE
  5
356
330
353
100
AcDbEntity
  8
Default
  6
Continuous
 62
     7
 48
25.4
370
    20
100
AcDbPolyline
 90
        4
 70
     1
 43
0.0
 10
521.2441384858
 20
326.3593099869
 10
523.0353507521
 20
322.7211779629
 10
522.520895481
 20
326.7435879098
 10
521.2441384858
 20
326.3593099869
  0
HATCH
  5
357
330
353
100
AcDbEntity
  8
Default
  6
Continuous
 62
     7
 48
25.4
100
AcDbHatch
 10
0.0
 20
0.0
 30
0.0
210
0.0
220
0.0
230
1.0
  2
SOLID
 70
     1
 71
     0
 91
        1
 92
        1
 93
        3
 72
     1
 10
516.1223990512619
 20
341.8393599103783
 11
513.5895882238274
 21
345.0062693374086
 72
     1
 10
513.5895882238274
 20
345.0062693374086
 11
514.9583845977691
 21
341.1890920434823
 72
     1
 10
514.9583845977691
 20
341.1890920434822
 11
516.1223990512618
 21
341.8393599103783
 97
        0
 75
     0
 76
     1
 98
        0
  0
LWPOLYLINE
  5
358
330
353
100
AcDbEntity
  8
Default
  6
Continuous
 62
     7
 48
25.4
370
    20
100
AcDbPolyline
 90
        4
 70
     1
 43
0.0
 10
516.1223990513
 20
341.8393599104
 10
513.5895882238
 20
345.0062693374
 10
514.9583845978
 20
341.1890920435
 10
516.1223990513
 20
341.8393599104
  0
LINE
  5
359
330
353
100
AcDbEntity
  8
Default
  6
Continuous
 62
     7
 48
25.4
100
AcDbLine
 10
484.6041823181
 20
312.0462466511
 30
0.0
 11
524.9623883828
 21
323.2564464749
 31
0.0
  0
LINE
  5
35A
330
353
100
AcDbEntity
  8
Default
  6
Continuous
 62
     7
 48
25.4
100
AcDbLine
 10
485.0239059834
 20
328.2356629949
 30
0.0
 11
515.3143166785
 21
346.0188394178
 31
0.0
  0
ARC
  5
35B
330
353
100
AcDbEntity
  8
Default
  6
Continuous
 62
     7
 48
25.4
100
AcDbCircle
 10
433.0623812206
 20
297.7296070895
 30
0.0
 40
93.37940812111255
100
AcDbArc
 50
15.5235667046
 51
30.4167395483
  0
TEXT
  5
35C
330
353
100
AcDbEntity
  8
Default
  6
Continuous
 62
     7
 48
25.4
100
AcDbText
 10
518.2954717768
 20
338.4843363975
 30
0.0
 40
4.0
  1
15°
 50
292.9701532418
  7
SEACAD_arial_ttf
 11
521.9783048562
 21
340.0453426465
 31
0.0
100
AcDbText
 73
     3
  0
ENDBLK
  5
35E
330
353
100
AcDbEntity
  8
0
100
AcDbBlockEnd
  0
BLOCK
  5
369
330
35F
100
AcDbEntity
  8
0
100
AcDbBlockBegin
  2
GDimGGroup6
 70
     0
 71
     0
 10
0.0
 20
0.0
 30
0.0
  3
GDimGGroup6
  1

  0
HATCH
  5
361
330
35F
100
AcDbEntity
  8
Default
  6
Continuous
 62
     7
 48
25.4
100
AcDbHatch
 10
0.0
 20
0.0
 30
0.0
210
0.0
220
0.0
230
1.0
  2
SOLID
 70
     1
 71
     0
 91
        1
 92
        1
 93
        3
 72
     1
 10
525.6669168856425
 20
302.2109212534161
 11
526.4404475000113
 21
298.2302056902017
 72
     1
 10
526.4404475000112
 20
298.2302056902017
 11
526.9997722366508
 21
302.2466222330376
 72
     1
 10
526.9997722366509
 20
302.2466222330376
 11
525.6669168856425
 21
302.2109212534161
 97
        0
 75
     0
 76
     1
 98
        0
  0
LWPOLYLINE
  5
362
330
35F
100
AcDbEntity
  8
Default
  6
Continuous
 62
     7
 48
25.4
370
    20
100
AcDbPolyline
 90
        4
 70
     1
 43
0.0
 10
525.6669168856
 20
302.2109212534
 10
526.4404475
 20
298.2302056902
 10
526.9997722367
 20
302.246622233
 10
525.6669168856
 20
302.2109212534
  0
HATCH
  5
363
330
35F
100
AcDbEntity
  8
Default
  6
Continuous
 62
     7
 48
25.4
100
AcDbHatch
 10
0.0
 20
0.0
 30
0.0
210
0.0
220
0.0
230
1.0
  2
SOLID
 70
     1
 71
     0
 91
        1
 92
        1
 93
        3
 72
     1
 10
524.6691243892431
 20
319.0096790344391
 11
523.0353505716362
 21
322.7211786127073
 72
     1
 10
523.0353505716362
 20
322.7211786127073
 11
523.3770826980423
 21
318.6804280437703
 72
     1
 10
523.3770826980423
 20
318.6804280437703
 11
524.6691243892431
 21
319.0096790344391
 97
        0
 75
     0
 76
     1
 98
        0
  0
LWPOLYLINE
  5
364
330
35F
100
AcDbEntity
  8
Default
  6
Continuous
 62
     7
 48
25.4
370
    20
100
AcDbPolyline
 90
        4
 70
     1
 43
0.0
 10
524.6691243892
 20
319.0096790344
 10
523.0353505716
 20
322.7211786127
 10
523.377082698
 20
318.6804280438
 10
524.6691243892
 20
319.0096790344
  0
LINE
  5
365
330
35F
100
AcDbEntity
  8
Default
  6
Continuous
 62
     7
 48
25.4
100
AcDbLine
 10
527.4583535456
 20
298.2356626713
 30
0.0
 11
524.440479637
 21
298.2194838885
 31
0.0
  0
LINE
  5
366
330
35F
100
AcDbEntity
  8
Default
  6
Continuous
 62
     7
 48
25.4
100
AcDbLine
 10
484.6041823181
 20
312.0462466511
 30
0.0
 11
524.9623883828
 21
323.2564464749
 31
0.0
  0
ARC
  5
367
330
35F
100
AcDbEntity
  8
Default
  6
Continuous
 62
     7
 48
25.4
100
AcDbCircle
 10
433.0623812205
 20
297.7296070895
 30
0.0
 40
93.37940812112161
100
AcDbArc
 50
0.3071589873
 51
15.5235671184
  0
TEXT
  5
368
330
35F
100
AcDbEntity
  8
Default
  6
Continuous
 62
     7
 48
25.4
100
AcDbText
 10
525.955831649
 20
314.9468819679
 30
0.0
 40
4.0
  1
15°
 50
277.915362846
  7
SEACAD_arial_ttf
 11
529.9177219463
 21
315.4977224824
 31
0.0
100
AcDbText
 73
     3
  0
ENDBLK
  5
36A
330
35F
100
AcDbEntity
  8
0
100
AcDbBlockEnd
  0
BLOCK
  5
373
330
36B
100
AcDbEntity
  8
0
100
AcDbBlockBegin
  2
GDimGGroup7
 70
     0
 71
     0
 10
0.0
 20
0.0
 30
0.0
  3
GDimGGroup7
  1

  0
LINE
  5
36D
330
36B
100
AcDbEntity
  8
Default
  6
Continuous
 62
     7
 48
25.4
100
AcDbLine
 10
433.0623812206
 20
298.2356626804
 30
0.0
 11
467.9278440246
 21
347.0659743989
 31
0.0
  0
HATCH
  5
36E
330
36B
100
AcDbEntity
  8
Default
  6
Continuous
 62
     7
 48
25.4
100
AcDbHatch
 10
0.0
 20
0.0
 30
0.0
210
0.0
220
0.0
230
1.0
  2
SOLID
 70
     1
 71
     0
 91
        1
 92
        1
 93
        3
 72
     1
 10
465.060921397606
 20
344.1980152065871
 11
466.1460395115902
 21
343.4232270901572
 72
     1
 10
466.1460395115902
 20
343.4232270901572
 11
467.927844803888
 21
347.0659754903246
 72
     1
 10
467.927844803888
 20
347.0659754903246
 11
465.060921397606
 21
344.1980152065871
 97
        0
 75
     0
 76
     1
 98
        0
  0
LWPOLYLINE
  5
36F
330
36B
100
AcDbEntity
  8
Default
  6
Continuous
 62
     7
 48
25.4
370
    20
100
AcDbPolyline
 90
        4
 70
     1
 43
0.0
 10
465.0609213976
 20
344.1980152066
 10
467.9278448039
 20
347.0659754903
 10
466.1460395116
 20
343.4232270902
 10
465.0609213976
 20
344.1980152066
  0
TEXT
  5
370
330
36B
100
AcDbEntity
  8
Default
  6
Continuous
 62
     7
 48
25.4
100
AcDbText
 10
446.7892938684
 20
319.1815892063
 30
0.0
 40
4.0
  1
R
 50
54.4726813896
  7
SEACAD_arial_ttf
 11
443.533939681
 21
321.5059534451
 31
0.0
100
AcDbText
 73
     3
  0
TEXT
  5
371
330
36B
100
AcDbEntity
  8
Default
  6
Continuous
 62
     7
 48
25.4
100
AcDbText
 10
450.5082766506
 20
324.390155906
 30
0.0
 40
4.0
  1
75
 50
54.4726813896
  7
SEACAD_arial_ttf
 11
447.2529224633
 21
326.7145201449
 31
0.0
100
AcDbText
 73
     3
  0
TEXT
  5
372
330
36B
100
AcDbEntity
  8
Default
  6
Continuous
 62
     7
 48
25.4
100
AcDbText
 10
455.3085941005
 20
331.1131699885
 30
0.0
 40
4.0
  1
±0.2
 50
54.4726813896
  7
SEACAD_arial_ttf
 11
452.0532399131
 21
333.4375342274
 31
0.0
100
AcDbText
 73
     3
  0
ENDBLK
  5
374
330
36B
100
AcDbEntity
  8
0
100
AcDbBlockEnd
  0
BLOCK
  5
37D
330
375
100
AcDbEntity
  8
0
100
AcDbBlockBegin
  2
GDimGGroup8
 70
     0
 71
     0
 10
0.0
 20
0.0
 30
0.0
  3
GDimGGroup8
  1

  0
LINE
  5
377
330
375
100
AcDbEntity
  8
Default
  6
Continuous
 62
     7
 48
25.4
100
AcDbLine
 10
433.0623812206
 20
298.2356626804
 30
0.0
 11
486.2098531526
 21
302.9933779097
 31
0.0
  0
HATCH
  5
378
330
375
100
AcDbEntity
  8
Default
  6
Continuous
 62
     7
 48
25.4
100
AcDbHatch
 10
0.0
 20
0.0
 30
0.0
210
0.0
220
0.0
230
1.0
  2
SOLID
 70
     1
 71
     0
 91
        1
 92
        1
 93
        3
 72
     1
 10
482.1663426477497
 20
303.3007389767094
 11
482.2852260918472
 21
301.9727161330139
 72
     1
 10
482.2852260918472
 20
301.9727161330139
 11
486.209852900885
 21
302.993377887154
 72
     1
 10
486.209852900885
 20
302.993377887154
 11
482.1663426477497
 21
303.3007389767094
 97
        0
 75
     0
 76
     1
 98
        0
  0
LWPOLYLINE
  5
379
330
375
100
AcDbEntity
  8
Default
  6
Continuous
 62
     7
 48
25.4
370
    20
100
AcDbPolyline
 90
        4
 70
     1
 43
0.0
 10
482.1663426477
 20
303.3007389767
 10
486.2098529009
 20
302.9933778872
 10
482.2852260918
 20
301.972716133
 10
482.1663426477
 20
303.3007389767
  0
ARC
  5
37A
330
375
100
AcDbEntity
  8
Default
  6
Continuous
 62
     7
 48
25.4
100
AcDbCircle
 10
433.0623812205
 20
298.2356626803
 30
0.0
 40
53.36000000006437
100
AcDbArc
 50
2.967914734
 51
6.4018625515
  0
TEXT
  5
37B
330
375
100
AcDbEntity
  8
Default
  6
Continuous
 62
     7
 48
25.4
100
AcDbText
 10
450.9032585095
 20
300.8367612615
 30
0.0
 40
4.0
  1
R
 50
5.1154327067
  7
SEACAD_arial_ttf
 11
450.5466081942
 21
304.8208296034
 31
0.0
100
AcDbText
 73
     3
  0
TEXT
  5
37C
330
375
100
AcDbEntity
  8
Default
  6
Continuous
 62
     7
 48
25.4
100
AcDbText
 10
457.2777678565
 20
301.4074017661
 30
0.0
 40
4.0
  1
66.7
 50
5.1154327067
  7
SEACAD_arial_ttf
 11
456.9211175412
 21
305.3914701079
 31
0.0
100
AcDbText
 73
     3
  0
ENDBLK
  5
37E
330
375
100
AcDbEntity
  8
0
100
AcDbBlockEnd
  0
BLOCK
  5
389
330
37F
100
AcDbEntity
  8
0
100
AcDbBlockBegin
  2
GDimGGroup9
 70
     0
 71
     0
 10
0.0
 20
0.0
 30
0.0
  3
GDimGGroup9
  1

  0
HATCH
  5
381
330
37F
100
AcDbEntity
  8
Default
  6
Continuous
 62
     7
 48
25.4
100
AcDbHatch
 10
0.0
 20
0.0
 30
0.0
210
0.0
220
0.0
230
1.0
  2
SOLID
 70
     1
 71
     0
 91
        1
 92
        1
 93
        3
 72
     1
 10
249.4454152690408
 20
144.5876160070825
 11
248.1120818723776
 21
144.5876160070825
 72
     1
 10
248.1120818723776
 20
144.5876160070825
 11
248.7787485707092
 21
140.5876158170927
 72
     1
 10
248.7787485707092
 20
140.5876158170927
 11
249.4454152690408
 21
144.5876160070825
 97
        0
 75
     0
 76
     1
 98
        0
  0
LWPOLYLINE
  5
382
330
37F
100
AcDbEntity
  8
Default
  6
Continuous
 62
     7
 48
25.4
370
    20
100
AcDbPolyline
 90
        4
 70
     1
 43
0.0
 10
249.445415269
 20
144.5876160071
 10
248.7787485707
 20
140.5876158171
 10
248.1120818724
 20
144.5876160071
 10
249.445415269
 20
144.5876160071
  0
HATCH
  5
383
330
37F
100
AcDbEntity
  8
Default
  6
Continuous
 62
     7
 48
25.4
100
AcDbHatch
 10
0.0
 20
0.0
 30
0.0
210
0.0
220
0.0
230
1.0
  2
SOLID
 70
     1
 71
     0
 91
        1
 92
        1
 93
        3
 72
     1
 10
249.4454152690408
 20
161.0876149863529
 11
248.7787485707092
 21
165.0876151763427
 72
     1
 10
248.7787485707092
 20
165.0876151763427
 11
248.1120818723776
 21
161.0876149863529
 72
     1
 10
248.1120818723776
 20
161.0876149863529
 11
249.4454152690408
 21
161.0876149863529
 97
        0
 75
     0
 76
     1
 98
        0
  0
LWPOLYLINE
  5
384
330
37F
100
AcDbEntity
  8
Default
  6
Continuous
 62
     7
 48
25.4
370
    20
100
AcDbPolyline
 90
        4
 70
     1
 43
0.0
 10
249.445415269
 20
161.0876149864
 10
248.7787485707
 20
165.0876151763
 10
248.1120818724
 20
161.0876149864
 10
249.445415269
 20
161.0876149864
  0
LINE
  5
385
330
37F
100
AcDbEntity
  8
Default
  6
Continuous
 62
     7
 48
25.4
100
AcDbLine
 10
215.2111141596
 20
140.5876158171
 30
0.0
 11
250.7787486657
 21
140.5876158171
 31
0.0
  0
LINE
  5
386
330
37F
100
AcDbEntity
  8
Default
  6
Continuous
 62
     7
 48
25.4
100
AcDbLine
 10
215.2142891698
 20
165.0876158171
 30
0.0
 11
250.7787486657
 21
165.0876158171
 31
0.0
  0
LINE
  5
387
330
37F
100
AcDbEntity
  8
Default
  6
Continuous
 62
     7
 48
25.4
100
AcDbLine
 10
248.7787485707
 20
140.5876158171
 30
0.0
 11
248.7787485707
 21
165.0876151763
 31
0.0
  0
TEXT
  5
388
330
37F
100
AcDbEntity
  8
Default
  6
Continuous
 62
     7
 48
25.4
100
AcDbText
 10
247.7787485707
 20
149.7071807141
 30
0.0
 40
4.0
  1
35
 50
90.0
  7
SEACAD_arial_ttf
 11
243.7787485707
 21
149.7071807141
 31
0.0
100
AcDbText
 73
     3
  0
ENDBLK
  5
38A
330
37F
100
AcDbEntity
  8
0
100
AcDbBlockEnd
  0
BLOCK
  5
395
330
38B
100
AcDbEntity
  8
0
100
AcDbBlockBegin
  2
GDimGGroup10
 70
     0
 71
     0
 10
0.0
 20
0.0
 30
0.0
  3
GDimGGroup10
  1

  0
HATCH
  5
38D
330
38B
100
AcDbEntity
  8
Default
  6
Continuous
 62
     7
 48
25.4
100
AcDbHatch
 10
0.0
 20
0.0
 30
0.0
210
0.0
220
0.0
230
1.0
  2
SOLID
 70
     1
 71
     0
 91
        1
 92
        1
 93
        3
 72
     1
 10
220.6142893762601
 20
181.5784397444902
 11
216.6142891862702
 21
180.9117730461585
 72
     1
 10
216.6142891862702
 20
180.9117730461585
 11
220.6142893762601
 21
180.2451063478269
 72
     1
 10
220.6142893762601
 20
180.2451063478269
 11
220.6142893762601
 21
181.5784397444902
 97
        0
 75
     0
 76
     1
 98
        0
  0
LWPOLYLINE
  5
38E
330
38B
100
AcDbEntity
  8
Default
  6
Continuous
 62
     7
 48
25.4
370
    20
100
AcDbPolyline
 90
        4
 70
     1
 43
0.0
 10
220.6142893763
 20
181.5784397445
 10
216.6142891863
 20
180.9117730462
 10
220.6142893763
 20
180.2451063478
 10
220.6142893763
 20
181.5784397445
  0
HATCH
  5
38F
330
38B
100
AcDbEntity
  8
Default
  6
Continuous
 62
     7
 48
25.4
100
AcDbHatch
 10
0.0
 20
0.0
 30
0.0
210
0.0
220
0.0
230
1.0
  2
SOLID
 70
     1
 71
     0
 91
        1
 92
        1
 93
        3
 72
     1
 10
209.1142889962804
 20
181.5784397444902
 11
209.1142889962804
 21
180.2451063478269
 72
     1
 10
209.1142889962804
 20
180.2451063478269
 11
213.1142891862702
 21
180.9117730461585
 72
     1
 10
213.1142891862702
 20
180.9117730461585
 11
209.1142889962804
 21
181.5784397444902
 97
        0
 75
     0
 76
     1
 98
        0
  0
LWPOLYLINE
  5
390
330
38B
100
AcDbEntity
  8
Default
  6
Continuous
 62
     7
 48
25.4
370
    20
100
AcDbPolyline
 90
        4
 70
     1
 43
0.0
 10
209.1142889963
 20
181.5784397445
 10
213.1142891863
 20
180.9117730462
 10
209.1142889963
 20
180.2451063478
 10
209.1142889963
 20
181.5784397445
  0
LINE
  5
391
330
38B
100
AcDbEntity
  8
Default
  6
Continuous
 62
     7
 48
25.4
100
AcDbLine
 10
216.6142891863
 20
163.6876158171
 30
0.0
 11
216.6142891863
 21
182.9117731412
 31
0.0
  0
LINE
  5
392
330
38B
100
AcDbEntity
  8
Default
  6
Continuous
 62
     7
 48
25.4
100
AcDbLine
 10
213.1142891863
 20
165.0876158171
 30
0.0
 11
213.1142891863
 21
182.9117731412
 31
0.0
  0
LINE
  5
393
330
38B
100
AcDbEntity
  8
Default
  6
Continuous
 62
     7
 48
25.4
100
AcDbLine
 10
224.6142895662
 20
180.9117730462
 30
0.0
 11
202.6034286016
 21
180.9117730462
 31
0.0
  0
TEXT
  5
394
330
38B
100
AcDbEntity
  8
Default
  6
Continuous
 62
     7
 48
25.4
100
AcDbText
 10
204.0034287314
 20
181.9117730462
 30
0.0
 40
4.0
  1
5
  7
SEACAD_arial_ttf
 11
204.0034287314
 21
185.9117730462
 31
0.0
100
AcDbText
 73
     3
  0
ENDBLK
  5
396
330
38B
100
AcDbEntity
  8
0
100
AcDbBlockEnd
  0
BLOCK
  5
3A1
330
397
100
AcDbEntity
  8
0
100
AcDbBlockBegin
  2
GDimGGroup11
 70
     0
 71
     0
 10
0.0
 20
0.0
 30
0.0
  3
GDimGGroup11
  1

  0
HATCH
  5
399
330
397
100
AcDbEntity
  8
Default
  6
Continuous
 62
     7
 48
25.4
100
AcDbHatch
 10
0.0
 20
0.0
 30
0.0
210
0.0
220
0.0
230
1.0
  2
SOLID
 70
     1
 71
     0
 91
        1
 92
        1
 93
        3
 72
     1
 10
212.6142889962804
 20
181.5784397444902
 11
212.6142889962804
 21
180.2451063478269
 72
     1
 10
212.6142889962804
 20
180.2451063478269
 11
216.6142891862702
 21
180.9117730461585
 72
     1
 10
216.6142891862702
 20
180.9117730461585
 11
212.6142889962804
 21
181.5784397444902
 97
        0
 75
     0
 76
     1
 98
        0
  0
LWPOLYLINE
  5
39A
330
397
100
AcDbEntity
  8
Default
  6
Continuous
 62
     7
 48
25.4
370
    20
100
AcDbPolyline
 90
        4
 70
     1
 43
0.0
 10
212.6142889963
 20
181.5784397445
 10
216.6142891863
 20
180.9117730462
 10
212.6142889963
 20
180.2451063478
 10
212.6142889963
 20
181.5784397445
  0
HATCH
  5
39B
330
397
100
AcDbEntity
  8
Default
  6
Continuous
 62
     7
 48
25.4
100
AcDbHatch
 10
0.0
 20
0.0
 30
0.0
210
0.0
220
0.0
230
1.0
  2
SOLID
 70
     1
 71
     0
 91
        1
 92
        1
 93
        3
 72
     1
 10
222.7142893762601
 20
181.5784397444902
 11
218.7142891862703
 21
180.9117730461585
 72
     1
 10
218.7142891862703
 20
180.9117730461585
 11
222.7142893762601
 21
180.2451063478269
 72
     1
 10
222.7142893762601
 20
180.2451063478269
 11
222.7142893762601
 21
181.5784397444902
 97
        0
 75
     0
 76
     1
 98
        0
  0
LWPOLYLINE
  5
39C
330
397
100
AcDbEntity
  8
Default
  6
Continuous
 62
     7
 48
25.4
370
    20
100
AcDbPolyline
 90
        4
 70
     1
 43
0.0
 10
222.7142893763
 20
181.5784397445
 10
218.7142891863
 20
180.9117730462
 10
222.7142893763
 20
180.2451063478
 10
222.7142893763
 20
181.5784397445
  0
LINE
  5
39D
330
397
100
AcDbEntity
  8
Default
  6
Continuous
 62
     7
 48
25.4
100
AcDbLine
 10
216.6142891863
 20
163.6876158171
 30
0.0
 11
216.6142891863
 21
182.9117731412
 31
0.0
  0
LINE
  5
39E
330
397
100
AcDbEntity
  8
Default
  6
Continuous
 62
     7
 48
25.4
100
AcDbLine
 10
218.7142891863
 20
157.7376158171
 30
0.0
 11
218.7142891863
 21
182.9117731412
 31
0.0
  0
LINE
  5
39F
330
397
100
AcDbEntity
  8
Default
  6
Continuous
 62
     7
 48
25.4
100
AcDbLine
 10
208.6142888063
 20
180.9117730462
 30
0.0
 11
229.9519311407
 21
180.9117730462
 31
0.0
  0
TEXT
  5
3A0
330
397
100
AcDbEntity
  8
Default
  6
Continuous
 62
     7
 48
25.4
100
AcDbText
 10
225.4214962282
 20
181.9117730462
 30
0.0
 40
4.0
  1
3
  7
SEACAD_arial_ttf
 11
225.4214962282
 21
185.9117730462
 31
0.0
100
AcDbText
 73
     3
  0
ENDBLK
  5
3A2
330
397
100
AcDbEntity
  8
0
100
AcDbBlockEnd
  0
BLOCK
  5
3AE
330
3A3
100
AcDbEntity
  8
0
100
AcDbBlockBegin
  2
GDimGGroup12
 70
     0
 71
     0
 10
0.0
 20
0.0
 30
0.0
  3
GDimGGroup12
  1

  0
HATCH
  5
3A5
330
3A3
100
AcDbEntity
  8
Default
  6
Continuous
 62
     7
 48
25.4
100
AcDbHatch
 10
0.0
 20
0.0
 30
0.0
210
0.0
220
0.0
230
1.0
  2
SOLID
 70
     1
 71
     0
 91
        1
 92
        1
 93
        3
 72
     1
 10
233.2697787530683
 20
143.9376156271029
 11
232.6031120547366
 21
147.9376158170927
 72
     1
 10
232.6031120547366
 20
147.9376158170927
 11
231.936445356405
 21
143.9376156271029
 72
     1
 10
231.936445356405
 20
143.9376156271029
 11
233.2697787530683
 21
143.9376156271029
 97
        0
 75
     0
 76
     1
 98
        0
  0
LWPOLYLINE
  5
3A6
330
3A3
100
AcDbEntity
  8
Default
  6
Continuous
 62
     7
 48
25.4
370
    20
100
AcDbPolyline
 90
        4
 70
     1
 43
0.0
 10
233.2697787531
 20
143.9376156271
 10
232.6031120547
 20
147.9376158171
 10
231.9364453564
 20
143.9376156271
 10
233.2697787531
 20
143.9376156271
  0
HATCH
  5
3A7
330
3A3
100
AcDbEntity
  8
Default
  6
Continuous
 62
     7
 48
25.4
100
AcDbHatch
 10
0.0
 20
0.0
 30
0.0
210
0.0
220
0.0
230
1.0
  2
SOLID
 70
     1
 71
     0
 91
        1
 92
        1
 93
        3
 72
     1
 10
233.2697787530683
 20
161.7376160070824
 11
231.936445356405
 21
161.7376160070824
 72
     1
 10
231.936445356405
 20
161.7376160070824
 11
232.6031120547366
 21
157.7376158170926
 72
     1
 10
232.6031120547366
 20
157.7376158170926
 11
233.2697787530683
 21
161.7376160070824
 97
        0
 75
     0
 76
     1
 98
        0
  0
LWPOLYLINE
  5
3A8
330
3A3
100
AcDbEntity
  8
Default
  6
Continuous
 62
     7
 48
25.4
370
    20
100
AcDbPolyline
 90
        4
 70
     1
 43
0.0
 10
233.2697787531
 20
161.7376160071
 10
232.6031120547
 20
157.7376158171
 10
231.9364453564
 20
161.7376160071
 10
233.2697787531
 20
161.7376160071
  0
LINE
  5
3A9
330
3A3
100
AcDbEntity
  8
Default
  6
Continuous
 62
     7
 48
25.4
100
AcDbLine
 10
218.7142891863
 20
147.9376158171
 30
0.0
 11
234.6031121497
 21
147.9376158171
 31
0.0
  0
LINE
  5
3AA
330
3A3
100
AcDbEntity
  8
Default
  6
Continuous
 62
     7
 48
25.4
100
AcDbLine
 10
218.7142891863
 20
157.7376158171
 30
0.0
 11
234.6031121497
 21
157.7376158171
 31
0.0
  0
LINE
  5
3AB
330
3A3
100
AcDbEntity
  8
Default
  6
Continuous
 62
     7
 48
25.4
100
AcDbLine
 10
232.6031120547
 20
113.9084933751
 30
0.0
 11
232.6031120547
 21
165.737615382
 31
0.0
  0
TEXT
  5
3AC
330
3A3
100
AcDbEntity
  8
Default
  6
Continuous
 62
     7
 48
25.4
100
AcDbText
 10
231.6031120547
 20
115.3084948424
 30
0.0
 40
4.0
  1
14
 50
90.0
  7
SEACAD_arial_ttf
 11
227.6031120547
 21
115.3084948424
 31
0.0
100
AcDbText
 73
     3
  0
TEXT
  5
3AD
330
3A3
100
AcDbEntity
  8
Default
  6
Continuous
 62
     7
 48
25.4
100
AcDbText
 10
231.6031120547
 20
123.9693644076
 30
0.0
 40
4.0
  1
H8/h8
 50
90.0
  7
SEACAD_arial_ttf
 11
227.6031120547
 21
123.9693644076
 31
0.0
100
AcDbText
 73
     3
  0
ENDBLK
  5
3AF
330
3A3
100
AcDbEntity
  8
0
100
AcDbBlockEnd
  0
BLOCK
  5
3BA
330
3B0
100
AcDbEntity
  8
0
100
AcDbBlockBegin
  2
GDimGGroup13
 70
     0
 71
     0
 10
0.0
 20
0.0
 30
0.0
  3
GDimGGroup13
  1

  0
HATCH
  5
3B2
330
3B0
100
AcDbEntity
  8
Default
  6
Continuous
 62
     7
 48
25.4
100
AcDbHatch
 10
0.0
 20
0.0
 30
0.0
210
0.0
220
0.0
230
1.0
  2
SOLID
 70
     1
 71
     0
 91
        1
 92
        1
 93
        3
 72
     1
 10
284.1929880337518
 20
379.995878495806
 11
283.5263213354201
 21
383.9958786857958
 72
     1
 10
283.5263213354201
 20
383.9958786857958
 11
282.8596546370885
 21
379.995878495806
 72
     1
 10
282.8596546370885
 20
379.995878495806
 11
284.1929880337518
 21
379.995878495806
 97
        0
 75
     0
 76
     1
 98
        0
  0
LWPOLYLINE
  5
3B3
330
3B0
100
AcDbEntity
  8
Default
  6
Continuous
 62
     7
 48
25.4
370
    20
100
AcDbPolyline
 90
        4
 70
     1
 43
0.0
 10
284.1929880338
 20
379.9958784958
 10
283.5263213354
 20
383.9958786858
 10
282.8596546371
 20
379.9958784958
 10
284.1929880338
 20
379.9958784958
  0
HATCH
  5
3B4
330
3B0
100
AcDbEntity
  8
Default
  6
Continuous
 62
     7
 48
25.4
100
AcDbHatch
 10
0.0
 20
0.0
 30
0.0
210
0.0
220
0.0
230
1.0
  2
SOLID
 70
     1
 71
     0
 91
        1
 92
        1
 93
        3
 72
     1
 10
284.1929880337518
 20
368.7958779638346
 11
282.8596546370885
 21
368.7958779638346
 72
     1
 10
282.8596546370885
 20
368.7958779638346
 11
283.5263213354201
 21
364.7958777738448
 72
     1
 10
283.5263213354201
 20
364.7958777738448
 11
284.1929880337518
 21
368.7958779638346
 97
        0
 75
     0
 76
     1
 98
        0
  0
LWPOLYLINE
  5
3B5
330
3B0
100
AcDbEntity
  8
Default
  6
Continuous
 62
     7
 48
25.4
370
    20
100
AcDbPolyline
 90
        4
 70
     1
 43
0.0
 10
284.1929880338
 20
368.7958779638
 10
283.5263213354
 20
364.7958777738
 10
282.8596546371
 20
368.7958779638
 10
284.1929880338
 20
368.7958779638
  0
LINE
  5
3B6
330
3B0
100
AcDbEntity
  8
Default
  6
Continuous
 62
     7
 48
25.4
100
AcDbLine
 10
246.9977488953
 20
383.9958786858
 30
0.0
 11
285.5263214304
 21
383.9958786858
 31
0.0
  0
LINE
  5
3B7
330
3B0
100
AcDbEntity
  8
Default
  6
Continuous
 62
     7
 48
25.4
100
AcDbLine
 10
250.9217132841
 20
364.7958786858
 30
0.0
 11
285.5263214304
 21
364.7958786858
 31
0.0
  0
LINE
  5
3B8
330
3B0
100
AcDbEntity
  8
Default
  6
Continuous
 62
     7
 48
25.4
100
AcDbLine
 10
283.5263213354
 20
383.9958786858
 30
0.0
 11
283.5263213354
 21
364.7958777738
 31
0.0
  0
TEXT
  5
3B9
330
3B0
100
AcDbEntity
  8
Default
  6
Continuous
 62
     7
 48
25.4
100
AcDbText
 10
282.5263213354
 20
371.2654434472
 30
0.0
 40
4.0
  1
24
 50
90.0
  7
SEACAD_arial_ttf
 11
278.5263213354
 21
371.2654434472
 31
0.0
100
AcDbText
 73
     3
  0
ENDBLK
  5
3BB
330
3B0
100
AcDbEntity
  8
0
100
AcDbBlockEnd
  0
BLOCK
  5
3C6
330
3BC
100
AcDbEntity
  8
0
100
AcDbBlockBegin
  2
GDimGGroup14
 70
     0
 71
     0
 10
0.0
 20
0.0
 30
0.0
  3
GDimGGroup14
  1

  0
HATCH
  5
3BE
330
3BC
100
AcDbEntity
  8
Default
  6
Continuous
 62
     7
 48
25.4
100
AcDbHatch
 10
0.0
 20
0.0
 30
0.0
210
0.0
220
0.0
230
1.0
  2
SOLID
 70
     1
 71
     0
 91
        1
 92
        1
 93
        3
 72
     1
 10
284.1929871558116
 20
348.7958788757857
 11
282.8596537591483
 21
348.7958788757857
 72
     1
 10
282.8596537591483
 20
348.7958788757857
 11
283.52632045748
 21
344.7958786857959
 72
     1
 10
283.52632045748
 20
344.7958786857959
 11
284.1929871558116
 21
348.7958788757857
 97
        0
 75
     0
 76
     1
 98
        0
  0
LWPOLYLINE
  5
3BF
330
3BC
100
AcDbEntity
  8
Default
  6
Continuous
 62
     7
 48
25.4
370
    20
100
AcDbPolyline
 90
        4
 70
     1
 43
0.0
 10
284.1929871558
 20
348.7958788758
 10
283.5263204575
 20
344.7958786858
 10
282.8596537591
 20
348.7958788758
 10
284.1929871558
 20
348.7958788758
  0
HATCH
  5
3C0
330
3BC
100
AcDbEntity
  8
Default
  6
Continuous
 62
     7
 48
25.4
100
AcDbHatch
 10
0.0
 20
0.0
 30
0.0
210
0.0
220
0.0
230
1.0
  2
SOLID
 70
     1
 71
     0
 91
        1
 92
        1
 93
        3
 72
     1
 10
284.1929871558116
 20
360.7958780487712
 11
283.52632045748
 21
364.795878238761
 72
     1
 10
283.52632045748
 20
364.795878238761
 11
282.8596537591483
 21
360.7958780487712
 72
     1
 10
282.8596537591483
 20
360.7958780487712
 11
284.1929871558116
 21
360.7958780487712
 97
        0
 75
     0
 76
     1
 98
        0
  0
LWPOLYLINE
  5
3C1
330
3BC
100
AcDbEntity
  8
Default
  6
Continuous
 62
     7
 48
25.4
370
    20
100
AcDbPolyline
 90
        4
 70
     1
 43
0.0
 10
284.1929871558
 20
360.7958780488
 10
283.5263204575
 20
364.7958782388
 10
282.8596537591
 20
360.7958780488
 10
284.1929871558
 20
360.7958780488
  0
LINE
  5
3C2
330
3BC
100
AcDbEntity
  8
Default
  6
Continuous
 62
     7
 48
25.4
100
AcDbLine
 10
249.3563634157
 20
344.7958786858
 30
0.0
 11
285.5263205525
 21
344.7958786858
 31
0.0
  0
LINE
  5
3C3
330
3BC
100
AcDbEntity
  8
Default
  6
Continuous
 62
     7
 48
25.4
100
AcDbLine
 10
250.9217132841
 20
364.7958786858
 30
0.0
 11
285.5263205525
 21
364.7958786858
 31
0.0
  0
LINE
  5
3C4
330
3BC
100
AcDbEntity
  8
Default
  6
Continuous
 62
     7
 48
25.4
100
AcDbLine
 10
283.5263204575
 20
344.7958786858
 30
0.0
 11
283.5263204575
 21
364.7958782388
 31
0.0
  0
TEXT
  5
3C5
330
3BC
100
AcDbEntity
  8
Default
  6
Continuous
 62
     7
 48
25.4
100
AcDbText
 10
282.5263204575
 20
351.6654436797
 30
0.0
 40
4.0
  1
25
 50
90.0
  7
SEACAD_arial_ttf
 11
278.5263204575
 21
351.6654436797
 31
0.0
100
AcDbText
 73
     3
  0
ENDBLK
  5
3C7
330
3BC
100
AcDbEntity
  8
0
100
AcDbBlockEnd
  0
BLOCK
  5
3D3
330
3C8
100
AcDbEntity
  8
0
100
AcDbBlockBegin
  2
GDimGGroup15
 70
     0
 71
     0
 10
0.0
 20
0.0
 30
0.0
  3
GDimGGroup15
  1

  0
HATCH
  5
3CA
330
3C8
100
AcDbEntity
  8
Default
  6
Continuous
 62
     7
 48
25.4
100
AcDbHatch
 10
0.0
 20
0.0
 30
0.0
210
0.0
220
0.0
230
1.0
  2
SOLID
 70
     1
 71
     0
 91
        1
 92
        1
 93
        3
 72
     1
 10
261.5350853726455
 20
302.3958788757856
 11
262.2017520709771
 21
298.3958786857958
 72
     1
 10
262.2017520709771
 20
298.3958786857958
 11
262.8684187693088
 21
302.3958788757856
 72
     1
 10
262.8684187693088
 20
302.3958788757856
 11
261.5350853726455
 21
302.3958788757856
 97
        0
 75
     0
 76
     1
 98
        0
  0
LWPOLYLINE
  5
3CB
330
3C8
100
AcDbEntity
  8
Default
  6
Continuous
 62
     7
 48
25.4
370
    20
100
AcDbPolyline
 90
        4
 70
     1
 43
0.0
 10
261.5350853726
 20
302.3958788758
 10
262.201752071
 20
298.3958786858
 10
262.8684187693
 20
302.3958788758
 10
261.5350853726
 20
302.3958788758
  0
HATCH
  5
3CC
330
3C8
100
AcDbEntity
  8
Default
  6
Continuous
 62
     7
 48
25.4
100
AcDbHatch
 10
0.0
 20
0.0
 30
0.0
210
0.0
220
0.0
230
1.0
  2
SOLID
 70
     1
 71
     0
 91
        1
 92
        1
 93
        3
 72
     1
 10
261.5350853726455
 20
331.4358774145777
 11
262.8684187693088
 21
331.4358774145777
 72
     1
 10
262.8684187693088
 20
331.4358774145777
 11
262.2017520709771
 21
335.4358776045675
 72
     1
 10
262.2017520709771
 20
335.4358776045675
 11
261.5350853726455
 21
331.4358774145777
 97
        0
 75
     0
 76
     1
 98
        0
  0
LWPOLYLINE
  5
3CD
330
3C8
100
AcDbEntity
  8
Default
  6
Continuous
 62
     7
 48
25.4
370
    20
100
AcDbPolyline
 90
        4
 70
     1
 43
0.0
 10
261.5350853726
 20
331.4358774146
 10
262.201752071
 20
335.4358776046
 10
262.8684187693
 20
331.4358774146
 10
261.5350853726
 20
331.4358774146
  0
LINE
  5
3CE
330
3C8
100
AcDbEntity
  8
Default
  6
Continuous
 62
     7
 48
25.4
100
AcDbLine
 10
216.5977487716
 20
335.4358786858
 30
0.0
 11
264.201752166
 21
335.4358786858
 31
0.0
  0
LINE
  5
3CF
330
3C8
100
AcDbEntity
  8
Default
  6
Continuous
 62
     7
 48
25.4
100
AcDbLine
 10
262.201752071
 20
268.4779326005
 30
0.0
 11
262.201752071
 21
335.4358776046
 31
0.0
  0
TEXT
  5
3D0
330
3C8
100
AcDbEntity
  8
Default
  6
Continuous
 62
     7
 48
25.4
100
AcDbText
 10
255.201752071
 20
284.590975953
 30
0.0
 40
4.0
  1
46.3
 50
90.0
  7
SEACAD_arial_ttf
 11
251.201752071
 21
284.590975953
 31
0.0
100
AcDbText
 73
     3
  0
TEXT
  5
3D1
330
3C8
100
AcDbEntity
  8
Default
  6
Continuous
 62
     7
 48
25.4
100
AcDbText
 10
255.201752071
 20
269.8779324747
 30
0.0
 40
4.0
  1
MAX
 50
90.0
  7
SEACAD_arial_ttf
 11
251.201752071
 21
269.8779324747
 31
0.0
100
AcDbText
 73
     3
  0
TEXT
  5
3D2
330
3C8
100
AcDbEntity
  8
Default
  6
Continuous
 62
     7
 48
25.4
100
AcDbText
 10
261.201752071
 20
269.8779324747
 30
0.0
 40
4.0
  1
MIN41.9
 50
90.0
  7
SEACAD_arial_ttf
 11
257.201752071
 21
269.8779324747
 31
0.0
100
AcDbText
 73
     3
  0
ENDBLK
  5
3D4
330
3C8
100
AcDbEntity
  8
0
100
AcDbBlockEnd
  0
BLOCK
  5
3DE
330
3D5
100
AcDbEntity
  8
0
100
AcDbBlockBegin
  2
GDimGGroup16
 70
     0
 71
     0
 10
0.0
 20
0.0
 30
0.0
  3
GDimGGroup16
  1

  0
HATCH
  5
3D7
330
3D5
100
AcDbEntity
  8
Default
  6
Continuous
 62
     7
 48
25.4
100
AcDbHatch
 10
0.0
 20
0.0
 30
0.0
210
0.0
220
0.0
230
1.0
  2
SOLID
 70
     1
 71
     0
 91
        1
 92
        1
 93
        3
 72
     1
 10
217.3977490852625
 20
223.3100651514119
 11
213.3977488952727
 21
222.6433984530803
 72
     1
 10
213.3977488952727
 20
222.6433984530803
 11
217.3977490852625
 21
221.9767317547487
 72
     1
 10
217.3977490852625
 20
221.9767317547487
 11
217.3977490852625
 21
223.3100651514119
 97
        0
 75
     0
 76
     1
 98
        0
  0
LWPOLYLINE
  5
3D8
330
3D5
100
AcDbEntity
  8
Default
  6
Continuous
 62
     7
 48
25.4
370
    20
100
AcDbPolyline
 90
        4
 70
     1
 43
0.0
 10
217.3977490853
 20
223.3100651514
 10
213.3977488953
 20
222.6433984531
 10
217.3977490853
 20
221.9767317547
 10
217.3977490853
 20
223.3100651514
  0
HATCH
  5
3D9
330
3D5
100
AcDbEntity
  8
Default
  6
Continuous
 62
     7
 48
25.4
100
AcDbHatch
 10
0.0
 20
0.0
 30
0.0
210
0.0
220
0.0
230
1.0
  2
SOLID
 70
     1
 71
     0
 91
        1
 92
        1
 93
        3
 72
     1
 10
197.3946212322195
 20
223.3100651514119
 11
197.3946212322195
 21
221.9767317547487
 72
     1
 10
197.3946212322195
 20
221.9767317547487
 11
201.3946214222093
 21
222.6433984530803
 72
     1
 10
201.3946214222093
 20
222.6433984530803
 11
197.3946212322195
 21
223.3100651514119
 97
        0
 75
     0
 76
     1
 98
        0
  0
LWPOLYLINE
  5
3DA
330
3D5
100
AcDbEntity
  8
Default
  6
Continuous
 62
     7
 48
25.4
370
    20
100
AcDbPolyline
 90
        4
 70
     1
 43
0.0
 10
197.3946212322
 20
223.3100651514
 10
201.3946214222
 20
222.6433984531
 10
197.3946212322
 20
221.9767317547
 10
197.3946212322
 20
223.3100651514
  0
LINE
  5
3DB
330
3D5
100
AcDbEntity
  8
Default
  6
Continuous
 62
     7
 48
25.4
100
AcDbLine
 10
201.3946214222
 20
237.0358786858
 30
0.0
 11
201.3946214222
 21
220.6433983581
 31
0.0
  0
LINE
  5
3DC
330
3D5
100
AcDbEntity
  8
Default
  6
Continuous
 62
     7
 48
25.4
100
AcDbLine
 10
221.3977492753
 20
222.6433984531
 30
0.0
 11
193.3946219611
 21
222.6433984531
 31
0.0
  0
TEXT
  5
3DD
330
3D5
100
AcDbEntity
  8
Default
  6
Continuous
 62
     7
 48
25.4
100
AcDbText
 10
204.2657503699
 20
223.6433984531
 30
0.0
 40
4.0
  1
15
  7
SEACAD_arial_ttf
 11
204.2657503699
 21
227.6433984531
 31
0.0
100
AcDbText
 73
     3
  0
ENDBLK
  5
3DF
330
3D5
100
AcDbEntity
  8
0
100
AcDbBlockEnd
  0
BLOCK
  5
3E9
330
3E0
100
AcDbEntity
  8
0
100
AcDbBlockBegin
  2
GDimGGroup17
 70
     0
 71
     0
 10
0.0
 20
0.0
 30
0.0
  3
GDimGGroup17
  1

  0
HATCH
  5
3E2
330
3E0
100
AcDbEntity
  8
Default
  6
Continuous
 62
     7
 48
25.4
100
AcDbHatch
 10
0.0
 20
0.0
 30
0.0
210
0.0
220
0.0
230
1.0
  2
SOLID
 70
     1
 71
     0
 91
        1
 92
        1
 93
        3
 72
     1
 10
199.1306801425021
 20
292.3958788757857
 11
197.7973467458388
 21
292.3958788757857
 72
     1
 10
197.7973467458388
 20
292.3958788757857
 11
198.4640134441704
 21
288.3958786857959
 72
     1
 10
198.4640134441704
 20
288.3958786857959
 11
199.1306801425021
 21
292.3958788757857
 97
        0
 75
     0
 76
     1
 98
        0
  0
LWPOLYLINE
  5
3E3
330
3E0
100
AcDbEntity
  8
Default
  6
Continuous
 62
     7
 48
25.4
370
    20
100
AcDbPolyline
 90
        4
 70
     1
 43
0.0
 10
199.1306801425
 20
292.3958788758
 10
198.4640134442
 20
288.3958786858
 10
197.7973467458
 20
292.3958788758
 10
199.1306801425
 20
292.3958788758
  0
HATCH
  5
3E4
330
3E0
100
AcDbEntity
  8
Default
  6
Continuous
 62
     7
 48
25.4
100
AcDbHatch
 10
0.0
 20
0.0
 30
0.0
210
0.0
220
0.0
230
1.0
  2
SOLID
 70
     1
 71
     0
 91
        1
 92
        1
 93
        3
 72
     1
 10
199.1306801425021
 20
304.3958780487712
 11
198.4640134441704
 21
308.395878238761
 72
     1
 10
198.4640134441704
 20
308.395878238761
 11
197.7973467458388
 21
304.3958780487712
 72
     1
 10
197.7973467458388
 20
304.3958780487712
 11
199.1306801425021
 21
304.3958780487712
 97
        0
 75
     0
 76
     1
 98
        0
  0
LWPOLYLINE
  5
3E5
330
3E0
100
AcDbEntity
  8
Default
  6
Continuous
 62
     7
 48
25.4
370
    20
100
AcDbPolyline
 90
        4
 70
     1
 43
0.0
 10
199.1306801425
 20
304.3958780488
 10
198.4640134442
 20
308.3958782388
 10
197.7973467458
 20
304.3958780488
 10
199.1306801425
 20
304.3958780488
  0
LINE
  5
3E6
330
3E0
100
AcDbEntity
  8
Default
  6
Continuous
 62
     7
 48
25.4
100
AcDbLine
 10
198.4640134442
 20
288.3958786858
 30
0.0
 11
198.4640134442
 21
308.3958782388
 31
0.0
  0
TEXT
  5
3E7
330
3E0
100
AcDbEntity
  8
Default
  6
Continuous
 62
     7
 48
25.4
100
AcDbText
 10
197.4640134442
 20
298.9461454341
 30
0.0
 40
4.0
  1
25
 50
90.0
  7
SEACAD_arial_ttf
 11
193.4640134442
 21
298.9461454341
 31
0.0
100
AcDbText
 73
     3
  0
TEXT
  5
3E8
330
3E0
100
AcDbEntity
  8
Default
  6
Continuous
 62
     7
 48
25.4
100
AcDbText
 10
197.4640134442
 20
291.5847419253
 30
0.0
 40
4.0
  1
O
 50
90.0
  7
SEACAD_semeca1_ttf
 11
193.4640134442
 21
291.5847419253
 31
0.0
100
AcDbText
 73
     3
  0
ENDBLK
  5
3EA
330
3E0
100
AcDbEntity
  8
0
100
AcDbBlockEnd
  0
BLOCK
  5
3F4
330
3EB
100
AcDbEntity
  8
0
100
AcDbBlockBegin
  2
GDimGGroup18
 70
     0
 71
     0
 10
0.0
 20
0.0
 30
0.0
  3
GDimGGroup18
  1

  0
HATCH
  5
3ED
330
3EB
100
AcDbEntity
  8
Default
  6
Continuous
 62
     7
 48
25.4
100
AcDbHatch
 10
0.0
 20
0.0
 30
0.0
210
0.0
220
0.0
230
1.0
  2
SOLID
 70
     1
 71
     0
 91
        1
 92
        1
 93
        3
 72
     1
 10
175.1971834497254
 20
287.1958788757856
 11
173.8638500530621
 21
287.1958788757856
 72
     1
 10
173.8638500530621
 20
287.1958788757856
 11
174.5305167513938
 21
283.1958786857958
 72
     1
 10
174.5305167513938
 20
283.1958786857958
 11
175.1971834497254
 21
287.1958788757856
 97
        0
 75
     0
 76
     1
 98
        0
  0
LWPOLYLINE
  5
3EE
330
3EB
100
AcDbEntity
  8
Default
  6
Continuous
 62
     7
 48
25.4
370
    20
100
AcDbPolyline
 90
        4
 70
     1
 43
0.0
 10
175.1971834497
 20
287.1958788758
 10
174.5305167514
 20
283.1958786858
 10
173.8638500531
 20
287.1958788758
 10
175.1971834497
 20
287.1958788758
  0
HATCH
  5
3EF
330
3EB
100
AcDbEntity
  8
Default
  6
Continuous
 62
     7
 48
25.4
100
AcDbHatch
 10
0.0
 20
0.0
 30
0.0
210
0.0
220
0.0
230
1.0
  2
SOLID
 70
     1
 71
     0
 91
        1
 92
        1
 93
        3
 72
     1
 10
175.1971834497254
 20
309.5958790084059
 11
174.5305167513938
 21
313.5958791983957
 72
     1
 10
174.5305167513938
 20
313.5958791983957
 11
173.8638500530621
 21
309.5958790084059
 72
     1
 10
173.8638500530621
 20
309.5958790084059
 11
175.1971834497254
 21
309.5958790084059
 97
        0
 75
     0
 76
     1
 98
        0
  0
LWPOLYLINE
  5
3F0
330
3EB
100
AcDbEntity
  8
Default
  6
Continuous
 62
     7
 48
25.4
370
    20
100
AcDbPolyline
 90
        4
 70
     1
 43
0.0
 10
175.1971834497
 20
309.5958790084
 10
174.5305167514
 20
313.5958791984
 10
173.8638500531
 20
309.5958790084
 10
175.1971834497
 20
309.5958790084
  0
LINE
  5
3F1
330
3EB
100
AcDbEntity
  8
Default
  6
Continuous
 62
     7
 48
25.4
100
AcDbLine
 10
174.5305167514
 20
283.1958786858
 30
0.0
 11
174.5305167514
 21
313.5958791984
 31
0.0
  0
TEXT
  5
3F2
330
3EB
100
AcDbEntity
  8
Default
  6
Continuous
 62
     7
 48
25.4
100
AcDbText
 10
173.5305167514
 20
298.9461459139
 30
0.0
 40
4.0
  1
38
 50
90.0
  7
SEACAD_arial_ttf
 11
169.5305167514
 21
298.9461459139
 31
0.0
100
AcDbText
 73
     3
  0
TEXT
  5
3F3
330
3EB
100
AcDbEntity
  8
Default
  6
Continuous
 62
     7
 48
25.4
100
AcDbText
 10
173.5305167514
 20
291.5847424051
 30
0.0
 40
4.0
  1
O
 50
90.0
  7
SEACAD_semeca1_ttf
 11
169.5305167514
 21
291.5847424051
 31
0.0
100
AcDbText
 73
     3
  0
ENDBLK
  5
3F5
330
3EB
100
AcDbEntity
  8
0
100
AcDbBlockEnd
  0
BLOCK
  5
401
330
3F6
100
AcDbEntity
  8
0
100
AcDbBlockBegin
  2
GDimGGroup19
 70
     0
 71
     0
 10
0.0
 20
0.0
 30
0.0
  3
GDimGGroup19
  1

  0
HATCH
  5
3F8
330
3F6
100
AcDbEntity
  8
Default
  6
Continuous
 62
     7
 48
25.4
100
AcDbHatch
 10
0.0
 20
0.0
 30
0.0
210
0.0
220
0.0
230
1.0
  2
SOLID
 70
     1
 71
     0
 91
        1
 92
        1
 93
        3
 72
     1
 10
138.3632630888721
 20
267.9958788757856
 11
139.0299297872037
 21
263.9958786857958
 72
     1
 10
139.0299297872037
 20
263.9958786857958
 11
139.6965964855354
 21
267.9958788757856
 72
     1
 10
139.6965964855354
 20
267.9958788757856
 11
138.3632630888721
 21
267.9958788757856
 97
        0
 75
     0
 76
     1
 98
        0
  0
LWPOLYLINE
  5
3F9
330
3F6
100
AcDbEntity
  8
Default
  6
Continuous
 62
     7
 48
25.4
370
    20
100
AcDbPolyline
 90
        4
 70
     1
 43
0.0
 10
138.3632630889
 20
267.9958788758
 10
139.0299297872
 20
263.9958786858
 10
139.6965964855
 20
267.9958788758
 10
138.3632630889
 20
267.9958788758
  0
HATCH
  5
3FA
330
3F6
100
AcDbEntity
  8
Default
  6
Continuous
 62
     7
 48
25.4
100
AcDbHatch
 10
0.0
 20
0.0
 30
0.0
210
0.0
220
0.0
230
1.0
  2
SOLID
 70
     1
 71
     0
 91
        1
 92
        1
 93
        3
 72
     1
 10
138.3632630888721
 20
328.7958808323081
 11
139.6965964855354
 21
328.7958808323081
 72
     1
 10
139.6965964855354
 20
328.7958808323081
 11
139.0299297872037
 21
332.7958810222979
 72
     1
 10
139.0299297872037
 20
332.7958810222979
 11
138.3632630888721
 21
328.7958808323081
 97
        0
 75
     0
 76
     1
 98
        0
  0
LWPOLYLINE
  5
3FB
330
3F6
100
AcDbEntity
  8
Default
  6
Continuous
 62
     7
 48
25.4
370
    20
100
AcDbPolyline
 90
        4
 70
     1
 43
0.0
 10
138.3632630889
 20
328.7958808323
 10
139.0299297872
 20
332.7958810223
 10
139.6965964855
 20
328.7958808323
 10
138.3632630889
 20
328.7958808323
  0
LINE
  5
3FC
330
3F6
100
AcDbEntity
  8
Default
  6
Continuous
 62
     7
 48
25.4
100
AcDbLine
 10
149.3977488953
 20
263.9958786858
 30
0.0
 11
137.0299296922
 21
263.9958786858
 31
0.0
  0
LINE
  5
3FD
330
3F6
100
AcDbEntity
  8
Default
  6
Continuous
 62
     7
 48
25.4
100
AcDbLine
 10
149.3977488953
 20
332.7958786858
 30
0.0
 11
137.0299296922
 21
332.7958786858
 31
0.0
  0
LINE
  5
3FE
330
3F6
100
AcDbEntity
  8
Default
  6
Continuous
 62
     7
 48
25.4
100
AcDbLine
 10
139.0299297872
 20
263.9958786858
 30
0.0
 11
139.0299297872
 21
332.7958810223
 31
0.0
  0
TEXT
  5
3FF
330
3F6
100
AcDbEntity
  8
Default
  6
Continuous
 62
     7
 48
25.4
100
AcDbText
 10
138.0299297872
 20
298.9461468258
 30
0.0
 40
4.0
  1
86
 50
90.0
  7
SEACAD_arial_ttf
 11
134.0299297872
 21
298.9461468258
 31
0.0
100
AcDbText
 73
     3
  0
TEXT
  5
400
330
3F6
100
AcDbEntity
  8
Default
  6
Continuous
 62
     7
 48
25.4
100
AcDbText
 10
138.0299297872
 20
291.5847433171
 30
0.0
 40
4.0
  1
O
 50
90.0
  7
SEACAD_semeca1_ttf
 11
134.0299297872
 21
291.5847433171
 31
0.0
100
AcDbText
 73
     3
  0
ENDBLK
  5
402
330
3F6
100
AcDbEntity
  8
0
100
AcDbBlockEnd
  0
BLOCK
  5
40E
330
403
100
AcDbEntity
  8
0
100
AcDbBlockBegin
  2
GDimGGroup20
 70
     0
 71
     0
 10
0.0
 20
0.0
 30
0.0
  3
GDimGGroup20
  1

  0
HATCH
  5
405
330
403
100
AcDbEntity
  8
Default
  6
Continuous
 62
     7
 48
25.4
100
AcDbHatch
 10
0.0
 20
0.0
 30
0.0
210
0.0
220
0.0
230
1.0
  2
SOLID
 70
     1
 71
     0
 91
        1
 92
        1
 93
        3
 72
     1
 10
155.8347561466337
 20
280.7958788757856
 11
156.5014228449653
 21
276.7958786857957
 72
     1
 10
156.5014228449653
 20
276.7958786857957
 11
157.1680895432969
 21
280.7958788757856
 72
     1
 10
157.1680895432969
 20
280.7958788757856
 11
155.8347561466337
 21
280.7958788757856
 97
        0
 75
     0
 76
     1
 98
        0
  0
LWPOLYLINE
  5
406
330
403
100
AcDbEntity
  8
Default
  6
Continuous
 62
     7
 48
25.4
370
    20
100
AcDbPolyline
 90
        4
 70
     1
 43
0.0
 10
155.8347561466
 20
280.7958788758
 10
156.501422845
 20
276.7958786858
 10
157.1680895433
 20
280.7958788758
 10
155.8347561466
 20
280.7958788758
  0
HATCH
  5
407
330
403
100
AcDbEntity
  8
Default
  6
Continuous
 62
     7
 48
25.4
100
AcDbHatch
 10
0.0
 20
0.0
 30
0.0
210
0.0
220
0.0
230
1.0
  2
SOLID
 70
     1
 71
     0
 91
        1
 92
        1
 93
        3
 72
     1
 10
155.8347561466337
 20
315.9958796163733
 11
157.1680895432969
 21
315.9958796163733
 72
     1
 10
157.1680895432969
 20
315.9958796163733
 11
156.5014228449653
 21
319.9958798063631
 72
     1
 10
156.5014228449653
 20
319.9958798063631
 11
155.8347561466337
 21
315.9958796163733
 97
        0
 75
     0
 76
     1
 98
        0
  0
LWPOLYLINE
  5
408
330
403
100
AcDbEntity
  8
Default
  6
Continuous
 62
     7
 48
25.4
370
    20
100
AcDbPolyline
 90
        4
 70
     1
 43
0.0
 10
155.8347561466
 20
315.9958796164
 10
156.501422845
 20
319.9958798064
 10
157.1680895433
 20
315.9958796164
 10
155.8347561466
 20
315.9958796164
  0
LINE
  5
409
330
403
100
AcDbEntity
  8
Default
  6
Continuous
 62
     7
 48
25.4
100
AcDbLine
 10
161.7890104876
 20
276.7958786858
 30
0.0
 11
154.50142275
 21
276.7958786858
 31
0.0
  0
LINE
  5
40A
330
403
100
AcDbEntity
  8
Default
  6
Continuous
 62
     7
 48
25.4
100
AcDbLine
 10
161.3890104876
 20
319.9958786858
 30
0.0
 11
154.50142275
 21
319.9958786858
 31
0.0
  0
LINE
  5
40B
330
403
100
AcDbEntity
  8
Default
  6
Continuous
 62
     7
 48
25.4
100
AcDbLine
 10
156.501422845
 20
276.7958786858
 30
0.0
 11
156.501422845
 21
319.9958798064
 31
0.0
  0
TEXT
  5
40C
330
403
100
AcDbEntity
  8
Default
  6
Continuous
 62
     7
 48
25.4
100
AcDbText
 10
155.501422845
 20
298.9461462179
 30
0.0
 40
4.0
  1
54
 50
90.0
  7
SEACAD_arial_ttf
 11
151.501422845
 21
298.9461462179
 31
0.0
100
AcDbText
 73
     3
  0
TEXT
  5
40D
330
403
100
AcDbEntity
  8
Default
  6
Continuous
 62
     7
 48
25.4
100
AcDbText
 10
155.501422845
 20
291.5847427091
 30
0.0
 40
4.0
  1
O
 50
90.0
  7
SEACAD_semeca1_ttf
 11
151.501422845
 21
291.5847427091
 31
0.0
100
AcDbText
 73
     3
  0
ENDBLK
  5
40F
330
403
100
AcDbEntity
  8
0
100
AcDbBlockEnd
  0
BLOCK
  5
41A
330
410
100
AcDbEntity
  8
0
100
AcDbBlockBegin
  2
GDimGGroup21
 70
     0
 71
     0
 10
0.0
 20
0.0
 30
0.0
  3
GDimGGroup21
  1

  0
HATCH
  5
412
330
410
100
AcDbEntity
  8
Default
  6
Continuous
 62
     7
 48
25.4
100
AcDbHatch
 10
0.0
 20
0.0
 30
0.0
210
0.0
220
0.0
230
1.0
  2
SOLID
 70
     1
 71
     0
 91
        1
 92
        1
 93
        3
 72
     1
 10
139.7977490852625
 20
191.163701948319
 11
139.7977490852625
 21
192.4970353449823
 72
     1
 10
139.7977490852625
 20
192.4970353449823
 11
135.7977488952727
 21
191.8303686466506
 72
     1
 10
135.7977488952727
 20
191.8303686466506
 11
139.7977490852625
 21
191.163701948319
 97
        0
 75
     0
 76
     1
 98
        0
  0
LWPOLYLINE
  5
413
330
410
100
AcDbEntity
  8
Default
  6
Continuous
 62
     7
 48
25.4
370
    20
100
AcDbPolyline
 90
        4
 70
     1
 43
0.0
 10
139.7977490853
 20
191.1637019483
 10
135.7977488953
 20
191.8303686467
 10
139.7977490853
 20
192.497035345
 10
139.7977490853
 20
191.1637019483
  0
HATCH
  5
414
330
410
100
AcDbEntity
  8
Default
  6
Continuous
 62
     7
 48
25.4
100
AcDbHatch
 10
0.0
 20
0.0
 30
0.0
210
0.0
220
0.0
230
1.0
  2
SOLID
 70
     1
 71
     0
 91
        1
 92
        1
 93
        3
 72
     1
 10
209.3977509941012
 20
191.163701948319
 11
213.3977511840911
 21
191.8303686466506
 72
     1
 10
213.3977511840911
 20
191.8303686466506
 11
209.3977509941012
 21
192.4970353449823
 72
     1
 10
209.3977509941012
 20
192.4970353449823
 11
209.3977509941012
 21
191.163701948319
 97
        0
 75
     0
 76
     1
 98
        0
  0
LWPOLYLINE
  5
415
330
410
100
AcDbEntity
  8
Default
  6
Continuous
 62
     7
 48
25.4
370
    20
100
AcDbPolyline
 90
        4
 70
     1
 43
0.0
 10
209.3977509941
 20
191.1637019483
 10
213.3977511841
 20
191.8303686467
 10
209.3977509941
 20
192.497035345
 10
209.3977509941
 20
191.1637019483
  0
LINE
  5
416
330
410
100
AcDbEntity
  8
Default
  6
Continuous
 62
     7
 48
25.4
100
AcDbLine
 10
135.7977488953
 20
235.6553505447
 30
0.0
 11
135.7977488953
 21
189.8303685517
 31
0.0
  0
LINE
  5
417
330
410
100
AcDbEntity
  8
Default
  6
Continuous
 62
     7
 48
25.4
100
AcDbLine
 10
213.3977488953
 20
215.9958786858
 30
0.0
 11
213.3977488953
 21
189.8303685517
 31
0.0
  0
LINE
  5
418
330
410
100
AcDbEntity
  8
Default
  6
Continuous
 62
     7
 48
25.4
100
AcDbLine
 10
135.7977488953
 20
191.8303686467
 30
0.0
 11
213.3977511841
 21
191.8303686467
 31
0.0
  0
TEXT
  5
419
330
410
100
AcDbEntity
  8
Default
  6
Continuous
 62
     7
 48
25.4
100
AcDbText
 10
171.4673152571
 20
192.8303686467
 30
0.0
 40
4.0
  1
97
  7
SEACAD_arial_ttf
 11
171.4673152571
 21
196.8303686467
 31
0.0
100
AcDbText
 73
     3
  0
ENDBLK
  5
41B
330
410
100
AcDbEntity
  8
0
100
AcDbBlockEnd
  0
BLOCK
  5
426
330
41C
100
AcDbEntity
  8
0
100
AcDbBlockBegin
  2
GDimGGroup22
 70
     0
 71
     0
 10
0.0
 20
0.0
 30
0.0
  3
GDimGGroup22
  1

  0
HATCH
  5
41E
330
41C
100
AcDbEntity
  8
Default
  6
Continuous
 62
     7
 48
25.4
100
AcDbHatch
 10
0.0
 20
0.0
 30
0.0
210
0.0
220
0.0
230
1.0
  2
SOLID
 70
     1
 71
     0
 91
        1
 92
        1
 93
        3
 72
     1
 10
131.7977487052829
 20
191.163701948319
 11
135.7977488952727
 21
191.8303686466506
 72
     1
 10
135.7977488952727
 20
191.8303686466506
 11
131.7977487052829
 21
192.4970353449823
 72
     1
 10
131.7977487052829
 20
192.4970353449823
 11
131.7977487052829
 21
191.163701948319
 97
        0
 75
     0
 76
     1
 98
        0
  0
LWPOLYLINE
  5
41F
330
41C
100
AcDbEntity
  8
Default
  6
Continuous
 62
     7
 48
25.4
370
    20
100
AcDbPolyline
 90
        4
 70
     1
 43
0.0
 10
131.7977487053
 20
191.1637019483
 10
135.7977488953
 20
191.8303686467
 10
131.7977487053
 20
192.497035345
 10
131.7977487053
 20
191.1637019483
  0
HATCH
  5
420
330
41C
100
AcDbEntity
  8
Default
  6
Continuous
 62
     7
 48
25.4
100
AcDbHatch
 10
0.0
 20
0.0
 30
0.0
210
0.0
220
0.0
230
1.0
  2
SOLID
 70
     1
 71
     0
 91
        1
 92
        1
 93
        3
 72
     1
 10
125.3977493326218
 20
191.163701948319
 11
125.3977493326218
 21
192.4970353449823
 72
     1
 10
125.3977493326218
 20
192.4970353449823
 11
121.397749142632
 21
191.8303686466506
 72
     1
 10
121.397749142632
 20
191.8303686466506
 11
125.3977493326218
 21
191.163701948319
 97
        0
 75
     0
 76
     1
 98
        0
  0
LWPOLYLINE
  5
421
330
41C
100
AcDbEntity
  8
Default
  6
Continuous
 62
     7
 48
25.4
370
    20
100
AcDbPolyline
 90
        4
 70
     1
 43
0.0
 10
125.3977493326
 20
191.1637019483
 10
121.3977491426
 20
191.8303686467
 10
125.3977493326
 20
192.497035345
 10
125.3977493326
 20
191.1637019483
  0
LINE
  5
422
330
41C
100
AcDbEntity
  8
Default
  6
Continuous
 62
     7
 48
25.4
100
AcDbLine
 10
135.7977488953
 20
235.6553505447
 30
0.0
 11
135.7977488953
 21
189.8303685517
 31
0.0
  0
LINE
  5
423
330
41C
100
AcDbEntity
  8
Default
  6
Continuous
 62
     7
 48
25.4
100
AcDbLine
 10
121.3977488953
 20
244.9148224036
 30
0.0
 11
121.3977488953
 21
189.8303685517
 31
0.0
  0
LINE
  5
424
330
41C
100
AcDbEntity
  8
Default
  6
Continuous
 62
     7
 48
25.4
100
AcDbLine
 10
135.7977488953
 20
191.8303686467
 30
0.0
 11
121.3977491426
 21
191.8303686467
 31
0.0
  0
TEXT
  5
425
330
41C
100
AcDbEntity
  8
Default
  6
Continuous
 62
     7
 48
25.4
100
AcDbText
 10
125.4673142363
 20
192.8303686467
 30
0.0
 40
4.0
  1
18
  7
SEACAD_arial_ttf
 11
125.4673142363
 21
196.8303686467
 31
0.0
100
AcDbText
 73
     3
  0
ENDBLK
  5
427
330
41C
100
AcDbEntity
  8
0
100
AcDbBlockEnd
  0
BLOCK
  5
430
330
428
100
AcDbEntity
  8
0
100
AcDbBlockBegin
  2
GDimGGroup23
 70
     0
 71
     0
 10
0.0
 20
0.0
 30
0.0
  3
GDimGGroup23
  1

  0
HATCH
  5
42A
330
428
100
AcDbEntity
  8
Default
  6
Continuous
 62
     7
 48
25.4
100
AcDbHatch
 10
0.0
 20
0.0
 30
0.0
210
0.0
220
0.0
230
1.0
  2
SOLID
 70
     1
 71
     0
 91
        1
 92
        1
 93
        3
 72
     1
 10
60.08144757341357
 20
378.395878495806
 11
61.41478097007683
 21
378.395878495806
 72
     1
 10
61.41478097007683
 20
378.395878495806
 11
60.7481142717452
 21
382.3958786857958
 72
     1
 10
60.7481142717452
 20
382.3958786857958
 11
60.08144757341357
 21
378.395878495806
 97
        0
 75
     0
 76
     1
 98
        0
  0
LWPOLYLINE
  5
42B
330
428
100
AcDbEntity
  8
Default
  6
Continuous
 62
     7
 48
25.4
370
    20
100
AcDbPolyline
 90
        4
 70
     1
 43
0.0
 10
60.0814475734
 20
378.3958784958
 10
60.7481142717
 20
382.3958786858
 10
61.4147809701
 20
378.3958784958
 10
60.0814475734
 20
378.3958784958
  0
LINE
  5
42C
330
428
100
AcDbEntity
  8
Default
  6
Continuous
 62
     7
 48
25.4
100
AcDbLine
 10
146.9977488953
 20
382.3958786858
 30
0.0
 11
58.7481141768
 21
382.3958786858
 31
0.0
  0
LINE
  5
42D
330
428
100
AcDbEntity
  8
Default
  6
Continuous
 62
     7
 48
25.4
100
AcDbLine
 10
60.7481142717
 20
382.3958786858
 30
0.0
 11
60.7481142717
 21
298.3958798183
 31
0.0
  0
TEXT
  5
42E
330
428
100
AcDbEntity
  8
Default
  6
Continuous
 62
     7
 48
25.4
100
AcDbText
 10
59.7481142717
 20
339.1840859219
 30
0.0
 40
4.0
  1
O
 50
90.0
  7
SEACAD_semeca1_ttf
 11
55.7481142717
 21
339.1840859219
 31
0.0
100
AcDbText
 73
     3
  0
TEXT
  5
42F
330
428
100
AcDbEntity
  8
Default
  6
Continuous
 62
     7
 48
25.4
100
AcDbText
 10
59.7481142717
 20
346.1454894306
 30
0.0
 40
4.0
  1
210
 50
90.0
  7
SEACAD_arial_ttf
 11
55.7481142717
 21
346.1454894306
 31
0.0
100
AcDbText
 73
     3
  0
ENDBLK
  5
431
330
428
100
AcDbEntity
  8
0
100
AcDbBlockEnd
  0
BLOCK
  5
43B
330
432
100
AcDbEntity
  8
0
100
AcDbBlockBegin
  2
GDimGGroup24
 70
     0
 71
     0
 10
0.0
 20
0.0
 30
0.0
  3
GDimGGroup24
  1

  0
HATCH
  5
434
330
432
100
AcDbEntity
  8
Default
  6
Continuous
 62
     7
 48
25.4
100
AcDbHatch
 10
0.0
 20
0.0
 30
0.0
210
0.0
220
0.0
230
1.0
  2
SOLID
 70
     1
 71
     0
 91
        1
 92
        1
 93
        3
 72
     1
 10
82.1301444251439
 20
362.395878495806
 11
83.46347782180717
 21
362.395878495806
 72
     1
 10
83.46347782180717
 20
362.395878495806
 11
82.79681112347554
 21
366.3958786857958
 72
     1
 10
82.79681112347554
 20
366.3958786857958
 11
82.1301444251439
 21
362.395878495806
 97
        0
 75
     0
 76
     1
 98
        0
  0
LWPOLYLINE
  5
435
330
432
100
AcDbEntity
  8
Default
  6
Continuous
 62
     7
 48
25.4
370
    20
100
AcDbPolyline
 90
        4
 70
     1
 43
0.0
 10
82.1301444251
 20
362.3958784958
 10
82.7968111235
 20
366.3958786858
 10
83.4634778218
 20
362.3958784958
 10
82.1301444251
 20
362.3958784958
  0
LINE
  5
436
330
432
100
AcDbEntity
  8
Default
  6
Continuous
 62
     7
 48
25.4
100
AcDbLine
 10
142.5977488953
 20
366.3958786858
 30
0.0
 11
80.7968110285
 21
366.3958786858
 31
0.0
  0
LINE
  5
437
330
432
100
AcDbEntity
  8
Default
  6
Continuous
 62
     7
 48
25.4
100
AcDbLine
 10
82.7968111235
 20
366.3958786858
 30
0.0
 11
82.7968111235
 21
298.3958749903
 31
0.0
  0
TEXT
  5
438
330
432
100
AcDbEntity
  8
Default
  6
Continuous
 62
     7
 48
25.4
100
AcDbText
 10
81.7968111235
 20
330.4800677039
 30
0.0
 40
4.0
  1
O
 50
90.0
  7
SEACAD_semeca1_ttf
 11
77.7968111235
 21
330.4800677039
 31
0.0
100
AcDbText
 73
     3
  0
TEXT
  5
439
330
432
100
AcDbEntity
  8
Default
  6
Continuous
 62
     7
 48
25.4
100
AcDbText
 10
81.7968111235
 20
337.4414712127
 30
0.0
 40
4.0
  1
170
 50
90.0
  7
SEACAD_arial_ttf
 11
77.7968111235
 21
337.4414712127
 31
0.0
100
AcDbText
 73
     3
  0
TEXT
  5
43A
330
432
100
AcDbEntity
  8
Default
  6
Continuous
 62
     7
 48
25.4
100
AcDbText
 10
81.7968111235
 20
349.2327755605
 30
0.0
 40
4.0
  1
H6
 50
90.0
  7
SEACAD_arial_ttf
 11
77.7968111235
 21
349.2327755605
 31
0.0
100
AcDbText
 73
     3
  0
ENDBLK
  5
43C
330
432
100
AcDbEntity
  8
0
100
AcDbBlockEnd
  0
BLOCK
  5
445
330
43D
100
AcDbEntity
  8
0
100
AcDbBlockBegin
  2
GDimGGroup25
 70
     0
 71
     0
 10
0.0
 20
0.0
 30
0.0
  3
GDimGGroup25
  1

  0
HATCH
  5
43F
330
43D
100
AcDbEntity
  8
Default
  6
Continuous
 62
     7
 48
25.4
100
AcDbHatch
 10
0.0
 20
0.0
 30
0.0
210
0.0
220
0.0
230
1.0
  2
SOLID
 70
     1
 71
     0
 91
        1
 92
        1
 93
        3
 72
     1
 10
104.6771171290776
 20
336.945878495806
 11
106.0104505257409
 21
336.945878495806
 72
     1
 10
106.0104505257409
 20
336.945878495806
 11
105.3437838274092
 21
340.9458786857958
 72
     1
 10
105.3437838274092
 20
340.9458786857958
 11
104.6771171290776
 21
336.945878495806
 97
        0
 75
     0
 76
     1
 98
        0
  0
LWPOLYLINE
  5
440
330
43D
100
AcDbEntity
  8
Default
  6
Continuous
 62
     7
 48
25.4
370
    20
100
AcDbPolyline
 90
        4
 70
     1
 43
0.0
 10
104.6771171291
 20
336.9458784958
 10
105.3437838274
 20
340.9458786858
 10
106.0104505257
 20
336.9458784958
 10
104.6771171291
 20
336.9458784958
  0
LINE
  5
441
330
43D
100
AcDbEntity
  8
Default
  6
Continuous
 62
     7
 48
25.4
100
AcDbLine
 10
135.7977488953
 20
340.9458786858
 30
0.0
 11
103.3437837324
 21
340.9458786858
 31
0.0
  0
LINE
  5
442
330
43D
100
AcDbEntity
  8
Default
  6
Continuous
 62
     7
 48
25.4
100
AcDbLine
 10
105.3437838274
 20
340.9458786858
 30
0.0
 11
105.3437838274
 21
298.3958773924
 31
0.0
  0
TEXT
  5
443
330
43D
100
AcDbEntity
  8
Default
  6
Continuous
 62
     7
 48
25.4
100
AcDbText
 10
104.3437838274
 20
299.9173707015
 30
0.0
 40
4.0
  1
O
 50
90.0
  7
SEACAD_semeca1_ttf
 11
100.3437838274
 21
299.9173707015
 31
0.0
100
AcDbText
 73
     3
  0
TEXT
  5
444
330
43D
100
AcDbEntity
  8
Default
  6
Continuous
 62
     7
 48
25.4
100
AcDbText
 10
104.3437838274
 20
306.8787742103
 30
0.0
 40
4.0
  1
106.375
 50
90.0
  7
SEACAD_arial_ttf
 11
100.3437838274
 21
306.8787742103
 31
0.0
100
AcDbText
 73
     3
  0
ENDBLK
  5
446
330
43D
100
AcDbEntity
  8
0
100
AcDbBlockEnd
  0
BLOCK
  5
453
330
447
100
AcDbEntity
  8
0
100
AcDbBlockBegin
  2
GDimGGroup26
 70
     0
 71
     0
 10
0.0
 20
0.0
 30
0.0
  3
GDimGGroup26
  1

  0
HATCH
  5
449
330
447
100
AcDbEntity
  8
Default
  6
Continuous
 62
     7
 48
25.4
100
AcDbHatch
 10
0.0
 20
0.0
 30
0.0
210
0.0
220
0.0
230
1.0
  2
SOLID
 70
     1
 71
     0
 91
        1
 92
        1
 93
        3
 72
     1
 10
105.6516859862397
 20
348.7127710629241
 11
105.5597496576579
 21
344.6586381447688
 72
     1
 10
105.5597496576579
 20
344.6586381447688
 11
106.9615703743667
 21
348.4638115553756
 72
     1
 10
106.9615703743667
 20
348.4638115553756
 11
105.6516859862397
 21
348.712771062924
 97
        0
 75
     0
 76
     1
 98
        0
  0
LWPOLYLINE
  5
44A
330
447
100
AcDbEntity
  8
Default
  6
Continuous
 62
     7
 48
25.4
370
    20
100
AcDbPolyline
 90
        4
 70
     1
 43
0.0
 10
105.6516859862
 20
348.7127710629
 10
105.5597496577
 20
344.6586381448
 10
106.9615703744
 20
348.4638115554
 10
105.6516859862
 20
348.7127710629
  0
HATCH
  5
44B
330
447
100
AcDbEntity
  8
Default
  6
Continuous
 62
     7
 48
25.4
100
AcDbHatch
 10
0.0
 20
0.0
 30
0.0
210
0.0
220
0.0
230
1.0
  2
SOLID
 70
     1
 71
     0
 91
        1
 92
        1
 93
        3
 72
     1
 10
106.260305346035
 20
336.9982294933456
 11
105.3326675611586
 21
340.9458786857958
 72
     1
 10
105.3326675611586
 20
340.9458786857958
 11
104.9298441060579
 21
336.910760438383
 72
     1
 10
104.9298441060579
 20
336.910760438383
 11
106.260305346035
 21
336.9982294933456
 97
        0
 75
     0
 76
     1
 98
        0
  0
LWPOLYLINE
  5
44C
330
447
100
AcDbEntity
  8
Default
  6
Continuous
 62
     7
 48
25.4
370
    20
100
AcDbPolyline
 90
        4
 70
     1
 43
0.0
 10
106.260305346
 20
336.9982294933
 10
105.3326675612
 20
340.9458786858
 10
104.9298441061
 20
336.9107604384
 10
106.260305346
 20
336.9982294933
  0
LINE
  5
44D
330
447
100
AcDbEntity
  8
Default
  6
Continuous
 62
     7
 48
25.4
100
AcDbLine
 10
145.3976553463
 20
339.7671583875
 30
0.0
 11
103.574657029
 21
344.9023768715
 31
0.0
  0
LINE
  5
44E
330
447
100
AcDbEntity
  8
Default
  6
Continuous
 62
     7
 48
25.4
100
AcDbLine
 10
135.7977488953
 20
340.9458786858
 30
0.0
 11
103.3326672333
 21
340.9458786858
 31
0.0
  0
ARC
  5
44F
330
447
100
AcDbEntity
  8
Default
  6
Continuous
 62
     7
 48
25.4
100
AcDbCircle
 10
135.7977488953
 20
340.9458786858
 30
0.0
 40
30.46508133411421
100
AcDbArc
 50
157.9543739189
 51
180.0000000525
  0
ARC
  5
450
330
447
100
AcDbEntity
  8
Default
  6
Continuous
 62
     7
 48
25.4
100
AcDbCircle
 10
135.7977488953
 20
340.9458786858
 30
0.0
 40
30.46508133411408
100
AcDbArc
 50
180.0
 51
195.0456260811
  0
TEXT
  5
451
330
447
100
AcDbEntity
  8
Default
  6
Continuous
 62
     7
 48
25.4
100
AcDbText
 10
103.761760038
 20
332.5729683743
 30
0.0
 40
4.0
  1
7°
 50
86.5
  7
SEACAD_arial_ttf
 11
99.7692208443
 21
332.8171625324
 31
0.0
100
AcDbText
 73
     3
  0
TEXT
  5
452
330
447
100
AcDbEntity
  8
Default
  6
Continuous
 62
     7
 48
25.4
100
AcDbText
 10
104.2618272053
 20
340.7489942883
 30
0.0
 40
4.0
  1
7'30"
 50
86.5
  7
SEACAD_arial_ttf
 11
100.2692880116
 21
340.9931884465
 31
0.0
100
AcDbText
 73
     3
  0
ENDBLK
  5
454
330
447
100
AcDbEntity
  8
0
100
AcDbBlockEnd
  0
BLOCK
  5
461
330
455
100
AcDbEntity
  8
0
100
AcDbBlockBegin
  2
GDimGGroup27
 70
     0
 71
     0
 10
0.0
 20
0.0
 30
0.0
  3
GDimGGroup27
  1

  0
HATCH
  5
457
330
455
100
AcDbEntity
  8
Default
  6
Continuous
 62
     7
 48
25.4
100
AcDbHatch
 10
0.0
 20
0.0
 30
0.0
210
0.0
220
0.0
230
1.0
  2
SOLID
 70
     1
 71
     0
 91
        1
 92
        1
 93
        3
 72
     1
 10
131.7977487052829
 20
254.662970920375
 11
135.7977488952727
 21
255.3296376187066
 72
     1
 10
135.7977488952727
 20
255.3296376187066
 11
131.7977487052829
 21
255.9963043170383
 72
     1
 10
131.7977487052829
 20
255.9963043170383
 11
131.7977487052829
 21
254.662970920375
 97
        0
 75
     0
 76
     1
 98
        0
  0
LWPOLYLINE
  5
458
330
455
100
AcDbEntity
  8
Default
  6
Continuous
 62
     7
 48
25.4
370
    20
100
AcDbPolyline
 90
        4
 70
     1
 43
0.0
 10
131.7977487053
 20
254.6629709204
 10
135.7977488953
 20
255.3296376187
 10
131.7977487053
 20
255.996304317
 10
131.7977487053
 20
254.6629709204
  0
HATCH
  5
459
330
455
100
AcDbEntity
  8
Default
  6
Continuous
 62
     7
 48
25.4
100
AcDbHatch
 10
0.0
 20
0.0
 30
0.0
210
0.0
220
0.0
230
1.0
  2
SOLID
 70
     1
 71
     0
 91
        1
 92
        1
 93
        3
 72
     1
 10
68.59775082571812
 20
254.662970920375
 11
68.59775082571812
 21
255.9963043170383
 72
     1
 10
68.59775082571812
 20
255.9963043170383
 11
64.59775063572832
 21
255.3296376187066
 72
     1
 10
64.59775063572832
 20
255.3296376187066
 11
68.59775082571812
 21
254.662970920375
 97
        0
 75
     0
 76
     1
 98
        0
  0
LWPOLYLINE
  5
45A
330
455
100
AcDbEntity
  8
Default
  6
Continuous
 62
     7
 48
25.4
370
    20
100
AcDbPolyline
 90
        4
 70
     1
 43
0.0
 10
68.5977508257
 20
254.6629709204
 10
64.5977506357
 20
255.3296376187
 10
68.5977508257
 20
255.996304317
 10
68.5977508257
 20
254.6629709204
  0
LINE
  5
45B
330
455
100
AcDbEntity
  8
Default
  6
Continuous
 62
     7
 48
25.4
100
AcDbLine
 10
135.7977488953
 20
255.8458786858
 30
0.0
 11
135.7977488953
 21
253.3296375237
 31
0.0
  0
LINE
  5
45C
330
455
100
AcDbEntity
  8
Default
  6
Continuous
 62
     7
 48
25.4
100
AcDbLine
 10
64.5977488953
 20
284.7958786858
 30
0.0
 11
64.5977488953
 21
253.3296375237
 31
0.0
  0
LINE
  5
45D
330
455
100
AcDbEntity
  8
Default
  6
Continuous
 62
     7
 48
25.4
100
AcDbLine
 10
135.7977488953
 20
255.3296376187
 30
0.0
 11
64.5977506357
 21
255.3296376187
 31
0.0
  0
TEXT
  5
45E
330
455
100
AcDbEntity
  8
Default
  6
Continuous
 62
     7
 48
25.4
100
AcDbText
 10
103.5542715046
 20
262.3296376187
 30
0.0
 40
4.0
  1
89
  7
SEACAD_arial_ttf
 11
103.5542715046
 21
266.3296376187
 31
0.0
100
AcDbText
 73
     3
  0
TEXT
  5
45F
330
455
100
AcDbEntity
  8
Default
  6
Continuous
 62
     7
 48
25.4
100
AcDbText
 10
90.5803584612
 20
262.3296376187
 30
0.0
 40
4.0
  1
MIN
  7
SEACAD_arial_ttf
 11
90.5803584612
 21
266.3296376187
 31
0.0
100
AcDbText
 73
     3
  0
TEXT
  5
460
330
455
100
AcDbEntity
  8
Default
  6
Continuous
 62
     7
 48
25.4
100
AcDbText
 10
90.5803584612
 20
256.3296376187
 30
0.0
 40
4.0
  1
 MAX 110
  7
SEACAD_arial_ttf
 11
90.5803584612
 21
260.3296376187
 31
0.0
100
AcDbText
 73
     3
  0
ENDBLK
  5
462
330
455
100
AcDbEntity
  8
0
100
AcDbBlockEnd
  0
BLOCK
  5
46D
330
463
100
AcDbEntity
  8
0
100
AcDbBlockBegin
  2
GDimGGroup28
 70
     0
 71
     0
 10
0.0
 20
0.0
 30
0.0
  3
GDimGGroup28
  1

  0
HATCH
  5
465
330
463
100
AcDbEntity
  8
Default
  6
Continuous
 62
     7
 48
25.4
100
AcDbHatch
 10
0.0
 20
0.0
 30
0.0
210
0.0
220
0.0
230
1.0
  2
SOLID
 70
     1
 71
     0
 91
        1
 92
        1
 93
        3
 72
     1
 10
60.59774870528291
 20
254.7018084033414
 11
64.59774889527272
 21
255.3684751016731
 72
     1
 10
64.59774889527272
 20
255.3684751016731
 11
60.59774870528291
 21
256.0351418000047
 72
     1
 10
60.59774870528291
 20
256.0351418000047
 11
60.59774870528291
 21
254.7018084033414
 97
        0
 75
     0
 76
     1
 98
        0
  0
LWPOLYLINE
  5
466
330
463
100
AcDbEntity
  8
Default
  6
Continuous
 62
     7
 48
25.4
370
    20
100
AcDbPolyline
 90
        4
 70
     1
 43
0.0
 10
60.5977487053
 20
254.7018084033
 10
64.5977488953
 20
255.3684751017
 10
60.5977487053
 20
256.0351418
 10
60.5977487053
 20
254.7018084033
  0
HATCH
  5
467
330
463
100
AcDbEntity
  8
Default
  6
Continuous
 62
     7
 48
25.4
100
AcDbHatch
 10
0.0
 20
0.0
 30
0.0
210
0.0
220
0.0
230
1.0
  2
SOLID
 70
     1
 71
     0
 91
        1
 92
        1
 93
        3
 72
     1
 10
39.79774957998107
 20
254.7018084033414
 11
39.79774957998107
 21
256.0351418000047
 72
     1
 10
39.79774957998107
 20
256.0351418000047
 11
35.79774938999127
 21
255.3684751016731
 72
     1
 10
35.79774938999127
 20
255.3684751016731
 11
39.79774957998107
 21
254.7018084033414
 97
        0
 75
     0
 76
     1
 98
        0
  0
LWPOLYLINE
  5
468
330
463
100
AcDbEntity
  8
Default
  6
Continuous
 62
     7
 48
25.4
370
    20
100
AcDbPolyline
 90
        4
 70
     1
 43
0.0
 10
39.79774958
 20
254.7018084033
 10
35.79774939
 20
255.3684751017
 10
39.79774958
 20
256.0351418
 10
39.79774958
 20
254.7018084033
  0
LINE
  5
469
330
463
100
AcDbEntity
  8
Default
  6
Continuous
 62
     7
 48
25.4
100
AcDbLine
 10
64.5977488953
 20
284.7958786858
 30
0.0
 11
64.5977488953
 21
253.3684750067
 31
0.0
  0
LINE
  5
46A
330
463
100
AcDbEntity
  8
Default
  6
Continuous
 62
     7
 48
25.4
100
AcDbLine
 10
35.7977488953
 20
291.9958786858
 30
0.0
 11
35.7977488953
 21
253.3684750067
 31
0.0
  0
LINE
  5
46B
330
463
100
AcDbEntity
  8
Default
  6
Continuous
 62
     7
 48
25.4
100
AcDbLine
 10
64.5977488953
 20
255.3684751017
 30
0.0
 11
35.79774939
 21
255.3684751017
 31
0.0
  0
TEXT
  5
46C
330
463
100
AcDbEntity
  8
Default
  6
Continuous
 62
     7
 48
25.4
100
AcDbText
 10
47.06731436
 20
256.3684751017
 30
0.0
 40
4.0
  1
36
  7
SEACAD_arial_ttf
 11
47.06731436
 21
260.3684751017
 31
0.0
100
AcDbText
 73
     3
  0
ENDBLK
  5
46E
330
463
100
AcDbEntity
  8
0
100
AcDbBlockEnd
  0
BLOCK
  5
479
330
46F
100
AcDbEntity
  8
0
100
AcDbBlockBegin
  2
GDimGGroup29
 70
     0
 71
     0
 10
0.0
 20
0.0
 30
0.0
  3
GDimGGroup29
  1

  0
HATCH
  5
471
330
46F
100
AcDbEntity
  8
Default
  6
Continuous
 62
     7
 48
25.4
100
AcDbHatch
 10
0.0
 20
0.0
 30
0.0
210
0.0
220
0.0
230
1.0
  2
SOLID
 70
     1
 71
     0
 91
        1
 92
        1
 93
        3
 72
     1
 10
153.3977490852625
 20
202.5274280575853
 11
153.3977490852625
 21
203.8607614542485
 72
     1
 10
153.3977490852625
 20
203.8607614542485
 11
149.3977488952727
 21
203.1940947559169
 72
     1
 10
149.3977488952727
 20
203.1940947559169
 11
153.3977490852625
 21
202.5274280575853
 97
        0
 75
     0
 76
     1
 98
        0
  0
LWPOLYLINE
  5
472
330
46F
100
AcDbEntity
  8
Default
  6
Continuous
 62
     7
 48
25.4
370
    20
100
AcDbPolyline
 90
        4
 70
     1
 43
0.0
 10
153.3977490853
 20
202.5274280576
 10
149.3977488953
 20
203.1940947559
 10
153.3977490853
 20
203.8607614542
 10
153.3977490853
 20
202.5274280576
  0
HATCH
  5
473
330
46F
100
AcDbEntity
  8
Default
  6
Continuous
 62
     7
 48
25.4
100
AcDbHatch
 10
0.0
 20
0.0
 30
0.0
210
0.0
220
0.0
230
1.0
  2
SOLID
 70
     1
 71
     0
 91
        1
 92
        1
 93
        3
 72
     1
 10
131.7977487052829
 20
202.5274280575853
 11
135.7977488952727
 21
203.1940947559169
 72
     1
 10
135.7977488952727
 20
203.1940947559169
 11
131.7977487052829
 21
203.8607614542485
 72
     1
 10
131.7977487052829
 20
203.8607614542485
 11
131.7977487052829
 21
202.5274280575853
 97
        0
 75
     0
 76
     1
 98
        0
  0
LWPOLYLINE
  5
474
330
46F
100
AcDbEntity
  8
Default
  6
Continuous
 62
     7
 48
25.4
370
    20
100
AcDbPolyline
 90
        4
 70
     1
 43
0.0
 10
131.7977487053
 20
202.5274280576
 10
135.7977488953
 20
203.1940947559
 10
131.7977487053
 20
203.8607614542
 10
131.7977487053
 20
202.5274280576
  0
LINE
  5
475
330
46F
100
AcDbEntity
  8
Default
  6
Continuous
 62
     7
 48
25.4
100
AcDbLine
 10
149.3977488953
 20
235.6553505447
 30
0.0
 11
149.3977488953
 21
201.1940946609
 31
0.0
  0
LINE
  5
476
330
46F
100
AcDbEntity
  8
Default
  6
Continuous
 62
     7
 48
25.4
100
AcDbLine
 10
135.7977488953
 20
235.6553505447
 30
0.0
 11
135.7977488953
 21
201.1940946609
 31
0.0
  0
LINE
  5
477
330
46F
100
AcDbEntity
  8
Default
  6
Continuous
 62
     7
 48
25.4
100
AcDbLine
 10
157.3977492753
 20
203.1940947559
 30
0.0
 11
127.797748335
 21
203.1940947559
 31
0.0
  0
TEXT
  5
478
330
46F
100
AcDbEntity
  8
Default
  6
Continuous
 62
     7
 48
25.4
100
AcDbText
 10
139.4673140225
 20
204.1940947559
 30
0.0
 40
4.0
  1
17
  7
SEACAD_arial_ttf
 11
139.4673140225
 21
208.1940947559
 31
0.0
100
AcDbText
 73
     3
  0
ENDBLK
  5
47A
330
46F
100
AcDbEntity
  8
0
100
AcDbBlockEnd
  0
BLOCK
  5
485
330
47B
100
AcDbEntity
  8
0
100
AcDbBlockBegin
  2
GDimGGroup30
 70
     0
 71
     0
 10
0.0
 20
0.0
 30
0.0
  3
GDimGGroup30
  1

  0
HATCH
  5
47D
330
47B
100
AcDbEntity
  8
Default
  6
Continuous
 62
     7
 48
25.4
100
AcDbHatch
 10
0.0
 20
0.0
 30
0.0
210
0.0
220
0.0
230
1.0
  2
SOLID
 70
     1
 71
     0
 91
        1
 92
        1
 93
        3
 72
     1
 10
153.3977490852625
 20
221.7376288143735
 11
153.3977490852625
 21
223.0709622110368
 72
     1
 10
153.3977490852625
 20
223.0709622110368
 11
149.3977488952727
 21
222.4042955127052
 72
     1
 10
149.3977488952727
 20
222.4042955127052
 11
153.3977490852625
 21
221.7376288143735
 97
        0
 75
     0
 76
     1
 98
        0
  0
LWPOLYLINE
  5
47E
330
47B
100
AcDbEntity
  8
Default
  6
Continuous
 62
     7
 48
25.4
370
    20
100
AcDbPolyline
 90
        4
 70
     1
 43
0.0
 10
153.3977490853
 20
221.7376288144
 10
149.3977488953
 20
222.4042955127
 10
153.3977490853
 20
223.070962211
 10
153.3977490853
 20
221.7376288144
  0
HATCH
  5
47F
330
47B
100
AcDbEntity
  8
Default
  6
Continuous
 62
     7
 48
25.4
100
AcDbHatch
 10
0.0
 20
0.0
 30
0.0
210
0.0
220
0.0
230
1.0
  2
SOLID
 70
     1
 71
     0
 91
        1
 92
        1
 93
        3
 72
     1
 10
141.3977487052829
 20
221.7376288143735
 11
145.3977488952727
 21
222.4042955127052
 72
     1
 10
145.3977488952727
 20
222.4042955127052
 11
141.3977487052829
 21
223.0709622110368
 72
     1
 10
141.3977487052829
 20
223.0709622110368
 11
141.3977487052829
 21
221.7376288143735
 97
        0
 75
     0
 76
     1
 98
        0
  0
LWPOLYLINE
  5
480
330
47B
100
AcDbEntity
  8
Default
  6
Continuous
 62
     7
 48
25.4
370
    20
100
AcDbPolyline
 90
        4
 70
     1
 43
0.0
 10
141.3977487053
 20
221.7376288144
 10
145.3977488953
 20
222.4042955127
 10
141.3977487053
 20
223.070962211
 10
141.3977487053
 20
221.7376288144
  0
LINE
  5
481
330
47B
100
AcDbEntity
  8
Default
  6
Continuous
 62
     7
 48
25.4
100
AcDbLine
 10
149.3977488953
 20
235.6553505447
 30
0.0
 11
149.3977488953
 21
220.4042954177
 31
0.0
  0
LINE
  5
482
330
47B
100
AcDbEntity
  8
Default
  6
Continuous
 62
     7
 48
25.4
100
AcDbLine
 10
145.3977488953
 20
230.3958786858
 30
0.0
 11
145.3977488953
 21
220.4042954177
 31
0.0
  0
LINE
  5
483
330
47B
100
AcDbEntity
  8
Default
  6
Continuous
 62
     7
 48
25.4
100
AcDbLine
 10
158.6493061858
 20
222.4042955127
 30
0.0
 11
137.397748791
 21
222.4042955127
 31
0.0
  0
TEXT
  5
484
330
47B
100
AcDbEntity
  8
Default
  6
Continuous
 62
     7
 48
25.4
100
AcDbText
 10
154.118871739
 20
223.4042955127
 30
0.0
 40
4.0
  1
5
  7
SEACAD_arial_ttf
 11
154.118871739
 21
227.4042955127
 31
0.0
100
AcDbText
 73
     3
  0
ENDBLK
  5
486
330
47B
100
AcDbEntity
  8
0
100
AcDbBlockEnd
  0
BLOCK
  5
491
330
487
100
AcDbEntity
  8
0
100
AcDbBlockBegin
  2
GDimGGroup31
 70
     0
 71
     0
 10
0.0
 20
0.0
 30
0.0
  3
GDimGGroup31
  1

  0
HATCH
  5
489
330
487
100
AcDbEntity
  8
Default
  6
Continuous
 62
     7
 48
25.4
100
AcDbHatch
 10
0.0
 20
0.0
 30
0.0
210
0.0
220
0.0
230
1.0
  2
SOLID
 70
     1
 71
     0
 91
        1
 92
        1
 93
        3
 72
     1
 10
68.59774908526252
 20
268.7891454725548
 11
68.59774908526252
 21
270.1224788692181
 72
     1
 10
68.59774908526252
 20
270.1224788692181
 11
64.59774889527272
 21
269.4558121708865
 72
     1
 10
64.59774889527272
 20
269.4558121708865
 11
68.59774908526252
 21
268.7891454725548
 97
        0
 75
     0
 76
     1
 98
        0
  0
LWPOLYLINE
  5
48A
330
487
100
AcDbEntity
  8
Default
  6
Continuous
 62
     7
 48
25.4
370
    20
100
AcDbPolyline
 90
        4
 70
     1
 43
0.0
 10
68.5977490853
 20
268.7891454726
 10
64.5977488953
 20
269.4558121709
 10
68.5977490853
 20
270.1224788692
 10
68.5977490853
 20
268.7891454726
  0
HATCH
  5
48B
330
487
100
AcDbEntity
  8
Default
  6
Continuous
 62
     7
 48
25.4
100
AcDbHatch
 10
0.0
 20
0.0
 30
0.0
210
0.0
220
0.0
230
1.0
  2
SOLID
 70
     1
 71
     0
 91
        1
 92
        1
 93
        3
 72
     1
 10
80.59774825824808
 20
268.7891454725548
 11
84.59774844823788
 21
269.4558121708865
 72
     1
 10
84.59774844823788
 20
269.4558121708865
 11
80.59774825824808
 21
270.1224788692181
 72
     1
 10
80.59774825824808
 20
270.1224788692181
 11
80.59774825824808
 21
268.7891454725548
 97
        0
 75
     0
 76
     1
 98
        0
  0
LWPOLYLINE
  5
48C
330
487
100
AcDbEntity
  8
Default
  6
Continuous
 62
     7
 48
25.4
370
    20
100
AcDbPolyline
 90
        4
 70
     1
 43
0.0
 10
80.5977482582
 20
268.7891454726
 10
84.5977484482
 20
269.4558121709
 10
80.5977482582
 20
270.1224788692
 10
80.5977482582
 20
268.7891454726
  0
LINE
  5
48D
330
487
100
AcDbEntity
  8
Default
  6
Continuous
 62
     7
 48
25.4
100
AcDbLine
 10
64.5977488953
 20
284.7958786858
 30
0.0
 11
64.5977488953
 21
267.4558120759
 31
0.0
  0
LINE
  5
48E
330
487
100
AcDbEntity
  8
Default
  6
Continuous
 62
     7
 48
25.4
100
AcDbLine
 10
84.5977488953
 20
283.1958786858
 30
0.0
 11
84.5977488953
 21
267.4558120759
 31
0.0
  0
LINE
  5
48F
330
487
100
AcDbEntity
  8
Default
  6
Continuous
 62
     7
 48
25.4
100
AcDbLine
 10
64.5977488953
 20
269.4558121709
 30
0.0
 11
84.5977484482
 21
269.4558121709
 31
0.0
  0
TEXT
  5
490
330
487
100
AcDbEntity
  8
Default
  6
Continuous
 62
     7
 48
25.4
100
AcDbText
 10
71.4673138891
 20
270.4558121709
 30
0.0
 40
4.0
  1
25
  7
SEACAD_arial_ttf
 11
71.4673138891
 21
274.4558121709
 31
0.0
100
AcDbText
 73
     3
  0
ENDBLK
  5
492
330
487
100
AcDbEntity
  8
0
100
AcDbBlockEnd
  0
BLOCK
  5
49D
330
493
100
AcDbEntity
  8
0
100
AcDbBlockBegin
  2
GDimGGroup32
 70
     0
 71
     0
 10
0.0
 20
0.0
 30
0.0
  3
GDimGGroup32
  1

  0
HATCH
  5
495
330
493
100
AcDbEntity
  8
Default
  6
Continuous
 62
     7
 48
25.4
100
AcDbHatch
 10
0.0
 20
0.0
 30
0.0
210
0.0
220
0.0
230
1.0
  2
SOLID
 70
     1
 71
     0
 91
        1
 92
        1
 93
        3
 72
     1
 10
242.9977487052829
 20
397.6416383918709
 11
242.9977487052829
 21
396.3083049952076
 72
     1
 10
242.9977487052829
 20
396.3083049952076
 11
246.9977488952727
 21
396.9749716935392
 72
     1
 10
246.9977488952727
 20
396.9749716935392
 11
242.9977487052829
 21
397.6416383918709
 97
        0
 75
     0
 76
     1
 98
        0
  0
LWPOLYLINE
  5
496
330
493
100
AcDbEntity
  8
Default
  6
Continuous
 62
     7
 48
25.4
370
    20
100
AcDbPolyline
 90
        4
 70
     1
 43
0.0
 10
242.9977487053
 20
397.6416383919
 10
246.9977488953
 20
396.9749716935
 10
242.9977487053
 20
396.3083049952
 10
242.9977487053
 20
397.6416383919
  0
HATCH
  5
497
330
493
100
AcDbEntity
  8
Default
  6
Continuous
 62
     7
 48
25.4
100
AcDbHatch
 10
0.0
 20
0.0
 30
0.0
210
0.0
220
0.0
230
1.0
  2
SOLID
 70
     1
 71
     0
 91
        1
 92
        1
 93
        3
 72
     1
 10
217.3977502833159
 20
397.6416383918709
 11
213.3977500933261
 21
396.9749716935392
 72
     1
 10
213.3977500933261
 20
396.9749716935392
 11
217.3977502833159
 21
396.3083049952076
 72
     1
 10
217.3977502833159
 20
396.3083049952076
 11
217.3977502833159
 21
397.6416383918709
 97
        0
 75
     0
 76
     1
 98
        0
  0
LWPOLYLINE
  5
498
330
493
100
AcDbEntity
  8
Default
  6
Continuous
 62
     7
 48
25.4
370
    20
100
AcDbPolyline
 90
        4
 70
     1
 43
0.0
 10
217.3977502833
 20
397.6416383919
 10
213.3977500933
 20
396.9749716935
 10
217.3977502833
 20
396.3083049952
 10
217.3977502833
 20
397.6416383919
  0
LINE
  5
499
330
493
100
AcDbEntity
  8
Default
  6
Continuous
 62
     7
 48
25.4
100
AcDbLine
 10
246.9977488953
 20
383.9958786858
 30
0.0
 11
246.9977488953
 21
398.9749717885
 31
0.0
  0
LINE
  5
49A
330
493
100
AcDbEntity
  8
Default
  6
Continuous
 62
     7
 48
25.4
100
AcDbLine
 10
213.3977488953
 20
380.7958786858
 30
0.0
 11
213.3977488953
 21
398.9749717885
 31
0.0
  0
LINE
  5
49B
330
493
100
AcDbEntity
  8
Default
  6
Continuous
 62
     7
 48
25.4
100
AcDbLine
 10
246.9977488953
 20
396.9749716935
 30
0.0
 11
213.3977500933
 21
396.9749716935
 31
0.0
  0
TEXT
  5
49C
330
493
100
AcDbEntity
  8
Default
  6
Continuous
 62
     7
 48
25.4
100
AcDbText
 10
227.0673147117
 20
397.9749716935
 30
0.0
 40
4.0
  1
42
  7
SEACAD_arial_ttf
 11
227.0673147117
 21
401.9749716935
 31
0.0
100
AcDbText
 73
     3
  0
ENDBLK
  5
49E
330
493
100
AcDbEntity
  8
0
100
AcDbBlockEnd
  0
BLOCK
  5
4AB
330
49F
100
AcDbEntity
  8
0
100
AcDbBlockBegin
  2
GDimGGroup33
 70
     0
 71
     0
 10
0.0
 20
0.0
 30
0.0
  3
GDimGGroup33
  1

  0
HATCH
  5
4A1
330
49F
100
AcDbEntity
  8
Default
  6
Continuous
 62
     7
 48
25.4
100
AcDbHatch
 10
0.0
 20
0.0
 30
0.0
210
0.0
220
0.0
230
1.0
  2
SOLID
 70
     1
 71
     0
 91
        1
 92
        1
 93
        3
 72
     1
 10
284.1929837660592
 20
331.4358784958061
 11
283.5263170677275
 21
335.4358786857959
 72
     1
 10
283.5263170677275
 20
335.4358786857959
 11
282.8596503693959
 21
331.4358784958061
 72
     1
 10
282.8596503693959
 20
331.4358784958061
 11
284.1929837660592
 21
331.4358784958061
 97
        0
 75
     0
 76
     1
 98
        0
  0
LWPOLYLINE
  5
4A2
330
49F
100
AcDbEntity
  8
Default
  6
Continuous
 62
     7
 48
25.4
370
    20
100
AcDbPolyline
 90
        4
 70
     1
 43
0.0
 10
284.1929837661
 20
331.4358784958
 10
283.5263170677
 20
335.4358786858
 10
282.8596503694
 20
331.4358784958
 10
284.1929837661
 20
331.4358784958
  0
HATCH
  5
4A3
330
49F
100
AcDbEntity
  8
Default
  6
Continuous
 62
     7
 48
25.4
100
AcDbHatch
 10
0.0
 20
0.0
 30
0.0
210
0.0
220
0.0
230
1.0
  2
SOLID
 70
     1
 71
     0
 91
        1
 92
        1
 93
        3
 72
     1
 10
284.1929837660592
 20
348.7958788757857
 11
282.8596503693959
 21
348.7958788757857
 72
     1
 10
282.8596503693959
 20
348.7958788757857
 11
283.5263170677275
 21
344.7958786857959
 72
     1
 10
283.5263170677275
 20
344.7958786857959
 11
284.1929837660592
 21
348.7958788757857
 97
        0
 75
     0
 76
     1
 98
        0
  0
LWPOLYLINE
  5
4A4
330
49F
100
AcDbEntity
  8
Default
  6
Continuous
 62
     7
 48
25.4
370
    20
100
AcDbPolyline
 90
        4
 70
     1
 43
0.0
 10
284.1929837661
 20
348.7958788758
 10
283.5263170677
 20
344.7958786858
 10
282.8596503694
 20
348.7958788758
 10
284.1929837661
 20
348.7958788758
  0
LINE
  5
4A5
330
49F
100
AcDbEntity
  8
Default
  6
Continuous
 62
     7
 48
25.4
100
AcDbLine
 10
216.5977487716
 20
335.4358786858
 30
0.0
 11
285.5263171627
 21
335.4358786858
 31
0.0
  0
LINE
  5
4A6
330
49F
100
AcDbEntity
  8
Default
  6
Continuous
 62
     7
 48
25.4
100
AcDbLine
 10
249.3563636976
 20
344.7958786858
 30
0.0
 11
285.5263171627
 21
344.7958786858
 31
0.0
  0
LINE
  5
4A7
330
49F
100
AcDbEntity
  8
Default
  6
Continuous
 62
     7
 48
25.4
100
AcDbLine
 10
283.5263170677
 20
267.2302315153
 30
0.0
 11
283.5263170677
 21
352.7958786256
 31
0.0
  0
TEXT
  5
4A8
330
49F
100
AcDbEntity
  8
Default
  6
Continuous
 62
     7
 48
25.4
100
AcDbText
 10
276.5263170677
 20
283.3432771929
 30
0.0
 40
4.0
  1
22.25
 50
90.0
  7
SEACAD_arial_ttf
 11
272.5263170677
 21
283.3432771929
 31
0.0
100
AcDbText
 73
     3
  0
TEXT
  5
4A9
330
49F
100
AcDbEntity
  8
Default
  6
Continuous
 62
     7
 48
25.4
100
AcDbText
 10
276.5263170677
 20
268.6302337147
 30
0.0
 40
4.0
  1
MAX
 50
90.0
  7
SEACAD_arial_ttf
 11
272.5263170677
 21
268.6302337147
 31
0.0
100
AcDbText
 73
     3
  0
TEXT
  5
4AA
330
49F
100
AcDbEntity
  8
Default
  6
Continuous
 62
     7
 48
25.4
100
AcDbText
 10
282.5263170677
 20
268.6302337147
 30
0.0
 40
4.0
  1
MIN 11.75
 50
90.0
  7
SEACAD_arial_ttf
 11
278.5263170677
 21
268.6302337147
 31
0.0
100
AcDbText
 73
     3
  0
ENDBLK
  5
4AC
330
49F
100
AcDbEntity
  8
0
100
AcDbBlockEnd
  0
BLOCK
  5
4B7
330
4AD
100
AcDbEntity
  8
0
100
AcDbBlockBegin
  2
GDimGGroup34
 70
     0
 71
     0
 10
0.0
 20
0.0
 30
0.0
  3
GDimGGroup34
  1

  0
HATCH
  5
4AF
330
4AD
100
AcDbEntity
  8
Default
  6
Continuous
 62
     7
 48
25.4
100
AcDbHatch
 10
0.0
 20
0.0
 30
0.0
210
0.0
220
0.0
230
1.0
  2
SOLID
 70
     1
 71
     0
 91
        1
 92
        1
 93
        3
 72
     1
 10
515.2163052087593
 20
255.4053163671987
 11
513.875365699765
 21
251.5782643372674
 72
     1
 10
513.875365699765
 20
251.5782643372674
 11
516.3850280558185
 21
254.7635493896908
 72
     1
 10
516.3850280558185
 20
254.7635493896908
 11
515.2163052087593
 21
255.4053163671987
 97
        0
 75
     0
 76
     1
 98
        0
  0
LWPOLYLINE
  5
4B0
330
4AD
100
AcDbEntity
  8
Default
  6
Continuous
 62
     7
 48
25.4
370
    20
100
AcDbPolyline
 90
        4
 70
     1
 43
0.0
 10
515.2163052088
 20
255.4053163672
 10
513.8753656998
 20
251.5782643373
 10
516.3850280558
 20
254.7635493897
 10
515.2163052088
 20
255.4053163672
  0
HATCH
  5
4B1
330
4AD
100
AcDbEntity
  8
Default
  6
Continuous
 62
     7
 48
25.4
100
AcDbHatch
 10
0.0
 20
0.0
 30
0.0
210
0.0
220
0.0
230
1.0
  2
SOLID
 70
     1
 71
     0
 91
        1
 92
        1
 93
        3
 72
     1
 10
526.9579667901753
 20
294.2222950961445
 11
526.3771779067322
 21
298.2356640399935
 72
     1
 10
526.3771779067321
 20
298.2356640399935
 11
525.6249396254976
 21
294.2508699957764
 72
     1
 10
525.6249396254976
 20
294.2508699957764
 11
526.9579667901753
 21
294.2222950961445
 97
        0
 75
     0
 76
     1
 98
        0
  0
LWPOLYLINE
  5
4B2
330
4AD
100
AcDbEntity
  8
Default
  6
Continuous
 62
     7
 48
25.4
370
    20
100
AcDbPolyline
 90
        4
 70
     1
 43
0.0
 10
526.9579667902
 20
294.2222950961
 10
526.3771779067
 20
298.23566404
 10
525.6249396255
 20
294.2508699958
 10
526.9579667902
 20
294.2222950961
  0
LINE
  5
4B3
330
4AD
100
AcDbEntity
  8
Default
  6
Continuous
 62
     7
 48
25.4
100
AcDbLine
 10
511.8922746162
 20
252.7232025082
 30
0.0
 11
515.607413565
 21
250.578266036
 31
0.0
  0
LINE
  5
4B4
330
4AD
100
AcDbEntity
  8
Default
  6
Continuous
 62
     7
 48
25.4
100
AcDbLine
 10
433.0623812206
 20
298.2356626804
 30
0.0
 11
528.3771745093
 21
298.2356626804
 31
0.0
  0
ARC
  5
4B5
330
4AD
100
AcDbEntity
  8
Default
  6
Continuous
 62
     7
 48
25.4
100
AcDbCircle
 10
433.0623812206
 20
298.2356626804
 30
0.0
 40
93.31479668617094
100
AcDbArc
 50
330.0
 51
0.0000008348
  0
TEXT
  5
4B6
330
4AD
100
AcDbEntity
  8
Default
  6
Continuous
 62
     7
 48
25.4
100
AcDbText
 10
521.1288332962
 20
270.2271511977
 30
0.0
 40
4.0
  1
30°
 50
75.0
  7
SEACAD_arial_ttf
 11
517.265129991
 21
271.2624273781
 31
0.0
100
AcDbText
 73
     3
  0
ENDBLK
  5
4B8
330
4AD
100
AcDbEntity
  8
0
100
AcDbBlockEnd
  0
ENDSEC
  0
SECTION
  2
ENTITIES
  0
INSERT
  5
2C
330
1F
100
AcDbEntity
  8
Default
100
AcDbBlockReference
  2
SEANNOT_GROUP
 10
0.0
 20
0.0
 30
0.0
  0
INSERT
  5
36
330
1F
100
AcDbEntity
  8
Default
100
AcDbBlockReference
  2
SEANNOT_GROUP1
 10
0.0
 20
0.0
 30
0.0
  0
INSERT
  5
40
330
1F
100
AcDbEntity
  8
Default
100
AcDbBlockReference
  2
SEANNOT_GROUP2
 10
0.0
 20
0.0
 30
0.0
  0
INSERT
  5
49
330
1F
100
AcDbEntity
  8
Default
100
AcDbBlockReference
  2
SEANNOT_GROUP3
 10
0.0
 20
0.0
 30
0.0
  0
INSERT
  5
52
330
1F
100
AcDbEntity
  8
Default
100
AcDbBlockReference
  2
SE
 10
0.0
 20
0.0
 30
0.0
  0
INSERT
  5
1AA
330
1F
100
AcDbEntity
  8
Default
100
AcDbBlockReference
  2
SE1
 10
0.0
 20
0.0
 30
0.0
  0
INSERT
  5
275
330
1F
100
AcDbEntity
  8
Default
100
AcDbBlockReference
  2
SE2
 10
0.0
 20
0.0
 30
0.0
  0
INSERT
  5
317
330
1F
100
AcDbEntity
  8
Default
100
AcDbBlockReference
  2
GDimGGroup
 10
0.0
 20
0.0
 30
0.0
  0
INSERT
  5
323
330
1F
100
AcDbEntity
  8
Default
100
AcDbBlockReference
  2
GDimGGroup1
 10
0.0
 20
0.0
 30
0.0
  0
INSERT
  5
331
330
1F
100
AcDbEntity
  8
Default
100
AcDbBlockReference
  2
GDimGGroup2
 10
0.0
 20
0.0
 30
0.0
  0
INSERT
  5
33D
330
1F
100
AcDbEntity
  8
Default
100
AcDbBlockReference
  2
GDimGGroup3
 10
0.0
 20
0.0
 30
0.0
  0
INSERT
  5
348
330
1F
100
AcDbEntity
  8
Default
100
AcDbBlockReference
  2
GDimGGroup4
 10
0.0
 20
0.0
 30
0.0
  0
INSERT
  5
354
330
1F
100
AcDbEntity
  8
Default
100
AcDbBlockReference
  2
GDimGGroup5
 10
0.0
 20
0.0
 30
0.0
  0
INSERT
  5
360
330
1F
100
AcDbEntity
  8
Default
100
AcDbBlockReference
  2
GDimGGroup6
 10
0.0
 20
0.0
 30
0.0
  0
INSERT
  5
36C
330
1F
100
AcDbEntity
  8
Default
100
AcDbBlockReference
  2
GDimGGroup7
 10
0.0
 20
0.0
 30
0.0
  0
INSERT
  5
376
330
1F
100
AcDbEntity
  8
Default
100
AcDbBlockReference
  2
GDimGGroup8
 10
0.0
 20
0.0
 30
0.0
  0
INSERT
  5
380
330
1F
100
AcDbEntity
  8
Default
100
AcDbBlockReference
  2
GDimGGroup9
 10
0.0
 20
0.0
 30
0.0
  0
INSERT
  5
38C
330
1F
100
AcDbEntity
  8
Default
100
AcDbBlockReference
  2
GDimGGroup10
 10
0.0
 20
0.0
 30
0.0
  0
INSERT
  5
398
330
1F
100
AcDbEntity
  8
Default
100
AcDbBlockReference
  2
GDimGGroup11
 10
0.0
 20
0.0
 30
0.0
  0
INSERT
  5
3A4
330
1F
100
AcDbEntity
  8
Default
100
AcDbBlockReference
  2
GDimGGroup12
 10
0.0
 20
0.0
 30
0.0
  0
INSERT
  5
3B1
330
1F
100
AcDbEntity
  8
Default
100
AcDbBlockReference
  2
GDimGGroup13
 10
0.0
 20
0.0
 30
0.0
  0
INSERT
  5
3BD
330
1F
100
AcDbEntity
  8
Default
100
AcDbBlockReference
  2
GDimGGroup14
 10
0.0
 20
0.0
 30
0.0
  0
INSERT
  5
3C9
330
1F
100
AcDbEntity
  8
Default
100
AcDbBlockReference
  2
GDimGGroup15
 10
0.0
 20
0.0
 30
0.0
  0
INSERT
  5
3D6
330
1F
100
AcDbEntity
  8
Default
100
AcDbBlockReference
  2
GDimGGroup16
 10
0.0
 20
0.0
 30
0.0
  0
INSERT
  5
3E1
330
1F
100
AcDbEntity
  8
Default
100
AcDbBlockReference
  2
GDimGGroup17
 10
0.0
 20
0.0
 30
0.0
  0
INSERT
  5
3EC
330
1F
100
AcDbEntity
  8
Default
100
AcDbBlockReference
  2
GDimGGroup18
 10
0.0
 20
0.0
 30
0.0
  0
INSERT
  5
3F7
330
1F
100
AcDbEntity
  8
Default
100
AcDbBlockReference
  2
GDimGGroup19
 10
0.0
 20
0.0
 30
0.0
  0
INSERT
  5
404
330
1F
100
AcDbEntity
  8
Default
100
AcDbBlockReference
  2
GDimGGroup20
 10
0.0
 20
0.0
 30
0.0
  0
INSERT
  5
411
330
1F
100
AcDbEntity
  8
Default
100
AcDbBlockReference
  2
GDimGGroup21
 10
0.0
 20
0.0
 30
0.0
  0
INSERT
  5
41D
330
1F
100
AcDbEntity
  8
Default
100
AcDbBlockReference
  2
GDimGGroup22
 10
0.0
 20
0.0
 30
0.0
  0
INSERT
  5
429
330
1F
100
AcDbEntity
  8
Default
100
AcDbBlockReference
  2
GDimGGroup23
 10
0.0
 20
0.0
 30
0.0
  0
INSERT
  5
433
330
1F
100
AcDbEntity
  8
Default
100
AcDbBlockReference
  2
GDimGGroup24
 10
0.0
 20
0.0
 30
0.0
  0
INSERT
  5
43E
330
1F
100
AcDbEntity
  8
Default
100
AcDbBlockReference
  2
GDimGGroup25
 10
0.0
 20
0.0
 30
0.0
  0
INSERT
  5
448
330
1F
100
AcDbEntity
  8
Default
100
AcDbBlockReference
  2
GDimGGroup26
 10
0.0
 20
0.0
 30
0.0
  0
INSERT
  5
456
330
1F
100
AcDbEntity
  8
Default
100
AcDbBlockReference
  2
GDimGGroup27
 10
0.0
 20
0.0
 30
0.0
  0
INSERT
  5
464
330
1F
100
AcDbEntity
  8
Default
100
AcDbBlockReference
  2
GDimGGroup28
 10
0.0
 20
0.0
 30
0.0
  0
INSERT
  5
470
330
1F
100
AcDbEntity
  8
Default
100
AcDbBlockReference
  2
GDimGGroup29
 10
0.0
 20
0.0
 30
0.0
  0
INSERT
  5
47C
330
1F
100
AcDbEntity
  8
Default
100
AcDbBlockReference
  2
GDimGGroup30
 10
0.0
 20
0.0
 30
0.0
  0
INSERT
  5
488
330
1F
100
AcDbEntity
  8
Default
100
AcDbBlockReference
  2
GDimGGroup31
 10
0.0
 20
0.0
 30
0.0
  0
INSERT
  5
494
330
1F
100
AcDbEntity
  8
Default
100
AcDbBlockReference
  2
GDimGGroup32
 10
0.0
 20
0.0
 30
0.0
  0
INSERT
  5
4A0
330
1F
100
AcDbEntity
  8
Default
100
AcDbBlockReference
  2
GDimGGroup33
 10
0.0
 20
0.0
 30
0.0
  0
INSERT
  5
4AE
330
1F
100
AcDbEntity
  8
Default
100
AcDbBlockReference
  2
GDimGGroup34
 10
0.0
 20
0.0
 30
0.0
  0
LINE
  5
4BA
330
1F
100
AcDbEntity
  8
BORDER
  6
Continuous
 62
     7
 48
25.4
100
AcDbLine
 10
6.2292620399
 20
408.4651325162
 30
0.0
 11
586.2292620399
 21
408.4651325162
 31
0.0
  0
LINE
  5
4BB
330
1F
100
AcDbEntity
  8
BORDER
  6
Continuous
 62
     7
 48
25.4
100
AcDbLine
 10
6.2292620399
 20
408.4651325162
 30
0.0
 11
6.2292620399
 21
8.4651325162
 31
0.0
  0
LINE
  5
4BC
330
1F
100
AcDbEntity
  8
BORDER
  6
Continuous
 62
     7
 48
25.4
100
AcDbLine
 10
6.2292620399
 20
8.4651325162
 30
0.0
 11
586.2292620399
 21
8.4651325162
 31
0.0
  0
LINE
  5
4BD
330
1F
100
AcDbEntity
  8
BORDER
  6
Continuous
 62
     7
 48
25.4
100
AcDbLine
 10
586.2292620399
 20
8.4651325162
 30
0.0
 11
586.2292620399
 21
408.4651325162
 31
0.0
  0
LINE
  5
4BE
330
1F
100
AcDbEntity
  8
Default
  6
Continuous
 62
     7
 48
25.4
100
AcDbLine
 10
3.7292620399
 20
410.9651325162
 30
0.0
 11
588.7292620399
 21
410.9651325162
 31
0.0
  0
LINE
  5
4BF
330
1F
100
AcDbEntity
  8
Default
  6
Continuous
 62
     7
 48
25.4
100
AcDbLine
 10
588.7292620399
 20
410.9651325162
 30
0.0
 11
588.7292620399
 21
5.9651325162
 31
0.0
  0
LINE
  5
4C0
330
1F
100
AcDbEntity
  8
Default
  6
Continuous
 62
     7
 48
25.4
100
AcDbLine
 10
588.7292620399
 20
5.9651325162
 30
0.0
 11
3.7292620399
 21
5.9651325162
 31
0.0
  0
LINE
  5
4C1
330
1F
100
AcDbEntity
  8
Default
  6
Continuous
 62
     7
 48
25.4
100
AcDbLine
 10
3.7292620399
 20
5.9651325162
 30
0.0
 11
3.7292620399
 21
410.9651325162
 31
0.0
  0
TEXT
  5
4C2
330
1F
100
AcDbEntity
  8
Default
  6
Continuous
 62
     7
 48
25.4
100
AcDbText
 10
473.5242219525
 20
26.36637998
 30
0.0
 40
5.0
  1
TITLE :
  7
SEACAD_arial_ttf
 11
473.5242219525
 21
31.36637998
 31
0.0
100
AcDbText
 73
     3
  0
TEXT
  5
4C3
330
1F
100
AcDbEntity
  8
Default
  6
Continuous
 62
     7
 48
25.4
100
AcDbText
 10
473.4498030642
 20
38.7361567855
 30
0.0
 40
5.0
  1
KITAGAWA EUROPE LIMITED
  7
SEACAD_arial_ttf
 11
473.4498030642
 21
43.7361567855
 31
0.0
100
AcDbText
 73
     3
  0
TEXT
  5
4C4
330
1F
100
AcDbEntity
  8
Default
  6
Continuous
 62
     7
 48
25.4
100
AcDbText
 10
474.4044215056
 20
13.0792160468
 30
0.0
 40
5.0
  1
www.kitagawaeurope.com
  7
SEACAD_arial_ttf
 11
474.4044215056
 21
18.0792160468
 31
0.0
100
AcDbText
 73
     3
  0
TEXT
  5
4C5
330
1F
100
AcDbEntity
  8
Default
  6
Continuous
 62
     7
 48
25.4
100
AcDbText
 10
497.8463064412
 20
25.9386830015
 30
0.0
 40
5.0
  1
N-08A6 POWER CHUCK
  7
SEACAD_arial_ttf
 11
497.8463064412
 21
30.9386830015
 31
0.0
100
AcDbText
 73
     3
  0
LINE
  5
4C6
330
1F
100
AcDbEntity
  8
Default
  6
Continuous
 62
     7
 48
25.4
100
AcDbLine
 10
471.5030858285
 20
48.4651325162
 30
0.0
 11
586.2292620399
 21
48.4651325162
 31
0.0
  0
LINE
  5
4C7
330
1F
100
AcDbEntity
  8
Default
  6
Continuous
 62
     7
 48
25.4
100
AcDbLine
 10
471.5030858285
 20
35.1651325162
 30
0.0
 11
586.2292620399
 21
35.1651325162
 31
0.0
  0
LINE
  5
4C8
330
1F
100
AcDbEntity
  8
Default
  6
Continuous
 62
     7
 48
25.4
100
AcDbLine
 10
586.2292620399
 20
21.8651325162
 30
0.0
 11
471.5030858285
 21
21.8651325162
 31
0.0
  0
LINE
  5
4C9
330
1F
100
AcDbEntity
  8
Default
  6
Continuous
 62
     7
 48
25.4
100
AcDbLine
 10
471.5030858285
 20
48.4651325162
 30
0.0
 11
471.5030858285
 21
8.4651325162
 31
0.0
  0
ENDSEC
  0
SECTION
  2
OBJECTS
  0
DICTIONARY
  5
C
330
0
100
AcDbDictionary
281
     1
  3
ACAD_GROUP
350
D
  3
ACAD_LAYOUT
350
1A
  3
ACAD_MLINESTYLE
350
17
  3
ACAD_PLOTSETTINGS
350
19
  3
ACAD_PLOTSTYLENAME
350
E
  0
DICTIONARY
  5
D
102
{ACAD_REACTORS
330
C
102
}
330
C
100
AcDbDictionary
281
     1
  0
DICTIONARY
  5
1A
102
{ACAD_REACTORS
330
C
102
}
330
C
100
AcDbDictionary
281
     1
  3
Layout1
350
1E
  3
Model
350
22
  0
DICTIONARY
  5
17
102
{ACAD_REACTORS
330
C
102
}
330
C
100
AcDbDictionary
281
     1
  3
Standard
350
18
  0
DICTIONARY
  5
19
102
{ACAD_REACTORS
330
C
102
}
330
C
100
AcDbDictionary
281
     1
  0
ACDBDICTIONARYWDFLT
  5
E
102
{ACAD_REACTORS
330
C
102
}
330
C
100
AcDbDictionary
281
     1
  3
Normal
350
F
100
AcDbDictionaryWithDefault
340
F
  0
LAYOUT
  5
1E
102
{ACAD_REACTORS
330
1A
102
}
330
1A
100
AcDbPlotSettings
  1

  2

  4

  6

 40
0.0
 41
0.0
 42
0.0
 43
0.0
 44
0.0
 45
0.0
 46
0.0
 47
0.0
 48
0.0
 49
0.0
140
0.0
141
0.0
142
1.0
143
1.0
 70
   688
 72
     0
 73
     0
 74
     5
  7

 75
    16
147
1.0
148
0.0
149
0.0
100
AcDbLayout
  1
Layout1
 70
     1
 71
     1
 10
0.0
 20
0.0
 11
594.0
 21
420.0
 12
0.0
 22
0.0
 32
0.0
 14
0.0
 24
0.0
 34
0.0
 15
594.0
 25
420.0
 35
0.0
146
0.0
 13
0.0
 23
0.0
 33
0.0
 16
1.0
 26
0.0
 36
0.0
 17
0.0
 27
1.0
 37
0.0
 76
     0
330
1B
  0
LAYOUT
  5
22
102
{ACAD_REACTORS
330
1A
102
}
330
1A
100
AcDbPlotSettings
  1

  2

  4

  6

 40
0.0
 41
0.0
 42
0.0
 43
0.0
 44
0.0
 45
0.0
 46
0.0
 47
0.0
 48
0.0
 49
0.0
140
0.0
141
0.0
142
1.0
143
1.0
 70
  1712
 72
     0
 73
     0
 74
     0
  7

 75
     0
147
1.0
148
0.0
149
0.0
100
AcDbLayout
  1
Model
 70
     1
 71
     0
 10
0.0
 20
0.0
 11
594.0
 21
420.0
 12
0.0
 22
0.0
 32
0.0
 14
0.0
 24
0.0
 34
0.0
 15
594.0
 25
420.0
 35
0.0
146
0.0
 13
0.0
 23
0.0
 33
0.0
 16
1.0
 26
0.0
 36
0.0
 17
0.0
 27
1.0
 37
0.0
 76
     0
330
1F
  0
MLINESTYLE
  5
18
102
{ACAD_REACTORS
330
17
102
}
330
17
100
AcDbMlineStyle
  2
Standard
 70
     0
  3

 62
   256
 51
90.0
 52
90.0
 71
     2
 49
0.5
 62
   256
  6
BYLAYER
 49
-0.5
 62
   256
  6
BYLAYER
  0
ACDBPLACEHOLDER
  5
F
102
{ACAD_REACTORS
330
E
102
}
330
E
  0
ENDSEC
  0
EOF
